ISO-10303-21;
HEADER;
FILE_DESCRIPTION (( 'STEP AP203' ),
    '1' );
FILE_NAME ('C-1029-S-M6.STEP',
    '2012-03-27T07:42:37',
    ( '11sw' ),
    ( '^LQ»¢®ïÐ' ),
    'SwSTEP 2.0',
    'SolidWorks 2011',
    '' );
FILE_SCHEMA (( 'CONFIG_CONTROL_DESIGN' ));
ENDSEC;

DATA;
#1 = PRODUCT ( 'C-1029-S-M6', 'C-1029-S-M6', '', ( #348 ) ) ;
#2 = PERSON ( 'UNSPECIFIED', 'UNSPECIFIED', 'UNSPECIFIED', ('UNSPECIFIED'), ('UNSPECIFIED'), ('UNSPECIFIED') ) ;
#3 = UNCERTAINTY_MEASURE_WITH_UNIT (LENGTH_MEASURE( 1.000000000000000100E-005 ), #16, 'distance_accuracy_value', 'NONE');
#4 = DIRECTION ( 'NONE',  ( 0.0000000000000000000, 0.0000000000000000000, 1.000000000000000000 ) ) ;
#5 = CARTESIAN_POINT ( 'NONE',  ( 0.0000000000000000000, 7.283860049783210200, 0.0000000000000000000 ) ) ;
#6 = CARTESIAN_POINT ( 'NONE',  ( 0.0000000000000000000, 0.0000000000000000000, 0.0000000000000000000 ) ) ;
#7 = DIRECTION ( 'NONE',  ( -0.0000000000000000000, 1.000000000000000000, -0.0000000000000000000 ) ) ;
#8 = CARTESIAN_POINT ( 'NONE',  ( 9.797174393178825700E-016, 7.283860049783210200, -8.000000000000000000 ) ) ;
#9 = DIRECTION ( 'NONE',  ( 0.0000000000000000000, 0.0000000000000000000, 1.000000000000000000 ) ) ;
#10 = DIRECTION ( 'NONE',  ( -0.0000000000000000000, 1.000000000000000000, -0.0000000000000000000 ) ) ;
#11 = DIRECTION ( 'NONE',  ( 0.0000000000000000000, 0.0000000000000000000, 1.000000000000000000 ) ) ;
#12 = CARTESIAN_POINT ( 'NONE',  ( 0.0000000000000000000, 0.0000000000000000000, 0.0000000000000000000 ) ) ;
#13 = DIRECTION ( 'NONE',  ( 0.0000000000000000000, 0.0000000000000000000, 1.000000000000000000 ) ) ;
#14 = DIRECTION ( 'NONE',  ( -0.0000000000000000000, 1.000000000000000000, -0.0000000000000000000 ) ) ;
#15 =( NAMED_UNIT ( * ) PLANE_ANGLE_UNIT ( ) SI_UNIT ( $, .RADIAN. ) );
#16 =( LENGTH_UNIT ( ) NAMED_UNIT ( * ) SI_UNIT ( .MILLI., .METRE. ) );
#17 = DIRECTION ( 'NONE',  ( -0.0000000000000000000, 1.000000000000000000, -0.0000000000000000000 ) ) ;
#18 = CARTESIAN_POINT ( 'NONE',  ( 0.0000000000000000000, 7.283860049783210200, 3.499999999999999100 ) ) ;
#19 = DIRECTION ( 'NONE',  ( 0.0000000000000000000, 0.0000000000000000000, 1.000000000000000000 ) ) ;
#20 = DIRECTION ( 'NONE',  ( -0.0000000000000000000, 1.000000000000000000, -0.0000000000000000000 ) ) ;
#21 = CARTESIAN_POINT ( 'NONE',  ( 0.0000000000000000000, 3.499999999999999600, 0.0000000000000000000 ) ) ;
#22 = DIRECTION ( 'NONE',  ( 0.0000000000000000000, 0.7071067811865507900, 0.7071067811865441300 ) ) ;
#23 = CARTESIAN_POINT ( 'NONE',  ( 0.0000000000000000000, 0.5000000000000004400, 3.499999999999999100 ) ) ;
#24 = DIRECTION ( 'NONE',  ( 0.0000000000000000000, 0.0000000000000000000, 1.000000000000000000 ) ) ;
#25 = DIRECTION ( 'NONE',  ( -0.0000000000000000000, 1.000000000000000000, 0.0000000000000000000 ) ) ;
#26 = DIRECTION ( 'NONE',  ( -0.0000000000000000000, 1.000000000000000000, -0.0000000000000000000 ) ) ;
#27 = CARTESIAN_POINT ( 'NONE',  ( 0.0000000000000000000, 0.5000000000000004400, 0.0000000000000000000 ) ) ;
#28 = CARTESIAN_POINT ( 'NONE',  ( 0.0000000000000000000, 3.499999999999999600, 6.499999999999968900 ) ) ;
#29 = DIRECTION ( 'NONE',  ( 0.0000000000000000000, 0.0000000000000000000, 1.000000000000000000 ) ) ;
#30 = DIRECTION ( 'NONE',  ( -0.0000000000000000000, 1.000000000000000000, -0.0000000000000000000 ) ) ;
#31 = CARTESIAN_POINT ( 'NONE',  ( 0.0000000000000000000, 3.500000000000000000, 0.0000000000000000000 ) ) ;
#32 = CARTESIAN_POINT ( 'NONE',  ( 0.0000000000000000000, 0.0000000000000000000, 0.0000000000000000000 ) ) ;
#33 = PLANE ( 'NONE',  #196 ) ;
#34 = DIRECTION ( 'NONE',  ( 0.0000000000000000000, 0.0000000000000000000, 1.000000000000000000 ) ) ;
#35 = DIRECTION ( 'NONE',  ( -0.0000000000000000000, 1.000000000000000000, -0.0000000000000000000 ) ) ;
#36 = DIRECTION ( 'NONE',  ( 0.0000000000000000000, 0.0000000000000000000, 1.000000000000000000 ) ) ;
#37 = DIRECTION ( 'NONE',  ( -0.0000000000000000000, 1.000000000000000000, -0.0000000000000000000 ) ) ;
#38 = CARTESIAN_POINT ( 'NONE',  ( 0.0000000000000000000, 2.499999999999999600, 0.0000000000000000000 ) ) ;
#39 = DIRECTION ( 'NONE',  ( 0.0000000000000000000, 0.0000000000000000000, 1.000000000000000000 ) ) ;
#40 = DIRECTION ( 'NONE',  ( -0.0000000000000000000, 1.000000000000000000, -0.0000000000000000000 ) ) ;
#41 = CARTESIAN_POINT ( 'NONE',  ( 0.0000000000000000000, 0.5000000000000004400, 0.0000000000000000000 ) ) ;
#42 = DIRECTION ( 'NONE',  ( 0.0000000000000000000, 0.0000000000000000000, 1.000000000000000000 ) ) ;
#43 = DIRECTION ( 'NONE',  ( -0.0000000000000000000, 1.000000000000000000, -0.0000000000000000000 ) ) ;
#44 = CARTESIAN_POINT ( 'NONE',  ( 0.0000000000000000000, 0.5000000000000004400, 0.0000000000000000000 ) ) ;
#45 = DIRECTION ( 'NONE',  ( 0.0000000000000000000, 0.0000000000000000000, 1.000000000000000000 ) ) ;
#46 = DIRECTION ( 'NONE',  ( 0.0000000000000000000, 0.0000000000000000000, 1.000000000000000000 ) ) ;
#47 = DIRECTION ( 'NONE',  ( -0.0000000000000000000, 1.000000000000000000, -0.0000000000000000000 ) ) ;
#48 = CARTESIAN_POINT ( 'NONE',  ( 0.0000000000000000000, 2.499999999999999600, 0.0000000000000000000 ) ) ;
#49 = DIRECTION ( 'NONE',  ( 0.0000000000000000000, 0.0000000000000000000, 1.000000000000000000 ) ) ;
#50 = DIRECTION ( 'NONE',  ( -0.0000000000000000000, 1.000000000000000000, -0.0000000000000000000 ) ) ;
#51 = CARTESIAN_POINT ( 'NONE',  ( 0.0000000000000000000, 7.283860049783210200, 0.0000000000000000000 ) ) ;
#52 = DIRECTION ( 'NONE',  ( 0.0000000000000000000, 0.0000000000000000000, 1.000000000000000000 ) ) ;
#53 = DIRECTION ( 'NONE',  ( -0.0000000000000000000, 1.000000000000000000, -0.0000000000000000000 ) ) ;
#54 = CARTESIAN_POINT ( 'NONE',  ( 0.0000000000000000000, 2.499999999999999600, 0.0000000000000000000 ) ) ;
#55 = CARTESIAN_POINT ( 'NONE',  ( 0.0000000000000000000, 7.283860049783210200, 0.0000000000000000000 ) ) ;
#56 = DIRECTION ( 'NONE',  ( -0.0000000000000000000, 1.000000000000000000, -0.0000000000000000000 ) ) ;
#57 = CARTESIAN_POINT ( 'NONE',  ( 0.0000000000000000000, 7.283860049783210200, 0.0000000000000000000 ) ) ;
#58 = DIRECTION ( 'NONE',  ( -0.0000000000000000000, 1.000000000000000000, -0.0000000000000000000 ) ) ;
#59 = DIRECTION ( 'NONE',  ( 0.0000000000000000000, 0.0000000000000000000, 1.000000000000000000 ) ) ;
#60 = DIRECTION ( 'NONE',  ( -0.0000000000000000000, 1.000000000000000000, -0.0000000000000000000 ) ) ;
#61 = DIRECTION ( 'NONE',  ( 0.0000000000000000000, 0.0000000000000000000, 1.000000000000000000 ) ) ;
#62 = VERTEX_POINT ( 'NONE', #303 ) ;
#63 = VERTEX_POINT ( 'NONE', #302 ) ;
#64 = VERTEX_POINT ( 'NONE', #304 ) ;
#65 = PERSON_AND_ORGANIZATION ( #2, #85 ) ;
#66 = VERTEX_POINT ( 'NONE', #305 ) ;
#67 = VERTEX_POINT ( 'NONE', #306 ) ;
#68 = ORIENTED_EDGE ( 'NONE', *, *, #286, .F. ) ;
#69 = COORDINATED_UNIVERSAL_TIME_OFFSET ( 9, 0, .AHEAD. ) ;
#70 = ORIENTED_EDGE ( 'NONE', *, *, #253, .T. ) ;
#71 = SHAPE_DEFINITION_REPRESENTATION ( #180, #250 ) ;
#72 = PERSON_AND_ORGANIZATION ( #2, #85 ) ;
#73 = APPROVAL_DATE_TIME ( #75, #232 ) ;
#74 = CALENDAR_DATE ( 2012, 27, 3 ) ;
#75 = DATE_AND_TIME ( #74, #260 ) ;
#76 = APPROVAL_PERSON_ORGANIZATION ( #77, #232, #343 ) ;
#77 = PERSON_AND_ORGANIZATION ( #2, #85 ) ;
#78 = COORDINATED_UNIVERSAL_TIME_OFFSET ( 9, 0, .AHEAD. ) ;
#79 = CALENDAR_DATE ( 2012, 27, 3 ) ;
#80 = COORDINATED_UNIVERSAL_TIME_OFFSET ( 9, 0, .AHEAD. ) ;
#81 = PERSON_AND_ORGANIZATION ( #2, #85 ) ;
#82 = PERSON_AND_ORGANIZATION ( #2, #85 ) ;
#83 = APPROVAL_PERSON_ORGANIZATION ( #81, #221, #338 ) ;
#84 = DATE_AND_TIME ( #79, #266 ) ;
#85 = ORGANIZATION ( 'UNSPECIFIED', 'UNSPECIFIED', '' ) ;
#86 = FACE_OUTER_BOUND ( 'NONE', #127, .T. ) ;
#87 = FACE_OUTER_BOUND ( 'NONE', #132, .T. ) ;
#88 = VERTEX_POINT ( 'NONE', #307 ) ;
#89 = FACE_OUTER_BOUND ( 'NONE', #124, .T. ) ;
#90 = FACE_OUTER_BOUND ( 'NONE', #130, .T. ) ;
#91 = LINE ( 'NONE', #294, #247 ) ;
#92 = VERTEX_POINT ( 'NONE', #308 ) ;
#93 = VERTEX_POINT ( 'NONE', #309 ) ;
#94 = FACE_OUTER_BOUND ( 'NONE', #131, .T. ) ;
#95 = COORDINATED_UNIVERSAL_TIME_OFFSET ( 9, 0, .AHEAD. ) ;
#96 = VERTEX_POINT ( 'NONE', #310 ) ;
#97 = LINE ( 'NONE', #299, #227 ) ;
#98 = LINE ( 'NONE', #8, #202 ) ;
#99 = FACE_BOUND ( 'NONE', #135, .T. ) ;
#100 = CYLINDRICAL_SURFACE ( 'NONE', #199, 3.499999999999999100 ) ;
#101 = FACE_OUTER_BOUND ( 'NONE', #123, .T. ) ;
#102 = FACE_BOUND ( 'NONE', #125, .T. ) ;
#103 = APPROVAL_DATE_TIME ( #104, #217 ) ;
#104 = DATE_AND_TIME ( #105, #261 ) ;
#105 = CALENDAR_DATE ( 2012, 27, 3 ) ;
#106 = FACE_OUTER_BOUND ( 'NONE', #129, .T. ) ;
#107 = APPROVAL_PERSON_ORGANIZATION ( #72, #217, #329 ) ;
#108 = CALENDAR_DATE ( 2012, 27, 3 ) ;
#109 = DATE_AND_TIME ( #108, #259 ) ;
#110 = APPROVAL_DATE_TIME ( #109, #221 ) ;
#111 = PERSON_AND_ORGANIZATION ( #2, #85 ) ;
#112 = PERSON_AND_ORGANIZATION ( #2, #85 ) ;
#113 = PERSON_AND_ORGANIZATION ( #2, #85 ) ;
#114 = COORDINATED_UNIVERSAL_TIME_OFFSET ( 9, 0, .AHEAD. ) ;
#115 = CALENDAR_DATE ( 2012, 27, 3 ) ;
#116 = DATE_AND_TIME ( #115, #269 ) ;
#117 = LINE ( 'NONE', #323, #213 ) ;
#118 = VERTEX_POINT ( 'NONE', #311 ) ;
#119 = VERTEX_POINT ( 'NONE', #313 ) ;
#120 = FACE_OUTER_BOUND ( 'NONE', #134, .T. ) ;
#121 = ORIENTED_EDGE ( 'NONE', *, *, #267, .F. ) ;
#122 = EDGE_LOOP ( 'NONE', ( #121, #179, #126, #68 ) ) ;
#123 = EDGE_LOOP ( 'NONE', ( #70, #170, #171, #173 ) ) ;
#124 = EDGE_LOOP ( 'NONE', ( #174, #175, #172, #178 ) ) ;
#125 = EDGE_LOOP ( 'NONE', ( #155, #156 ) ) ;
#126 = ORIENTED_EDGE ( 'NONE', *, *, #283, .T. ) ;
#127 = EDGE_LOOP ( 'NONE', ( #177, #167, #176, #165 ) ) ;
#128 = VERTEX_POINT ( 'NONE', #315 ) ;
#129 = EDGE_LOOP ( 'NONE', ( #164, #168, #166, #163 ) ) ;
#130 = EDGE_LOOP ( 'NONE', ( #154, #153, #162, #151 ) ) ;
#131 = EDGE_LOOP ( 'NONE', ( #161, #157 ) ) ;
#132 = EDGE_LOOP ( 'NONE', ( #150, #147, #152, #145 ) ) ;
#133 = EDGE_LOOP ( 'NONE', ( #146, #140 ) ) ;
#134 = EDGE_LOOP ( 'NONE', ( #139, #138, #137, #142 ) ) ;
#135 = EDGE_LOOP ( 'NONE', ( #143, #141 ) ) ;
#136 = CLOSED_SHELL ( 'NONE', ( #271, #273, #274, #275, #276, #278, #277, #270, #262, #268 ) ) ;
#137 = ORIENTED_EDGE ( 'NONE', *, *, #286, .T. ) ;
#138 = ORIENTED_EDGE ( 'NONE', *, *, #279, .F. ) ;
#139 = ORIENTED_EDGE ( 'NONE', *, *, #264, .F. ) ;
#140 = ORIENTED_EDGE ( 'NONE', *, *, #281, .F. ) ;
#141 = ORIENTED_EDGE ( 'NONE', *, *, #267, .T. ) ;
#142 = ORIENTED_EDGE ( 'NONE', *, *, #256, .T. ) ;
#143 = ORIENTED_EDGE ( 'NONE', *, *, #279, .T. ) ;
#144 = CYLINDRICAL_SURFACE ( 'NONE', #231, 3.499999999999999100 ) ;
#145 = ORIENTED_EDGE ( 'NONE', *, *, #272, .F. ) ;
#146 = ORIENTED_EDGE ( 'NONE', *, *, #253, .F. ) ;
#147 = ORIENTED_EDGE ( 'NONE', *, *, #281, .T. ) ;
#148 = LINE ( 'NONE', #23, #234 ) ;
#149 = FACE_OUTER_BOUND ( 'NONE', #122, .T. ) ;
#150 = ORIENTED_EDGE ( 'NONE', *, *, #280, .F. ) ;
#151 = ORIENTED_EDGE ( 'NONE', *, *, #282, .F. ) ;
#152 = ORIENTED_EDGE ( 'NONE', *, *, #258, .T. ) ;
#153 = ORIENTED_EDGE ( 'NONE', *, *, #272, .T. ) ;
#154 = ORIENTED_EDGE ( 'NONE', *, *, #251, .F. ) ;
#155 = ORIENTED_EDGE ( 'NONE', *, *, #265, .F. ) ;
#156 = ORIENTED_EDGE ( 'NONE', *, *, #285, .F. ) ;
#157 = ORIENTED_EDGE ( 'NONE', *, *, #282, .T. ) ;
#158 = CYLINDRICAL_SURFACE ( 'NONE', #183, 8.000000000000000000 ) ;
#159 = CYLINDRICAL_SURFACE ( 'NONE', #236, 8.000000000000000000 ) ;
#160 = LINE ( 'NONE', #18, #223 ) ;
#161 = ORIENTED_EDGE ( 'NONE', *, *, #254, .T. ) ;
#162 = ORIENTED_EDGE ( 'NONE', *, *, #252, .T. ) ;
#163 = ORIENTED_EDGE ( 'NONE', *, *, #265, .T. ) ;
#164 = ORIENTED_EDGE ( 'NONE', *, *, #257, .F. ) ;
#165 = ORIENTED_EDGE ( 'NONE', *, *, #284, .F. ) ;
#166 = ORIENTED_EDGE ( 'NONE', *, *, #284, .T. ) ;
#167 = ORIENTED_EDGE ( 'NONE', *, *, #257, .T. ) ;
#168 = ORIENTED_EDGE ( 'NONE', *, *, #256, .F. ) ;
#169 = FACE_OUTER_BOUND ( 'NONE', #133, .T. ) ;
#170 = ORIENTED_EDGE ( 'NONE', *, *, #280, .T. ) ;
#171 = ORIENTED_EDGE ( 'NONE', *, *, #255, .F. ) ;
#172 = ORIENTED_EDGE ( 'NONE', *, *, #254, .F. ) ;
#173 = ORIENTED_EDGE ( 'NONE', *, *, #258, .F. ) ;
#174 = ORIENTED_EDGE ( 'NONE', *, *, #255, .T. ) ;
#175 = ORIENTED_EDGE ( 'NONE', *, *, #251, .T. ) ;
#176 = ORIENTED_EDGE ( 'NONE', *, *, #285, .T. ) ;
#177 = ORIENTED_EDGE ( 'NONE', *, *, #283, .F. ) ;
#178 = ORIENTED_EDGE ( 'NONE', *, *, #252, .F. ) ;
#179 = ORIENTED_EDGE ( 'NONE', *, *, #264, .T. ) ;
#180 = PRODUCT_DEFINITION_SHAPE ( 'NONE', 'NONE',  #188 ) ;
#181 = DESIGN_CONTEXT ( 'detailed design', #346, 'design' ) ;
#182 = CC_DESIGN_SECURITY_CLASSIFICATION ( #203, ( #243 ) ) ;
#183 = AXIS2_PLACEMENT_3D ( 'NONE', #5, #14, #11 ) ;
#184 = CC_DESIGN_PERSON_AND_ORGANIZATION_ASSIGNMENT ( #112, #336, ( #243 ) ) ;
#185 = CIRCLE ( 'NONE', #194, 8.000000000000000000 ) ;
#186 = AXIS2_PLACEMENT_3D ( 'NONE', #32, #60, #61 ) ;
#187 = CIRCLE ( 'NONE', #214, 6.499999999999968900 ) ;
#188 = PRODUCT_DEFINITION ( 'UNKNOWN', '', #243, #181 ) ;
#189 = CC_DESIGN_PERSON_AND_ORGANIZATION_ASSIGNMENT ( #65, #347, ( #1 ) ) ;
#190 = CIRCLE ( 'NONE', #195, 1.000000000000000000 ) ;
#191 = CIRCLE ( 'NONE', #219, 3.499999999999999100 ) ;
#192 = AXIS2_PLACEMENT_3D ( 'NONE', #12, #10, #9 ) ;
#193 = AXIS2_PLACEMENT_3D ( 'NONE', #6, #35, #34 ) ;
#194 = AXIS2_PLACEMENT_3D ( 'NONE', #290, #291, #292 ) ;
#195 = AXIS2_PLACEMENT_3D ( 'NONE', #320, #287, #289 ) ;
#196 = AXIS2_PLACEMENT_3D ( 'NONE', #28, #25, #13 ) ;
#197 = CIRCLE ( 'NONE', #205, 7.000000000000000000 ) ;
#198 = AXIS2_PLACEMENT_3D ( 'NONE', #316, #317, #318 ) ;
#199 = AXIS2_PLACEMENT_3D ( 'NONE', #55, #58, #59 ) ;
#200 = CIRCLE ( 'NONE', #198, 1.000000000000000000 ) ;
#201 = AXIS2_PLACEMENT_3D ( 'NONE', #38, #37, #36 ) ;
#202 = VECTOR ( 'NONE', #7, 1000.000000000000000 ) ;
#203 = SECURITY_CLASSIFICATION ( '', '', #334 ) ;
#204 = CC_DESIGN_APPROVAL ( #217, ( #203 ) ) ;
#205 = AXIS2_PLACEMENT_3D ( 'NONE', #293, #295, #296 ) ;
#206 = AXIS2_PLACEMENT_3D ( 'NONE', #297, #298, #325 ) ;
#207 = CIRCLE ( 'NONE', #192, 3.499999999999999100 ) ;
#208 = CC_DESIGN_DATE_AND_TIME_ASSIGNMENT ( #84, #341, ( #188 ) ) ;
#209 = TOROIDAL_SURFACE ( 'NONE', #201, 7.000000000000000000, 1.000000000000000200 ) ;
#210 = AXIS2_PLACEMENT_3D ( 'NONE', #319, #288, #4 ) ;
#211 = AXIS2_PLACEMENT_3D ( 'NONE', #48, #47, #45 ) ;
#212 = CC_DESIGN_PERSON_AND_ORGANIZATION_ASSIGNMENT ( #113, #333, ( #203 ) ) ;
#213 = VECTOR ( 'NONE', #301, 1000.000000000000000 ) ;
#214 = AXIS2_PLACEMENT_3D ( 'NONE', #21, #20, #19 ) ;
#215 = CONICAL_SURFACE ( 'NONE', #238, 3.499999999999999100, 0.7853981633974435100 ) ;
#216 = CC_DESIGN_APPROVAL ( #232, ( #188 ) ) ;
#217 = APPROVAL ( #331, 'UNSPECIFIED' ) ;
#218 = CONICAL_SURFACE ( 'NONE', #237, 3.499999999999999100, 0.7853981633974435100 ) ;
#219 = AXIS2_PLACEMENT_3D ( 'NONE', #326, #324, #312 ) ;
#220 = CC_DESIGN_PERSON_AND_ORGANIZATION_ASSIGNMENT ( #111, #337, ( #243 ) ) ;
#221 = APPROVAL ( #340, 'UNSPECIFIED' ) ;
#222 = CIRCLE ( 'NONE', #245, 8.000000000000000000 ) ;
#223 = VECTOR ( 'NONE', #17, 1000.000000000000000 ) ;
#224 = CC_DESIGN_APPROVAL ( #221, ( #243 ) ) ;
#225 = AXIS2_PLACEMENT_3D ( 'NONE', #31, #30, #29 ) ;
#226 = CIRCLE ( 'NONE', #210, 6.499999999999968900 ) ;
#227 = VECTOR ( 'NONE', #327, 1000.000000000000000 ) ;
#228 = AXIS2_PLACEMENT_3D ( 'NONE', #339, #335, #330 ) ;
#229 = TOROIDAL_SURFACE ( 'NONE', #211, 7.000000000000000000, 1.000000000000000200 ) ;
#230 = CIRCLE ( 'NONE', #186, 3.499999999999999100 ) ;
#231 = AXIS2_PLACEMENT_3D ( 'NONE', #57, #56, #46 ) ;
#232 = APPROVAL ( #344, 'UNSPECIFIED' ) ;
#233 = CIRCLE ( 'NONE', #225, 7.000000000000000000 ) ;
#234 = VECTOR ( 'NONE', #22, 1000.000000000000000 ) ;
#235 = CIRCLE ( 'NONE', #246, 3.499999999999999100 ) ;
#236 = AXIS2_PLACEMENT_3D ( 'NONE', #51, #50, #49 ) ;
#237 = AXIS2_PLACEMENT_3D ( 'NONE', #44, #43, #42 ) ;
#238 = AXIS2_PLACEMENT_3D ( 'NONE', #41, #40, #39 ) ;
#239 = CIRCLE ( 'NONE', #193, 8.000000000000000000 ) ;
#240 = CC_DESIGN_DATE_AND_TIME_ASSIGNMENT ( #116, #332, ( #203 ) ) ;
#241 = AXIS2_PLACEMENT_3D ( 'NONE', #300, #314, #322 ) ;
#242 = CC_DESIGN_PERSON_AND_ORGANIZATION_ASSIGNMENT ( #82, #342, ( #188 ) ) ;
#243 = PRODUCT_DEFINITION_FORMATION_WITH_SPECIFIED_SOURCE ( 'ANY', '', #1, .NOT_KNOWN. ) ;
#244 = CIRCLE ( 'NONE', #206, 8.000000000000000000 ) ;
#245 = AXIS2_PLACEMENT_3D ( 'NONE', #54, #53, #52 ) ;
#246 = AXIS2_PLACEMENT_3D ( 'NONE', #27, #26, #24 ) ;
#247 = VECTOR ( 'NONE', #321, 1000.000000000000000 ) ;
#248 = PRODUCT_RELATED_PRODUCT_CATEGORY ( 'detail', '', ( #1 ) ) ;
#249 = MANIFOLD_SOLID_BREP ( 'ñ]1', #136 ) ;
#250 = ADVANCED_BREP_SHAPE_REPRESENTATION ( 'C-1029-S-M6', ( #249, #228 ), #263 ) ;
#251 = EDGE_CURVE ( 'NONE', #128, #96, #200, .T. ) ;
#252 = EDGE_CURVE ( 'NONE', #119, #63, #190, .T. ) ;
#253 = EDGE_CURVE ( 'NONE', #118, #67, #185, .T. ) ;
#254 = EDGE_CURVE ( 'NONE', #63, #96, #197, .T. ) ;
#255 = EDGE_CURVE ( 'NONE', #119, #128, #244, .T. ) ;
#256 = EDGE_CURVE ( 'NONE', #92, #88, #191, .T. ) ;
#257 = EDGE_CURVE ( 'NONE', #88, #93, #97, .T. ) ;
#258 = EDGE_CURVE ( 'NONE', #118, #119, #117, .T. ) ;
#259 = LOCAL_TIME ( 16, 42, 37.00000000000000000, #95 ) ;
#260 = LOCAL_TIME ( 16, 42, 37.00000000000000000, #80 ) ;
#261 = LOCAL_TIME ( 16, 42, 37.00000000000000000, #69 ) ;
#262 = ADVANCED_FACE ( 'NONE', ( #99, #169 ), #328, .T. ) ;
#263 =( GEOMETRIC_REPRESENTATION_CONTEXT ( 3 ) GLOBAL_UNCERTAINTY_ASSIGNED_CONTEXT ( ( #3 ) ) GLOBAL_UNIT_ASSIGNED_CONTEXT ( ( #16, #15, #351 ) ) REPRESENTATION_CONTEXT ( 'NONE', 'WORKASPACE' ) );
#264 = EDGE_CURVE ( 'NONE', #64, #88, #91, .T. ) ;
#265 = EDGE_CURVE ( 'NONE', #62, #93, #226, .T. ) ;
#266 = LOCAL_TIME ( 16, 42, 37.00000000000000000, #78 ) ;
#267 = EDGE_CURVE ( 'NONE', #64, #66, #230, .T. ) ;
#268 = ADVANCED_FACE ( 'NONE', ( #120 ), #144, .F. ) ;
#269 = LOCAL_TIME ( 16, 42, 37.00000000000000000, #114 ) ;
#270 = ADVANCED_FACE ( 'NONE', ( #87 ), #158, .T. ) ;
#271 = ADVANCED_FACE ( 'NONE', ( #149 ), #100, .F. ) ;
#272 = EDGE_CURVE ( 'NONE', #128, #119, #222, .T. ) ;
#273 = ADVANCED_FACE ( 'NONE', ( #101 ), #159, .T. ) ;
#274 = ADVANCED_FACE ( 'NONE', ( #89 ), #229, .T. ) ;
#275 = ADVANCED_FACE ( 'NONE', ( #86 ), #218, .F. ) ;
#276 = ADVANCED_FACE ( 'NONE', ( #106 ), #215, .F. ) ;
#277 = ADVANCED_FACE ( 'NONE', ( #90 ), #209, .T. ) ;
#278 = ADVANCED_FACE ( 'NONE', ( #94, #102 ), #33, .T. ) ;
#279 = EDGE_CURVE ( 'NONE', #66, #64, #207, .T. ) ;
#280 = EDGE_CURVE ( 'NONE', #67, #128, #98, .T. ) ;
#281 = EDGE_CURVE ( 'NONE', #67, #118, #239, .T. ) ;
#282 = EDGE_CURVE ( 'NONE', #96, #63, #233, .T. ) ;
#283 = EDGE_CURVE ( 'NONE', #88, #92, #235, .T. ) ;
#284 = EDGE_CURVE ( 'NONE', #92, #62, #148, .T. ) ;
#285 = EDGE_CURVE ( 'NONE', #93, #62, #187, .T. ) ;
#286 = EDGE_CURVE ( 'NONE', #66, #92, #160, .T. ) ;
#287 = DIRECTION ( 'NONE',  ( -1.000000000000000000, 0.0000000000000000000, 0.0000000000000000000 ) ) ;
#288 = DIRECTION ( 'NONE',  ( -0.0000000000000000000, 1.000000000000000000, -0.0000000000000000000 ) ) ;
#289 = DIRECTION ( 'NONE',  ( 0.0000000000000000000, 0.0000000000000000000, 1.000000000000000000 ) ) ;
#290 = CARTESIAN_POINT ( 'NONE',  ( 0.0000000000000000000, 0.0000000000000000000, 0.0000000000000000000 ) ) ;
#291 = DIRECTION ( 'NONE',  ( -0.0000000000000000000, 1.000000000000000000, -0.0000000000000000000 ) ) ;
#292 = DIRECTION ( 'NONE',  ( 0.0000000000000000000, 0.0000000000000000000, 1.000000000000000000 ) ) ;
#293 = CARTESIAN_POINT ( 'NONE',  ( 0.0000000000000000000, 3.500000000000000000, 0.0000000000000000000 ) ) ;
#294 = CARTESIAN_POINT ( 'NONE',  ( 4.286263797015735600E-016, 7.283860049783210200, -3.499999999999999100 ) ) ;
#295 = DIRECTION ( 'NONE',  ( -0.0000000000000000000, 1.000000000000000000, -0.0000000000000000000 ) ) ;
#296 = DIRECTION ( 'NONE',  ( 0.0000000000000000000, 0.0000000000000000000, 1.000000000000000000 ) ) ;
#297 = CARTESIAN_POINT ( 'NONE',  ( 0.0000000000000000000, 2.499999999999999600, 0.0000000000000000000 ) ) ;
#298 = DIRECTION ( 'NONE',  ( -0.0000000000000000000, 1.000000000000000000, -0.0000000000000000000 ) ) ;
#299 = CARTESIAN_POINT ( 'NONE',  ( 4.286263797015735600E-016, 0.5000000000000004400, -3.499999999999999100 ) ) ;
#300 = CARTESIAN_POINT ( 'NONE',  ( 0.0000000000000000000, 0.0000000000000000000, 8.000000000000000000 ) ) ;
#301 = DIRECTION ( 'NONE',  ( -0.0000000000000000000, 1.000000000000000000, -0.0000000000000000000 ) ) ;
#302 = CARTESIAN_POINT ( 'NONE',  ( 0.0000000000000000000, 3.500000000000000000, 7.000000000000000000 ) ) ;
#303 = CARTESIAN_POINT ( 'NONE',  ( 0.0000000000000000000, 3.500000000000000000, 6.499999999999968900 ) ) ;
#304 = CARTESIAN_POINT ( 'NONE',  ( 4.286263797015735600E-016, 0.0000000000000000000, -3.499999999999999100 ) ) ;
#305 = CARTESIAN_POINT ( 'NONE',  ( 0.0000000000000000000, 0.0000000000000000000, 3.499999999999999100 ) ) ;
#306 = CARTESIAN_POINT ( 'NONE',  ( 9.797174393178825700E-016, 0.0000000000000000000, -8.000000000000000000 ) ) ;
#307 = CARTESIAN_POINT ( 'NONE',  ( 6.123233995736746600E-016, 0.5000000000000004400, -3.499999999999999100 ) ) ;
#308 = CARTESIAN_POINT ( 'NONE',  ( 0.0000000000000000000, 0.5000000000000004400, 3.499999999999999100 ) ) ;
#309 = CARTESIAN_POINT ( 'NONE',  ( 7.960204194457759000E-016, 3.500000000000000000, -6.499999999999968900 ) ) ;
#310 = CARTESIAN_POINT ( 'NONE',  ( 9.184850993605147900E-016, 3.500000000000000000, -7.000000000000000000 ) ) ;
#311 = CARTESIAN_POINT ( 'NONE',  ( 0.0000000000000000000, 0.0000000000000000000, 8.000000000000000000 ) ) ;
#312 = DIRECTION ( 'NONE',  ( 0.0000000000000000000, 0.0000000000000000000, 1.000000000000000000 ) ) ;
#313 = CARTESIAN_POINT ( 'NONE',  ( 0.0000000000000000000, 2.499999999999999600, 8.000000000000000000 ) ) ;
#314 = DIRECTION ( 'NONE',  ( 0.0000000000000000000, -1.000000000000000000, 0.0000000000000000000 ) ) ;
#315 = CARTESIAN_POINT ( 'NONE',  ( 9.797174393178827600E-016, 2.499999999999999600, -8.000000000000000000 ) ) ;
#316 = CARTESIAN_POINT ( 'NONE',  ( 8.572527594031473200E-016, 2.499999999999999600, -7.000000000000000000 ) ) ;
#317 = DIRECTION ( 'NONE',  ( 1.000000000000000000, 0.0000000000000000000, 1.224646799147353200E-016 ) ) ;
#318 = DIRECTION ( 'NONE',  ( 1.224646799147354400E-016, 0.0000000000000000000, -1.000000000000000000 ) ) ;
#319 = CARTESIAN_POINT ( 'NONE',  ( 0.0000000000000000000, 3.499999999999999600, 0.0000000000000000000 ) ) ;
#320 = CARTESIAN_POINT ( 'NONE',  ( 0.0000000000000000000, 2.499999999999999600, 7.000000000000000000 ) ) ;
#321 = DIRECTION ( 'NONE',  ( -0.0000000000000000000, 1.000000000000000000, -0.0000000000000000000 ) ) ;
#322 = DIRECTION ( 'NONE',  ( 0.0000000000000000000, -0.0000000000000000000, -1.000000000000000000 ) ) ;
#323 = CARTESIAN_POINT ( 'NONE',  ( 0.0000000000000000000, 7.283860049783210200, 8.000000000000000000 ) ) ;
#324 = DIRECTION ( 'NONE',  ( -0.0000000000000000000, 1.000000000000000000, -0.0000000000000000000 ) ) ;
#325 = DIRECTION ( 'NONE',  ( 0.0000000000000000000, 0.0000000000000000000, 1.000000000000000000 ) ) ;
#326 = CARTESIAN_POINT ( 'NONE',  ( 0.0000000000000000000, 0.5000000000000004400, 0.0000000000000000000 ) ) ;
#327 = DIRECTION ( 'NONE',  ( 8.659560562354890900E-017, 0.7071067811865507900, -0.7071067811865441300 ) ) ;
#328 = PLANE ( 'NONE',  #241 ) ;
#329 = APPROVAL_ROLE ( '' ) ;
#330 = DIRECTION ( 'NONE',  ( 1.000000000000000000, 0.0000000000000000000, 0.0000000000000000000 ) ) ;
#331 = APPROVAL_STATUS ( 'not_yet_approved' ) ;
#332 = DATE_TIME_ROLE ( 'classification_date' ) ;
#333 = PERSON_AND_ORGANIZATION_ROLE ( 'classification_officer' ) ;
#334 = SECURITY_CLASSIFICATION_LEVEL ( 'unclassified' ) ;
#335 = DIRECTION ( 'NONE',  ( 0.0000000000000000000, 0.0000000000000000000, 1.000000000000000000 ) ) ;
#336 = PERSON_AND_ORGANIZATION_ROLE ( 'design_supplier' ) ;
#337 = PERSON_AND_ORGANIZATION_ROLE ( 'creator' ) ;
#338 = APPROVAL_ROLE ( '' ) ;
#339 = CARTESIAN_POINT ( 'NONE',  ( 0.0000000000000000000, 0.0000000000000000000, 0.0000000000000000000 ) ) ;
#340 = APPROVAL_STATUS ( 'not_yet_approved' ) ;
#341 = DATE_TIME_ROLE ( 'creation_date' ) ;
#342 = PERSON_AND_ORGANIZATION_ROLE ( 'creator' ) ;
#343 = APPROVAL_ROLE ( '' ) ;
#344 = APPROVAL_STATUS ( 'not_yet_approved' ) ;
#345 = APPLICATION_PROTOCOL_DEFINITION ( 'international standard', 'config_control_design', 1994, #346 ) ;
#346 = APPLICATION_CONTEXT ( 'configuration controlled 3d designs of mechanical parts and assemblies' ) ;
#347 = PERSON_AND_ORGANIZATION_ROLE ( 'design_owner' ) ;
#348 = MECHANICAL_CONTEXT ( 'NONE', #350, 'mechanical' ) ;
#349 = APPLICATION_PROTOCOL_DEFINITION ( 'international standard', 'config_control_design', 1994, #350 ) ;
#350 = APPLICATION_CONTEXT ( 'configuration controlled 3d designs of mechanical parts and assemblies' ) ;
#351 =( NAMED_UNIT ( * ) SI_UNIT ( $, .STERADIAN. ) SOLID_ANGLE_UNIT ( ) );
ENDSEC;
END-ISO-10303-21;
