ISO-10303-21;
HEADER;
FILE_DESCRIPTION (( 'STEP AP203' ),
    '1' );
FILE_NAME ('C-1029-S-M5.STEP',
    '2012-03-27T07:40:52',
    ( '11sw' ),
    ( '^LQ»¢®ïÐ' ),
    'SwSTEP 2.0',
    'SolidWorks 2011',
    '' );
FILE_SCHEMA (( 'CONFIG_CONTROL_DESIGN' ));
ENDSEC;

DATA;
#1 = UNCERTAINTY_MEASURE_WITH_UNIT (LENGTH_MEASURE( 1.000000000000000100E-005 ), #285, 'distance_accuracy_value', 'NONE');
#2 = CARTESIAN_POINT ( 'NONE',  ( 0.0000000000000000000, 2.999999999999999100, 5.499999999999973400 ) ) ;
#3 = CARTESIAN_POINT ( 'NONE',  ( 0.0000000000000000000, 0.0000000000000000000, 2.999999999999999100 ) ) ;
#4 = CARTESIAN_POINT ( 'NONE',  ( 0.0000000000000000000, 0.5000000000000004400, 2.999999999999999100 ) ) ;
#5 = CARTESIAN_POINT ( 'NONE',  ( 8.572527594031472200E-016, 0.0000000000000000000, -6.999999999999999100 ) ) ;
#6 = CARTESIAN_POINT ( 'NONE',  ( 8.572527594031471200E-016, 1.999999999999999100, -6.999999999999999100 ) ) ;
#7 = CARTESIAN_POINT ( 'NONE',  ( 5.204748896376234900E-016, 0.5000000000000004400, -2.999999999999999100 ) ) ;
#8 = CARTESIAN_POINT ( 'NONE',  ( 0.0000000000000000000, 1.999999999999999100, 6.999999999999999100 ) ) ;
#9 = CARTESIAN_POINT ( 'NONE',  ( 6.735557395310410500E-016, 2.999999999999999100, -5.499999999999973400 ) ) ;
#10 = CARTESIAN_POINT ( 'NONE',  ( 0.0000000000000000000, 2.999999999999999100, 5.999999999999999100 ) ) ;
#11 = CARTESIAN_POINT ( 'NONE',  ( 3.673940397442058900E-016, 0.0000000000000000000, -2.999999999999999100 ) ) ;
#12 = CARTESIAN_POINT ( 'NONE',  ( 7.960204194457795500E-016, 2.999999999999999100, -5.999999999999999100 ) ) ;
#13 = DIRECTION ( 'NONE',  ( 0.0000000000000000000, 0.0000000000000000000, 1.000000000000000000 ) ) ;
#14 = CARTESIAN_POINT ( 'NONE',  ( 0.0000000000000000000, 0.0000000000000000000, 6.999999999999999100 ) ) ;
#15 = CARTESIAN_POINT ( 'NONE',  ( 0.0000000000000000000, 0.5000000000000004400, 0.0000000000000000000 ) ) ;
#16 = DIRECTION ( 'NONE',  ( -0.0000000000000000000, 1.000000000000000000, -0.0000000000000000000 ) ) ;
#17 = DIRECTION ( 'NONE',  ( 0.0000000000000000000, 0.0000000000000000000, 1.000000000000000000 ) ) ;
#18 = CARTESIAN_POINT ( 'NONE',  ( 0.0000000000000000000, 0.0000000000000000000, 0.0000000000000000000 ) ) ;
#19 = CARTESIAN_POINT ( 'NONE',  ( 3.673940397442058900E-016, 0.5000000000000004400, -2.999999999999999100 ) ) ;
#20 = DIRECTION ( 'NONE',  ( 8.659560562354890900E-017, 0.7071067811865507900, -0.7071067811865441300 ) ) ;
#21 = CARTESIAN_POINT ( 'NONE',  ( 0.0000000000000000000, 0.5000000000000004400, 2.999999999999999100 ) ) ;
#22 = DIRECTION ( 'NONE',  ( 0.0000000000000000000, 0.7071067811865507900, 0.7071067811865441300 ) ) ;
#23 = CARTESIAN_POINT ( 'NONE',  ( 0.0000000000000000000, 1.999999999999999100, 0.0000000000000000000 ) ) ;
#24 = DIRECTION ( 'NONE',  ( -0.0000000000000000000, 1.000000000000000000, -0.0000000000000000000 ) ) ;
#25 = DIRECTION ( 'NONE',  ( 0.0000000000000000000, 0.0000000000000000000, 1.000000000000000000 ) ) ;
#26 = CARTESIAN_POINT ( 'NONE',  ( 0.0000000000000000000, 7.283860049783210200, 2.999999999999999100 ) ) ;
#27 = DIRECTION ( 'NONE',  ( -0.0000000000000000000, 1.000000000000000000, -0.0000000000000000000 ) ) ;
#28 = CARTESIAN_POINT ( 'NONE',  ( 0.0000000000000000000, 0.0000000000000000000, 0.0000000000000000000 ) ) ;
#29 = PLANE ( 'NONE',  #228 ) ;
#30 = DIRECTION ( 'NONE',  ( -0.0000000000000000000, 1.000000000000000000, -0.0000000000000000000 ) ) ;
#31 = DIRECTION ( 'NONE',  ( 0.0000000000000000000, 0.0000000000000000000, 1.000000000000000000 ) ) ;
#32 = DIRECTION ( 'NONE',  ( -0.0000000000000000000, 1.000000000000000000, -0.0000000000000000000 ) ) ;
#33 = CARTESIAN_POINT ( 'NONE',  ( 8.572527594031472200E-016, 7.283860049783210200, -6.999999999999999100 ) ) ;
#34 = DIRECTION ( 'NONE',  ( 0.0000000000000000000, -1.000000000000000000, 0.0000000000000000000 ) ) ;
#35 = DIRECTION ( 'NONE',  ( 0.0000000000000000000, 0.0000000000000000000, 1.000000000000000000 ) ) ;
#36 = DIRECTION ( 'NONE',  ( -1.000000000000000000, 0.0000000000000000000, 0.0000000000000000000 ) ) ;
#37 = CARTESIAN_POINT ( 'NONE',  ( 0.0000000000000000000, 0.0000000000000000000, 6.999999999999999100 ) ) ;
#38 = DIRECTION ( 'NONE',  ( -0.0000000000000000000, 1.000000000000000000, -0.0000000000000000000 ) ) ;
#39 = DIRECTION ( 'NONE',  ( -0.0000000000000000000, 1.000000000000000000, -0.0000000000000000000 ) ) ;
#40 = CARTESIAN_POINT ( 'NONE',  ( 3.673940397442058900E-016, 7.283860049783210200, -2.999999999999999100 ) ) ;
#41 = CARTESIAN_POINT ( 'NONE',  ( 0.0000000000000000000, 1.999999999999999600, 5.999999999999999100 ) ) ;
#42 = DIRECTION ( 'NONE',  ( 0.0000000000000000000, -0.0000000000000000000, -1.000000000000000000 ) ) ;
#43 = PERSON_AND_ORGANIZATION ( #211, #102 ) ;
#44 = PERSON_AND_ORGANIZATION ( #211, #102 ) ;
#45 = CALENDAR_DATE ( 2012, 27, 3 ) ;
#46 = COORDINATED_UNIVERSAL_TIME_OFFSET ( 9, 0, .AHEAD. ) ;
#47 = DATE_AND_TIME ( #118, #184 ) ;
#48 = SHAPE_DEFINITION_REPRESENTATION ( #161, #172 ) ;
#49 = CYLINDRICAL_SURFACE ( 'NONE', #240, 6.999999999999999100 ) ;
#50 = APPROVAL_PERSON_ORGANIZATION ( #119, #166, #275 ) ;
#51 = COORDINATED_UNIVERSAL_TIME_OFFSET ( 9, 0, .AHEAD. ) ;
#52 = DATE_AND_TIME ( #61, #185 ) ;
#53 = DATE_AND_TIME ( #76, #179 ) ;
#54 = PERSON_AND_ORGANIZATION ( #211, #102 ) ;
#55 = APPROVAL_DATE_TIME ( #53, #166 ) ;
#56 = COORDINATED_UNIVERSAL_TIME_OFFSET ( 9, 0, .AHEAD. ) ;
#57 = PERSON_AND_ORGANIZATION ( #211, #102 ) ;
#58 = PERSON_AND_ORGANIZATION ( #211, #102 ) ;
#59 = APPROVAL_PERSON_ORGANIZATION ( #58, #260, #290 ) ;
#60 = APPROVAL_PERSON_ORGANIZATION ( #62, #243, #286 ) ;
#61 = CALENDAR_DATE ( 2012, 27, 3 ) ;
#62 = PERSON_AND_ORGANIZATION ( #211, #102 ) ;
#63 = LINE ( 'NONE', #19, #269 ) ;
#64 = LINE ( 'NONE', #26, #256 ) ;
#65 = LINE ( 'NONE', #33, #234 ) ;
#66 = FACE_BOUND ( 'NONE', #109, .T. ) ;
#67 = CYLINDRICAL_SURFACE ( 'NONE', #242, 6.999999999999999100 ) ;
#68 = PERSON_AND_ORGANIZATION ( #211, #102 ) ;
#69 = FACE_OUTER_BOUND ( 'NONE', #98, .T. ) ;
#70 = CYLINDRICAL_SURFACE ( 'NONE', #235, 2.999999999999999100 ) ;
#71 = FACE_OUTER_BOUND ( 'NONE', #101, .T. ) ;
#72 = FACE_OUTER_BOUND ( 'NONE', #106, .T. ) ;
#73 = FACE_OUTER_BOUND ( 'NONE', #99, .T. ) ;
#74 = FACE_BOUND ( 'NONE', #105, .T. ) ;
#75 = FACE_OUTER_BOUND ( 'NONE', #104, .T. ) ;
#76 = CALENDAR_DATE ( 2012, 27, 3 ) ;
#77 = FACE_OUTER_BOUND ( 'NONE', #103, .T. ) ;
#78 = CYLINDRICAL_SURFACE ( 'NONE', #255, 2.999999999999999100 ) ;
#79 = LINE ( 'NONE', #21, #250 ) ;
#80 = FACE_OUTER_BOUND ( 'NONE', #110, .T. ) ;
#81 = APPROVAL_DATE_TIME ( #47, #243 ) ;
#82 = ORIENTED_EDGE ( 'NONE', *, *, #188, .T. ) ;
#83 = ORIENTED_EDGE ( 'NONE', *, *, #189, .F. ) ;
#84 = ORIENTED_EDGE ( 'NONE', *, *, #174, .T. ) ;
#85 = ORIENTED_EDGE ( 'NONE', *, *, #178, .F. ) ;
#86 = VERTEX_POINT ( 'NONE', #3 ) ;
#87 = VERTEX_POINT ( 'NONE', #2 ) ;
#88 = VERTEX_POINT ( 'NONE', #4 ) ;
#89 = VERTEX_POINT ( 'NONE', #5 ) ;
#90 = VERTEX_POINT ( 'NONE', #6 ) ;
#91 = VERTEX_POINT ( 'NONE', #7 ) ;
#92 = VERTEX_POINT ( 'NONE', #8 ) ;
#93 = VERTEX_POINT ( 'NONE', #9 ) ;
#94 = VERTEX_POINT ( 'NONE', #10 ) ;
#95 = VERTEX_POINT ( 'NONE', #11 ) ;
#96 = VERTEX_POINT ( 'NONE', #12 ) ;
#97 = VERTEX_POINT ( 'NONE', #14 ) ;
#98 = EDGE_LOOP ( 'NONE', ( #83, #82, #84, #85 ) ) ;
#99 = EDGE_LOOP ( 'NONE', ( #151, #154, #153, #152 ) ) ;
#100 = DATE_AND_TIME ( #116, #187 ) ;
#101 = EDGE_LOOP ( 'NONE', ( #156, #158, #159, #155 ) ) ;
#102 = ORGANIZATION ( 'UNSPECIFIED', 'UNSPECIFIED', '' ) ;
#103 = EDGE_LOOP ( 'NONE', ( #157, #150, #148, #143 ) ) ;
#104 = EDGE_LOOP ( 'NONE', ( #147, #142, #146, #144 ) ) ;
#105 = EDGE_LOOP ( 'NONE', ( #135, #139 ) ) ;
#106 = EDGE_LOOP ( 'NONE', ( #137, #136, #141, #133 ) ) ;
#107 = EDGE_LOOP ( 'NONE', ( #138, #140 ) ) ;
#108 = EDGE_LOOP ( 'NONE', ( #132, #131, #134, #129 ) ) ;
#109 = EDGE_LOOP ( 'NONE', ( #128, #126 ) ) ;
#110 = EDGE_LOOP ( 'NONE', ( #130, #125 ) ) ;
#111 = EDGE_LOOP ( 'NONE', ( #117, #114, #113, #127 ) ) ;
#112 = CLOSED_SHELL ( 'NONE', ( #195, #192, #194, #197, #198, #201, #199, #193, #186, #190 ) ) ;
#113 = ORIENTED_EDGE ( 'NONE', *, *, #178, .T. ) ;
#114 = ORIENTED_EDGE ( 'NONE', *, *, #203, .F. ) ;
#115 = APPROVAL_DATE_TIME ( #100, #260 ) ;
#116 = CALENDAR_DATE ( 2012, 27, 3 ) ;
#117 = ORIENTED_EDGE ( 'NONE', *, *, #188, .F. ) ;
#118 = CALENDAR_DATE ( 2012, 27, 3 ) ;
#119 = PERSON_AND_ORGANIZATION ( #211, #102 ) ;
#120 = FACE_OUTER_BOUND ( 'NONE', #111, .T. ) ;
#121 = FACE_OUTER_BOUND ( 'NONE', #108, .T. ) ;
#122 = COORDINATED_UNIVERSAL_TIME_OFFSET ( 9, 0, .AHEAD. ) ;
#123 = DATE_AND_TIME ( #45, #191 ) ;
#124 = LINE ( 'NONE', #270, #248 ) ;
#125 = ORIENTED_EDGE ( 'NONE', *, *, #204, .F. ) ;
#126 = ORIENTED_EDGE ( 'NONE', *, *, #189, .T. ) ;
#127 = ORIENTED_EDGE ( 'NONE', *, *, #206, .T. ) ;
#128 = ORIENTED_EDGE ( 'NONE', *, *, #203, .T. ) ;
#129 = ORIENTED_EDGE ( 'NONE', *, *, #177, .F. ) ;
#130 = ORIENTED_EDGE ( 'NONE', *, *, #180, .F. ) ;
#131 = ORIENTED_EDGE ( 'NONE', *, *, #204, .T. ) ;
#132 = ORIENTED_EDGE ( 'NONE', *, *, #182, .F. ) ;
#133 = ORIENTED_EDGE ( 'NONE', *, *, #205, .F. ) ;
#134 = ORIENTED_EDGE ( 'NONE', *, *, #209, .T. ) ;
#135 = ORIENTED_EDGE ( 'NONE', *, *, #208, .F. ) ;
#136 = ORIENTED_EDGE ( 'NONE', *, *, #177, .T. ) ;
#137 = ORIENTED_EDGE ( 'NONE', *, *, #200, .F. ) ;
#138 = ORIENTED_EDGE ( 'NONE', *, *, #196, .T. ) ;
#139 = ORIENTED_EDGE ( 'NONE', *, *, #207, .F. ) ;
#140 = ORIENTED_EDGE ( 'NONE', *, *, #205, .T. ) ;
#141 = ORIENTED_EDGE ( 'NONE', *, *, #181, .T. ) ;
#142 = ORIENTED_EDGE ( 'NONE', *, *, #206, .F. ) ;
#143 = ORIENTED_EDGE ( 'NONE', *, *, #176, .F. ) ;
#144 = ORIENTED_EDGE ( 'NONE', *, *, #208, .T. ) ;
#145 = FACE_OUTER_BOUND ( 'NONE', #107, .T. ) ;
#146 = ORIENTED_EDGE ( 'NONE', *, *, #176, .T. ) ;
#147 = ORIENTED_EDGE ( 'NONE', *, *, #175, .F. ) ;
#148 = ORIENTED_EDGE ( 'NONE', *, *, #207, .T. ) ;
#149 = COORDINATED_UNIVERSAL_TIME_OFFSET ( 9, 0, .AHEAD. ) ;
#150 = ORIENTED_EDGE ( 'NONE', *, *, #175, .T. ) ;
#151 = ORIENTED_EDGE ( 'NONE', *, *, #180, .T. ) ;
#152 = ORIENTED_EDGE ( 'NONE', *, *, #209, .F. ) ;
#153 = ORIENTED_EDGE ( 'NONE', *, *, #202, .F. ) ;
#154 = ORIENTED_EDGE ( 'NONE', *, *, #182, .T. ) ;
#155 = ORIENTED_EDGE ( 'NONE', *, *, #181, .F. ) ;
#156 = ORIENTED_EDGE ( 'NONE', *, *, #202, .T. ) ;
#157 = ORIENTED_EDGE ( 'NONE', *, *, #174, .F. ) ;
#158 = ORIENTED_EDGE ( 'NONE', *, *, #200, .T. ) ;
#159 = ORIENTED_EDGE ( 'NONE', *, *, #196, .F. ) ;
#160 = LINE ( 'NONE', #40, #238 ) ;
#161 = PRODUCT_DEFINITION_SHAPE ( 'NONE', 'NONE',  #268 ) ;
#162 = DESIGN_CONTEXT ( 'detailed design', #294, 'design' ) ;
#163 = CC_DESIGN_PERSON_AND_ORGANIZATION_ASSIGNMENT ( #68, #284, ( #259 ) ) ;
#164 = CC_DESIGN_SECURITY_CLASSIFICATION ( #170, ( #259 ) ) ;
#165 = CC_DESIGN_PERSON_AND_ORGANIZATION_ASSIGNMENT ( #44, #279, ( #170 ) ) ;
#166 = APPROVAL ( #276, 'UNSPECIFIED' ) ;
#167 = CC_DESIGN_PERSON_AND_ORGANIZATION_ASSIGNMENT ( #43, #281, ( #259 ) ) ;
#168 = CC_DESIGN_DATE_AND_TIME_ASSIGNMENT ( #123, #278, ( #170 ) ) ;
#169 = PRODUCT_RELATED_PRODUCT_CATEGORY ( 'detail', '', ( #210 ) ) ;
#170 = SECURITY_CLASSIFICATION ( '', '', #280 ) ;
#171 = CC_DESIGN_APPROVAL ( #166, ( #170 ) ) ;
#172 = ADVANCED_BREP_SHAPE_REPRESENTATION ( 'C-1029-S-M5', ( #173, #249 ), #183 ) ;
#173 = MANIFOLD_SOLID_BREP ( 'ñ]1', #112 ) ;
#174 = EDGE_CURVE ( 'NONE', #91, #88, #236, .T. ) ;
#175 = EDGE_CURVE ( 'NONE', #91, #93, #63, .T. ) ;
#176 = EDGE_CURVE ( 'NONE', #88, #87, #79, .T. ) ;
#177 = EDGE_CURVE ( 'NONE', #90, #92, #245, .T. ) ;
#178 = EDGE_CURVE ( 'NONE', #86, #88, #64, .T. ) ;
#179 = LOCAL_TIME ( 16, 40, 52.00000000000000000, #149 ) ;
#180 = EDGE_CURVE ( 'NONE', #97, #89, #265, .T. ) ;
#181 = EDGE_CURVE ( 'NONE', #92, #94, #257, .T. ) ;
#182 = EDGE_CURVE ( 'NONE', #89, #90, #65, .T. ) ;
#183 =( GEOMETRIC_REPRESENTATION_CONTEXT ( 3 ) GLOBAL_UNCERTAINTY_ASSIGNED_CONTEXT ( ( #1 ) ) GLOBAL_UNIT_ASSIGNED_CONTEXT ( ( #285, #277, #293 ) ) REPRESENTATION_CONTEXT ( 'NONE', 'WORKASPACE' ) );
#184 = LOCAL_TIME ( 16, 40, 52.00000000000000000, #51 ) ;
#185 = LOCAL_TIME ( 16, 40, 52.00000000000000000, #56 ) ;
#186 = ADVANCED_FACE ( 'NONE', ( #66, #80 ), #29, .T. ) ;
#187 = LOCAL_TIME ( 16, 40, 52.00000000000000000, #122 ) ;
#188 = EDGE_CURVE ( 'NONE', #95, #91, #160, .T. ) ;
#189 = EDGE_CURVE ( 'NONE', #95, #86, #267, .T. ) ;
#190 = ADVANCED_FACE ( 'NONE', ( #120 ), #70, .F. ) ;
#191 = LOCAL_TIME ( 16, 40, 52.00000000000000000, #46 ) ;
#192 = ADVANCED_FACE ( 'NONE', ( #73 ), #49, .T. ) ;
#193 = ADVANCED_FACE ( 'NONE', ( #121 ), #67, .T. ) ;
#194 = ADVANCED_FACE ( 'NONE', ( #71 ), #247, .T. ) ;
#195 = ADVANCED_FACE ( 'NONE', ( #69 ), #78, .F. ) ;
#196 = EDGE_CURVE ( 'NONE', #94, #96, #251, .T. ) ;
#197 = ADVANCED_FACE ( 'NONE', ( #77 ), #227, .F. ) ;
#198 = ADVANCED_FACE ( 'NONE', ( #75 ), #246, .F. ) ;
#199 = ADVANCED_FACE ( 'NONE', ( #72 ), #232, .T. ) ;
#200 = EDGE_CURVE ( 'NONE', #90, #96, #226, .T. ) ;
#201 = ADVANCED_FACE ( 'NONE', ( #145, #74 ), #322, .T. ) ;
#202 = EDGE_CURVE ( 'NONE', #92, #90, #223, .T. ) ;
#203 = EDGE_CURVE ( 'NONE', #86, #95, #221, .T. ) ;
#204 = EDGE_CURVE ( 'NONE', #89, #97, #219, .T. ) ;
#205 = EDGE_CURVE ( 'NONE', #96, #94, #225, .T. ) ;
#206 = EDGE_CURVE ( 'NONE', #88, #91, #213, .T. ) ;
#207 = EDGE_CURVE ( 'NONE', #93, #87, #216, .T. ) ;
#208 = EDGE_CURVE ( 'NONE', #87, #93, #218, .T. ) ;
#209 = EDGE_CURVE ( 'NONE', #97, #92, #124, .T. ) ;
#210 = PRODUCT ( 'C-1029-S-M5', 'C-1029-S-M5', '', ( #296 ) ) ;
#211 = PERSON ( 'UNSPECIFIED', 'UNSPECIFIED', 'UNSPECIFIED', ('UNSPECIFIED'), ('UNSPECIFIED'), ('UNSPECIFIED') ) ;
#212 = AXIS2_PLACEMENT_3D ( 'NONE', #321, #319, #317 ) ;
#213 = CIRCLE ( 'NONE', #215, 2.999999999999999100 ) ;
#214 = AXIS2_PLACEMENT_3D ( 'NONE', #303, #325, #323 ) ;
#215 = AXIS2_PLACEMENT_3D ( 'NONE', #307, #305, #304 ) ;
#216 = CIRCLE ( 'NONE', #222, 5.499999999999973400 ) ;
#217 = AXIS2_PLACEMENT_3D ( 'NONE', #310, #309, #308 ) ;
#218 = CIRCLE ( 'NONE', #258, 5.499999999999973400 ) ;
#219 = CIRCLE ( 'NONE', #212, 6.999999999999999100 ) ;
#220 = AXIS2_PLACEMENT_3D ( 'NONE', #328, #327, #326 ) ;
#221 = CIRCLE ( 'NONE', #214, 2.999999999999999100 ) ;
#222 = AXIS2_PLACEMENT_3D ( 'NONE', #302, #301, #300 ) ;
#223 = CIRCLE ( 'NONE', #217, 6.999999999999999100 ) ;
#224 = AXIS2_PLACEMENT_3D ( 'NONE', #318, #316, #312 ) ;
#225 = CIRCLE ( 'NONE', #252, 5.999999999999999100 ) ;
#226 = CIRCLE ( 'NONE', #220, 1.000000000000000000 ) ;
#227 = CONICAL_SURFACE ( 'NONE', #237, 2.999999999999999100, 0.7853981633974435100 ) ;
#228 = AXIS2_PLACEMENT_3D ( 'NONE', #37, #34, #42 ) ;
#229 = CC_DESIGN_PERSON_AND_ORGANIZATION_ASSIGNMENT ( #57, #295, ( #210 ) ) ;
#230 = AXIS2_PLACEMENT_3D ( 'NONE', #23, #24, #25 ) ;
#231 = AXIS2_PLACEMENT_3D ( 'NONE', #15, #16, #17 ) ;
#232 = TOROIDAL_SURFACE ( 'NONE', #241, 5.999999999999999100, 0.9999999999999997800 ) ;
#233 = AXIS2_PLACEMENT_3D ( 'NONE', #335, #334, #333 ) ;
#234 = VECTOR ( 'NONE', #38, 1000.000000000000000 ) ;
#235 = AXIS2_PLACEMENT_3D ( 'NONE', #331, #324, #340 ) ;
#236 = CIRCLE ( 'NONE', #231, 2.999999999999999100 ) ;
#237 = AXIS2_PLACEMENT_3D ( 'NONE', #338, #337, #336 ) ;
#238 = VECTOR ( 'NONE', #32, 1000.000000000000000 ) ;
#239 = AXIS2_PLACEMENT_3D ( 'NONE', #28, #30, #31 ) ;
#240 = AXIS2_PLACEMENT_3D ( 'NONE', #320, #343, #339 ) ;
#241 = AXIS2_PLACEMENT_3D ( 'NONE', #332, #330, #329 ) ;
#242 = AXIS2_PLACEMENT_3D ( 'NONE', #351, #306, #313 ) ;
#243 = APPROVAL ( #287, 'UNSPECIFIED' ) ;
#244 = AXIS2_PLACEMENT_3D ( 'NONE', #41, #36, #35 ) ;
#245 = CIRCLE ( 'NONE', #230, 6.999999999999999100 ) ;
#246 = CONICAL_SURFACE ( 'NONE', #233, 2.999999999999999100, 0.7853981633974435100 ) ;
#247 = TOROIDAL_SURFACE ( 'NONE', #253, 5.999999999999999100, 0.9999999999999997800 ) ;
#248 = VECTOR ( 'NONE', #283, 1000.000000000000000 ) ;
#249 = AXIS2_PLACEMENT_3D ( 'NONE', #282, #273, #274 ) ;
#250 = VECTOR ( 'NONE', #22, 1000.000000000000000 ) ;
#251 = CIRCLE ( 'NONE', #254, 5.999999999999999100 ) ;
#252 = AXIS2_PLACEMENT_3D ( 'NONE', #315, #314, #311 ) ;
#253 = AXIS2_PLACEMENT_3D ( 'NONE', #350, #349, #348 ) ;
#254 = AXIS2_PLACEMENT_3D ( 'NONE', #344, #342, #341 ) ;
#255 = AXIS2_PLACEMENT_3D ( 'NONE', #347, #346, #345 ) ;
#256 = VECTOR ( 'NONE', #27, 1000.000000000000000 ) ;
#257 = CIRCLE ( 'NONE', #244, 1.000000000000000000 ) ;
#258 = AXIS2_PLACEMENT_3D ( 'NONE', #271, #272, #299 ) ;
#259 = PRODUCT_DEFINITION_FORMATION_WITH_SPECIFIED_SOURCE ( 'ANY', '', #210, .NOT_KNOWN. ) ;
#260 = APPROVAL ( #291, 'UNSPECIFIED' ) ;
#261 = CC_DESIGN_APPROVAL ( #260, ( #268 ) ) ;
#262 = AXIS2_PLACEMENT_3D ( 'NONE', #18, #39, #13 ) ;
#263 = CC_DESIGN_APPROVAL ( #243, ( #259 ) ) ;
#264 = CC_DESIGN_PERSON_AND_ORGANIZATION_ASSIGNMENT ( #54, #289, ( #268 ) ) ;
#265 = CIRCLE ( 'NONE', #239, 6.999999999999999100 ) ;
#266 = CC_DESIGN_DATE_AND_TIME_ASSIGNMENT ( #52, #288, ( #268 ) ) ;
#267 = CIRCLE ( 'NONE', #262, 2.999999999999999100 ) ;
#268 = PRODUCT_DEFINITION ( 'UNKNOWN', '', #259, #162 ) ;
#269 = VECTOR ( 'NONE', #20, 1000.000000000000000 ) ;
#270 = CARTESIAN_POINT ( 'NONE',  ( 0.0000000000000000000, 7.283860049783210200, 6.999999999999999100 ) ) ;
#271 = CARTESIAN_POINT ( 'NONE',  ( 0.0000000000000000000, 2.999999999999999100, 0.0000000000000000000 ) ) ;
#272 = DIRECTION ( 'NONE',  ( -0.0000000000000000000, 1.000000000000000000, -0.0000000000000000000 ) ) ;
#273 = DIRECTION ( 'NONE',  ( 0.0000000000000000000, 0.0000000000000000000, 1.000000000000000000 ) ) ;
#274 = DIRECTION ( 'NONE',  ( 1.000000000000000000, 0.0000000000000000000, 0.0000000000000000000 ) ) ;
#275 = APPROVAL_ROLE ( '' ) ;
#276 = APPROVAL_STATUS ( 'not_yet_approved' ) ;
#277 =( NAMED_UNIT ( * ) PLANE_ANGLE_UNIT ( ) SI_UNIT ( $, .RADIAN. ) );
#278 = DATE_TIME_ROLE ( 'classification_date' ) ;
#279 = PERSON_AND_ORGANIZATION_ROLE ( 'classification_officer' ) ;
#280 = SECURITY_CLASSIFICATION_LEVEL ( 'unclassified' ) ;
#281 = PERSON_AND_ORGANIZATION_ROLE ( 'design_supplier' ) ;
#282 = CARTESIAN_POINT ( 'NONE',  ( 0.0000000000000000000, 0.0000000000000000000, 0.0000000000000000000 ) ) ;
#283 = DIRECTION ( 'NONE',  ( -0.0000000000000000000, 1.000000000000000000, -0.0000000000000000000 ) ) ;
#284 = PERSON_AND_ORGANIZATION_ROLE ( 'creator' ) ;
#285 =( LENGTH_UNIT ( ) NAMED_UNIT ( * ) SI_UNIT ( .MILLI., .METRE. ) );
#286 = APPROVAL_ROLE ( '' ) ;
#287 = APPROVAL_STATUS ( 'not_yet_approved' ) ;
#288 = DATE_TIME_ROLE ( 'creation_date' ) ;
#289 = PERSON_AND_ORGANIZATION_ROLE ( 'creator' ) ;
#290 = APPROVAL_ROLE ( '' ) ;
#291 = APPROVAL_STATUS ( 'not_yet_approved' ) ;
#292 = APPLICATION_PROTOCOL_DEFINITION ( 'international standard', 'config_control_design', 1994, #294 ) ;
#293 =( NAMED_UNIT ( * ) SI_UNIT ( $, .STERADIAN. ) SOLID_ANGLE_UNIT ( ) );
#294 = APPLICATION_CONTEXT ( 'configuration controlled 3d designs of mechanical parts and assemblies' ) ;
#295 = PERSON_AND_ORGANIZATION_ROLE ( 'design_owner' ) ;
#296 = MECHANICAL_CONTEXT ( 'NONE', #298, 'mechanical' ) ;
#297 = APPLICATION_PROTOCOL_DEFINITION ( 'international standard', 'config_control_design', 1994, #298 ) ;
#298 = APPLICATION_CONTEXT ( 'configuration controlled 3d designs of mechanical parts and assemblies' ) ;
#299 = DIRECTION ( 'NONE',  ( 0.0000000000000000000, 0.0000000000000000000, 1.000000000000000000 ) ) ;
#300 = DIRECTION ( 'NONE',  ( 0.0000000000000000000, 0.0000000000000000000, 1.000000000000000000 ) ) ;
#301 = DIRECTION ( 'NONE',  ( -0.0000000000000000000, 1.000000000000000000, -0.0000000000000000000 ) ) ;
#302 = CARTESIAN_POINT ( 'NONE',  ( 0.0000000000000000000, 2.999999999999999100, 0.0000000000000000000 ) ) ;
#303 = CARTESIAN_POINT ( 'NONE',  ( 0.0000000000000000000, 0.0000000000000000000, 0.0000000000000000000 ) ) ;
#304 = DIRECTION ( 'NONE',  ( 0.0000000000000000000, 0.0000000000000000000, 1.000000000000000000 ) ) ;
#305 = DIRECTION ( 'NONE',  ( -0.0000000000000000000, 1.000000000000000000, -0.0000000000000000000 ) ) ;
#306 = DIRECTION ( 'NONE',  ( -0.0000000000000000000, 1.000000000000000000, -0.0000000000000000000 ) ) ;
#307 = CARTESIAN_POINT ( 'NONE',  ( 0.0000000000000000000, 0.5000000000000004400, 0.0000000000000000000 ) ) ;
#308 = DIRECTION ( 'NONE',  ( 0.0000000000000000000, 0.0000000000000000000, 1.000000000000000000 ) ) ;
#309 = DIRECTION ( 'NONE',  ( -0.0000000000000000000, 1.000000000000000000, -0.0000000000000000000 ) ) ;
#310 = CARTESIAN_POINT ( 'NONE',  ( 0.0000000000000000000, 1.999999999999999100, 0.0000000000000000000 ) ) ;
#311 = DIRECTION ( 'NONE',  ( 0.0000000000000000000, 0.0000000000000000000, 1.000000000000000000 ) ) ;
#312 = DIRECTION ( 'NONE',  ( 0.0000000000000000000, 0.0000000000000000000, 1.000000000000000000 ) ) ;
#313 = DIRECTION ( 'NONE',  ( 0.0000000000000000000, 0.0000000000000000000, 1.000000000000000000 ) ) ;
#314 = DIRECTION ( 'NONE',  ( -0.0000000000000000000, 1.000000000000000000, -0.0000000000000000000 ) ) ;
#315 = CARTESIAN_POINT ( 'NONE',  ( 0.0000000000000000000, 2.999999999999999100, 0.0000000000000000000 ) ) ;
#316 = DIRECTION ( 'NONE',  ( -0.0000000000000000000, 1.000000000000000000, 0.0000000000000000000 ) ) ;
#317 = DIRECTION ( 'NONE',  ( 0.0000000000000000000, 0.0000000000000000000, 1.000000000000000000 ) ) ;
#318 = CARTESIAN_POINT ( 'NONE',  ( 0.0000000000000000000, 2.999999999999999100, 5.499999999999973400 ) ) ;
#319 = DIRECTION ( 'NONE',  ( -0.0000000000000000000, 1.000000000000000000, -0.0000000000000000000 ) ) ;
#320 = CARTESIAN_POINT ( 'NONE',  ( 0.0000000000000000000, 7.283860049783210200, 0.0000000000000000000 ) ) ;
#321 = CARTESIAN_POINT ( 'NONE',  ( 0.0000000000000000000, 0.0000000000000000000, 0.0000000000000000000 ) ) ;
#322 = PLANE ( 'NONE',  #224 ) ;
#323 = DIRECTION ( 'NONE',  ( 0.0000000000000000000, 0.0000000000000000000, 1.000000000000000000 ) ) ;
#324 = DIRECTION ( 'NONE',  ( -0.0000000000000000000, 1.000000000000000000, -0.0000000000000000000 ) ) ;
#325 = DIRECTION ( 'NONE',  ( -0.0000000000000000000, 1.000000000000000000, -0.0000000000000000000 ) ) ;
#326 = DIRECTION ( 'NONE',  ( 1.224646799147352500E-016, 0.0000000000000000000, -1.000000000000000000 ) ) ;
#327 = DIRECTION ( 'NONE',  ( 1.000000000000000000, 0.0000000000000000000, 1.224646799147353200E-016 ) ) ;
#328 = CARTESIAN_POINT ( 'NONE',  ( 7.347880794884118800E-016, 1.999999999999999600, -5.999999999999999100 ) ) ;
#329 = DIRECTION ( 'NONE',  ( 0.0000000000000000000, 0.0000000000000000000, 1.000000000000000000 ) ) ;
#330 = DIRECTION ( 'NONE',  ( -0.0000000000000000000, 1.000000000000000000, -0.0000000000000000000 ) ) ;
#331 = CARTESIAN_POINT ( 'NONE',  ( 0.0000000000000000000, 7.283860049783210200, 0.0000000000000000000 ) ) ;
#332 = CARTESIAN_POINT ( 'NONE',  ( 0.0000000000000000000, 1.999999999999999600, 0.0000000000000000000 ) ) ;
#333 = DIRECTION ( 'NONE',  ( 0.0000000000000000000, 0.0000000000000000000, 1.000000000000000000 ) ) ;
#334 = DIRECTION ( 'NONE',  ( -0.0000000000000000000, 1.000000000000000000, -0.0000000000000000000 ) ) ;
#335 = CARTESIAN_POINT ( 'NONE',  ( 0.0000000000000000000, 0.5000000000000004400, 0.0000000000000000000 ) ) ;
#336 = DIRECTION ( 'NONE',  ( 0.0000000000000000000, 0.0000000000000000000, 1.000000000000000000 ) ) ;
#337 = DIRECTION ( 'NONE',  ( -0.0000000000000000000, 1.000000000000000000, -0.0000000000000000000 ) ) ;
#338 = CARTESIAN_POINT ( 'NONE',  ( 0.0000000000000000000, 0.5000000000000004400, 0.0000000000000000000 ) ) ;
#339 = DIRECTION ( 'NONE',  ( 0.0000000000000000000, 0.0000000000000000000, 1.000000000000000000 ) ) ;
#340 = DIRECTION ( 'NONE',  ( 0.0000000000000000000, 0.0000000000000000000, 1.000000000000000000 ) ) ;
#341 = DIRECTION ( 'NONE',  ( 0.0000000000000000000, 0.0000000000000000000, 1.000000000000000000 ) ) ;
#342 = DIRECTION ( 'NONE',  ( -0.0000000000000000000, 1.000000000000000000, -0.0000000000000000000 ) ) ;
#343 = DIRECTION ( 'NONE',  ( -0.0000000000000000000, 1.000000000000000000, -0.0000000000000000000 ) ) ;
#344 = CARTESIAN_POINT ( 'NONE',  ( 0.0000000000000000000, 2.999999999999999100, 0.0000000000000000000 ) ) ;
#345 = DIRECTION ( 'NONE',  ( 0.0000000000000000000, 0.0000000000000000000, 1.000000000000000000 ) ) ;
#346 = DIRECTION ( 'NONE',  ( -0.0000000000000000000, 1.000000000000000000, -0.0000000000000000000 ) ) ;
#347 = CARTESIAN_POINT ( 'NONE',  ( 0.0000000000000000000, 7.283860049783210200, 0.0000000000000000000 ) ) ;
#348 = DIRECTION ( 'NONE',  ( 0.0000000000000000000, 0.0000000000000000000, 1.000000000000000000 ) ) ;
#349 = DIRECTION ( 'NONE',  ( -0.0000000000000000000, 1.000000000000000000, -0.0000000000000000000 ) ) ;
#350 = CARTESIAN_POINT ( 'NONE',  ( 0.0000000000000000000, 1.999999999999999600, 0.0000000000000000000 ) ) ;
#351 = CARTESIAN_POINT ( 'NONE',  ( 0.0000000000000000000, 7.283860049783210200, 0.0000000000000000000 ) ) ;
ENDSEC;
END-ISO-10303-21;
