ISO-10303-21;
HEADER;
FILE_DESCRIPTION (( 'STEP AP203' ),
    '1' );
FILE_NAME ('C-1029-S-M4.STEP',
    '2012-03-27T07:40:05',
    ( '11sw' ),
    ( '^LQ»¢®ïÐ' ),
    'SwSTEP 2.0',
    'SolidWorks 2011',
    '' );
FILE_SCHEMA (( 'CONFIG_CONTROL_DESIGN' ));
ENDSEC;

DATA;
#1 = UNCERTAINTY_MEASURE_WITH_UNIT (LENGTH_MEASURE( 1.000000000000000100E-005 ), #29, 'distance_accuracy_value', 'NONE');
#2 = PRODUCT ( 'C-1029-S-M4', 'C-1029-S-M4', '', ( #38 ) ) ;
#3 = PERSON ( 'UNSPECIFIED', 'UNSPECIFIED', 'UNSPECIFIED', ('UNSPECIFIED'), ('UNSPECIFIED'), ('UNSPECIFIED') ) ;
#4 = DIRECTION ( 'NONE',  ( 0.0000000000000000000, 0.0000000000000000000, 1.000000000000000000 ) ) ;
#5 = SECURITY_CLASSIFICATION_LEVEL ( 'unclassified' ) ;
#6 = DIRECTION ( 'NONE',  ( -0.0000000000000000000, 1.000000000000000000, -0.0000000000000000000 ) ) ;
#7 = DIRECTION ( 'NONE',  ( 0.0000000000000000000, 0.0000000000000000000, 1.000000000000000000 ) ) ;
#8 = DIRECTION ( 'NONE',  ( -0.0000000000000000000, 1.000000000000000000, -0.0000000000000000000 ) ) ;
#9 = PERSON_AND_ORGANIZATION_ROLE ( 'design_supplier' ) ;
#10 = PERSON_AND_ORGANIZATION_ROLE ( 'classification_officer' ) ;
#11 = PERSON_AND_ORGANIZATION_ROLE ( 'creator' ) ;
#12 = DIRECTION ( 'NONE',  ( -0.0000000000000000000, 1.000000000000000000, -0.0000000000000000000 ) ) ;
#13 = APPROVAL_ROLE ( '' ) ;
#14 = DATE_TIME_ROLE ( 'classification_date' ) ;
#15 = CARTESIAN_POINT ( 'NONE',  ( 0.0000000000000000000, 0.0000000000000000000, 0.0000000000000000000 ) ) ;
#16 = APPROVAL_STATUS ( 'not_yet_approved' ) ;
#17 = CARTESIAN_POINT ( 'NONE',  ( 0.0000000000000000000, 2.500000000000000400, 0.0000000000000000000 ) ) ;
#18 = CARTESIAN_POINT ( 'NONE',  ( 0.0000000000000000000, 2.499999999999999600, 0.0000000000000000000 ) ) ;
#19 = DATE_TIME_ROLE ( 'creation_date' ) ;
#20 = DIRECTION ( 'NONE',  ( 0.0000000000000000000, 0.0000000000000000000, 1.000000000000000000 ) ) ;
#21 = PERSON_AND_ORGANIZATION_ROLE ( 'creator' ) ;
#22 = CARTESIAN_POINT ( 'NONE',  ( 0.0000000000000000000, 0.0000000000000000000, 0.0000000000000000000 ) ) ;
#23 = APPROVAL_ROLE ( '' ) ;
#24 = DIRECTION ( 'NONE',  ( 8.659560562354890900E-017, 0.7071067811865510100, -0.7071067811865441300 ) ) ;
#25 = DIRECTION ( 'NONE',  ( 0.0000000000000000000, 0.0000000000000000000, 1.000000000000000000 ) ) ;
#26 = DIRECTION ( 'NONE',  ( -0.0000000000000000000, 1.000000000000000000, -0.0000000000000000000 ) ) ;
#27 = DIRECTION ( 'NONE',  ( 0.0000000000000000000, 0.0000000000000000000, 1.000000000000000000 ) ) ;
#28 = DIRECTION ( 'NONE',  ( -1.000000000000000000, 0.0000000000000000000, 0.0000000000000000000 ) ) ;
#29 =( LENGTH_UNIT ( ) NAMED_UNIT ( * ) SI_UNIT ( .MILLI., .METRE. ) );
#30 = APPROVAL_ROLE ( '' ) ;
#31 = APPLICATION_PROTOCOL_DEFINITION ( 'international standard', 'config_control_design', 1994, #33 ) ;
#32 = DIRECTION ( 'NONE',  ( -0.0000000000000000000, 1.000000000000000000, -0.0000000000000000000 ) ) ;
#33 = APPLICATION_CONTEXT ( 'configuration controlled 3d designs of mechanical parts and assemblies' ) ;
#34 = DIRECTION ( 'NONE',  ( 0.0000000000000000000, 0.7071067811865510100, 0.7071067811865441300 ) ) ;
#35 = PERSON_AND_ORGANIZATION_ROLE ( 'design_owner' ) ;
#36 = DIRECTION ( 'NONE',  ( -0.0000000000000000000, 1.000000000000000000, -0.0000000000000000000 ) ) ;
#37 = DIRECTION ( 'NONE',  ( 0.0000000000000000000, 0.0000000000000000000, 1.000000000000000000 ) ) ;
#38 = MECHANICAL_CONTEXT ( 'NONE', #43, 'mechanical' ) ;
#39 = DIRECTION ( 'NONE',  ( -0.0000000000000000000, 1.000000000000000000, -0.0000000000000000000 ) ) ;
#40 = CARTESIAN_POINT ( 'NONE',  ( 0.0000000000000000000, 0.5000000000000004400, 2.249999999999999100 ) ) ;
#41 = DIRECTION ( 'NONE',  ( 0.0000000000000000000, 0.0000000000000000000, 1.000000000000000000 ) ) ;
#42 = APPLICATION_PROTOCOL_DEFINITION ( 'international standard', 'config_control_design', 1994, #43 ) ;
#43 = APPLICATION_CONTEXT ( 'configuration controlled 3d designs of mechanical parts and assemblies' ) ;
#44 = DIRECTION ( 'NONE',  ( -0.0000000000000000000, 1.000000000000000000, -0.0000000000000000000 ) ) ;
#45 =( NAMED_UNIT ( * ) SI_UNIT ( $, .STERADIAN. ) SOLID_ANGLE_UNIT ( ) );
#46 = DIRECTION ( 'NONE',  ( 0.0000000000000000000, 0.0000000000000000000, 1.000000000000000000 ) ) ;
#47 =( NAMED_UNIT ( * ) PLANE_ANGLE_UNIT ( ) SI_UNIT ( $, .RADIAN. ) );
#48 = DIRECTION ( 'NONE',  ( 0.0000000000000000000, 0.0000000000000000000, 1.000000000000000000 ) ) ;
#49 = CARTESIAN_POINT ( 'NONE',  ( 0.0000000000000000000, 7.283860049783210200, 0.0000000000000000000 ) ) ;
#50 = DIRECTION ( 'NONE',  ( 0.0000000000000000000, 0.0000000000000000000, 1.000000000000000000 ) ) ;
#51 = APPROVAL_STATUS ( 'not_yet_approved' ) ;
#52 = DIRECTION ( 'NONE',  ( -0.0000000000000000000, 1.000000000000000000, -0.0000000000000000000 ) ) ;
#53 = CARTESIAN_POINT ( 'NONE',  ( 0.0000000000000000000, 2.499999999999999600, 0.0000000000000000000 ) ) ;
#54 = CARTESIAN_POINT ( 'NONE',  ( 0.0000000000000000000, 7.283860049783210200, 0.0000000000000000000 ) ) ;
#55 = DIRECTION ( 'NONE',  ( -0.0000000000000000000, 1.000000000000000000, -0.0000000000000000000 ) ) ;
#56 = CARTESIAN_POINT ( 'NONE',  ( 2.755455298081543300E-016, 0.5000000000000004400, -2.249999999999999100 ) ) ;
#57 = CARTESIAN_POINT ( 'NONE',  ( 7.347880794884119700E-016, 7.283860049783210200, -6.000000000000000000 ) ) ;
#58 = DIRECTION ( 'NONE',  ( -0.0000000000000000000, 1.000000000000000000, -0.0000000000000000000 ) ) ;
#59 = DIRECTION ( 'NONE',  ( 0.0000000000000000000, 0.0000000000000000000, 1.000000000000000000 ) ) ;
#60 = CARTESIAN_POINT ( 'NONE',  ( 2.755455298081543300E-016, 7.283860049783210200, -2.249999999999999100 ) ) ;
#61 = CARTESIAN_POINT ( 'NONE',  ( 0.0000000000000000000, 0.0000000000000000000, 0.0000000000000000000 ) ) ;
#62 = CARTESIAN_POINT ( 'NONE',  ( 0.0000000000000000000, 7.283860049783210200, 2.249999999999999100 ) ) ;
#63 = APPROVAL_STATUS ( 'not_yet_approved' ) ;
#64 = CARTESIAN_POINT ( 'NONE',  ( 0.0000000000000000000, 0.0000000000000000000, 0.0000000000000000000 ) ) ;
#65 = CARTESIAN_POINT ( 'NONE',  ( 0.0000000000000000000, 1.499999999999999800, 4.999999999999999100 ) ) ;
#66 = DIRECTION ( 'NONE',  ( 0.0000000000000000000, 0.0000000000000000000, 1.000000000000000000 ) ) ;
#67 = DIRECTION ( 'NONE',  ( 1.000000000000000000, 0.0000000000000000000, 0.0000000000000000000 ) ) ;
#68 = CARTESIAN_POINT ( 'NONE',  ( 0.0000000000000000000, 0.0000000000000000000, 0.0000000000000000000 ) ) ;
#69 = DIRECTION ( 'NONE',  ( -0.0000000000000000000, 1.000000000000000000, -0.0000000000000000000 ) ) ;
#70 = VERTEX_POINT ( 'NONE', #316 ) ;
#71 = VERTEX_POINT ( 'NONE', #315 ) ;
#72 = CALENDAR_DATE ( 2012, 27, 3 ) ;
#73 = VERTEX_POINT ( 'NONE', #317 ) ;
#74 = VERTEX_POINT ( 'NONE', #318 ) ;
#75 = LINE ( 'NONE', #56, #236 ) ;
#76 = VERTEX_POINT ( 'NONE', #319 ) ;
#77 = APPROVAL_PERSON_ORGANIZATION ( #81, #262, #30 ) ;
#78 = PERSON_AND_ORGANIZATION ( #3, #86 ) ;
#79 = PERSON_AND_ORGANIZATION ( #3, #86 ) ;
#80 = CALENDAR_DATE ( 2012, 27, 3 ) ;
#81 = PERSON_AND_ORGANIZATION ( #3, #86 ) ;
#82 = CALENDAR_DATE ( 2012, 27, 3 ) ;
#83 = APPROVAL_DATE_TIME ( #151, #262 ) ;
#84 = VERTEX_POINT ( 'NONE', #320 ) ;
#85 = ORIENTED_EDGE ( 'NONE', *, *, #192, .F. ) ;
#86 = ORGANIZATION ( 'UNSPECIFIED', 'UNSPECIFIED', '' ) ;
#87 = SHAPE_DEFINITION_REPRESENTATION ( #188, #190 ) ;
#88 = PERSON_AND_ORGANIZATION ( #3, #86 ) ;
#89 = LINE ( 'NONE', #336, #251 ) ;
#90 = FACE_OUTER_BOUND ( 'NONE', #122, .T. ) ;
#91 = CYLINDRICAL_SURFACE ( 'NONE', #252, 2.249999999999999100 ) ;
#92 = COORDINATED_UNIVERSAL_TIME_OFFSET ( 9, 0, .AHEAD. ) ;
#93 = PERSON_AND_ORGANIZATION ( #3, #86 ) ;
#94 = DATE_AND_TIME ( #82, #195 ) ;
#95 = CALENDAR_DATE ( 2012, 27, 3 ) ;
#96 = DATE_AND_TIME ( #95, #222 ) ;
#97 = CALENDAR_DATE ( 2012, 27, 3 ) ;
#98 = COORDINATED_UNIVERSAL_TIME_OFFSET ( 9, 0, .AHEAD. ) ;
#99 = APPROVAL_DATE_TIME ( #96, #257 ) ;
#100 = CYLINDRICAL_SURFACE ( 'NONE', #281, 2.249999999999999100 ) ;
#101 = DATE_AND_TIME ( #97, #221 ) ;
#102 = ORIENTED_EDGE ( 'NONE', *, *, #211, .T. ) ;
#103 = ORIENTED_EDGE ( 'NONE', *, *, #192, .T. ) ;
#104 = CYLINDRICAL_SURFACE ( 'NONE', #287, 6.000000000000000000 ) ;
#105 = ORIENTED_EDGE ( 'NONE', *, *, #201, .F. ) ;
#106 = CYLINDRICAL_SURFACE ( 'NONE', #235, 6.000000000000000000 ) ;
#107 = LINE ( 'NONE', #60, #277 ) ;
#108 = FACE_BOUND ( 'NONE', #129, .T. ) ;
#109 = FACE_OUTER_BOUND ( 'NONE', #130, .T. ) ;
#110 = FACE_OUTER_BOUND ( 'NONE', #131, .T. ) ;
#111 = FACE_BOUND ( 'NONE', #124, .T. ) ;
#112 = VERTEX_POINT ( 'NONE', #321 ) ;
#113 = ORIENTED_EDGE ( 'NONE', *, *, #226, .F. ) ;
#114 = FACE_OUTER_BOUND ( 'NONE', #125, .T. ) ;
#115 = COORDINATED_UNIVERSAL_TIME_OFFSET ( 9, 0, .AHEAD. ) ;
#116 = ORIENTED_EDGE ( 'NONE', *, *, #219, .T. ) ;
#117 = ORIENTED_EDGE ( 'NONE', *, *, #214, .T. ) ;
#118 = VERTEX_POINT ( 'NONE', #322 ) ;
#119 = ORIENTED_EDGE ( 'NONE', *, *, #213, .F. ) ;
#120 = EDGE_LOOP ( 'NONE', ( #119, #116, #103, #113 ) ) ;
#121 = EDGE_LOOP ( 'NONE', ( #117, #102, #105, #186 ) ) ;
#122 = EDGE_LOOP ( 'NONE', ( #183, #184, #180, #187 ) ) ;
#123 = EDGE_LOOP ( 'NONE', ( #181, #175, #178, #174 ) ) ;
#124 = EDGE_LOOP ( 'NONE', ( #159, #160 ) ) ;
#125 = EDGE_LOOP ( 'NONE', ( #85, #176, #182, #177 ) ) ;
#126 = EDGE_LOOP ( 'NONE', ( #157, #155, #170, #146 ) ) ;
#127 = EDGE_LOOP ( 'NONE', ( #162, #161 ) ) ;
#128 = EDGE_LOOP ( 'NONE', ( #145, #143, #147, #153 ) ) ;
#129 = EDGE_LOOP ( 'NONE', ( #185, #135 ) ) ;
#130 = EDGE_LOOP ( 'NONE', ( #138, #141 ) ) ;
#131 = EDGE_LOOP ( 'NONE', ( #133, #140, #142, #137 ) ) ;
#132 = CLOSED_SHELL ( 'NONE', ( #197, #218, #209, #205, #198, #199, #206, #217, #193, #196 ) ) ;
#133 = ORIENTED_EDGE ( 'NONE', *, *, #219, .F. ) ;
#134 = LINE ( 'NONE', #62, #284 ) ;
#135 = ORIENTED_EDGE ( 'NONE', *, *, #213, .T. ) ;
#136 = FACE_OUTER_BOUND ( 'NONE', #121, .T. ) ;
#137 = ORIENTED_EDGE ( 'NONE', *, *, #200, .T. ) ;
#138 = ORIENTED_EDGE ( 'NONE', *, *, #214, .F. ) ;
#139 = LINE ( 'NONE', #57, #255 ) ;
#140 = ORIENTED_EDGE ( 'NONE', *, *, #210, .F. ) ;
#141 = ORIENTED_EDGE ( 'NONE', *, *, #212, .F. ) ;
#142 = ORIENTED_EDGE ( 'NONE', *, *, #226, .T. ) ;
#143 = ORIENTED_EDGE ( 'NONE', *, *, #212, .T. ) ;
#144 = FACE_OUTER_BOUND ( 'NONE', #120, .T. ) ;
#145 = ORIENTED_EDGE ( 'NONE', *, *, #211, .F. ) ;
#146 = ORIENTED_EDGE ( 'NONE', *, *, #216, .F. ) ;
#147 = ORIENTED_EDGE ( 'NONE', *, *, #194, .T. ) ;
#148 = FACE_OUTER_BOUND ( 'NONE', #123, .T. ) ;
#149 = FACE_OUTER_BOUND ( 'NONE', #126, .T. ) ;
#150 = FACE_OUTER_BOUND ( 'NONE', #128, .T. ) ;
#151 = DATE_AND_TIME ( #80, #224 ) ;
#152 = LINE ( 'NONE', #40, #274 ) ;
#153 = ORIENTED_EDGE ( 'NONE', *, *, #203, .F. ) ;
#154 = VERTEX_POINT ( 'NONE', #323 ) ;
#155 = ORIENTED_EDGE ( 'NONE', *, *, #203, .T. ) ;
#156 = VERTEX_POINT ( 'NONE', #325 ) ;
#157 = ORIENTED_EDGE ( 'NONE', *, *, #204, .F. ) ;
#158 = COORDINATED_UNIVERSAL_TIME_OFFSET ( 9, 0, .AHEAD. ) ;
#159 = ORIENTED_EDGE ( 'NONE', *, *, #215, .F. ) ;
#160 = ORIENTED_EDGE ( 'NONE', *, *, #220, .F. ) ;
#161 = ORIENTED_EDGE ( 'NONE', *, *, #216, .T. ) ;
#162 = ORIENTED_EDGE ( 'NONE', *, *, #207, .T. ) ;
#163 = COORDINATED_UNIVERSAL_TIME_OFFSET ( 9, 0, .AHEAD. ) ;
#164 = PERSON_AND_ORGANIZATION ( #3, #86 ) ;
#165 = APPROVAL_PERSON_ORGANIZATION ( #164, #257, #13 ) ;
#166 = DATE_AND_TIME ( #72, #208 ) ;
#167 = APPROVAL_DATE_TIME ( #166, #282 ) ;
#168 = PERSON_AND_ORGANIZATION ( #3, #86 ) ;
#169 = PERSON_AND_ORGANIZATION ( #3, #86 ) ;
#170 = ORIENTED_EDGE ( 'NONE', *, *, #227, .T. ) ;
#171 = APPROVAL_PERSON_ORGANIZATION ( #169, #282, #23 ) ;
#172 = VERTEX_POINT ( 'NONE', #326 ) ;
#173 = FACE_OUTER_BOUND ( 'NONE', #127, .T. ) ;
#174 = ORIENTED_EDGE ( 'NONE', *, *, #215, .T. ) ;
#175 = ORIENTED_EDGE ( 'NONE', *, *, #200, .F. ) ;
#176 = ORIENTED_EDGE ( 'NONE', *, *, #223, .T. ) ;
#177 = ORIENTED_EDGE ( 'NONE', *, *, #225, .F. ) ;
#178 = ORIENTED_EDGE ( 'NONE', *, *, #225, .T. ) ;
#179 = VERTEX_POINT ( 'NONE', #327 ) ;
#180 = ORIENTED_EDGE ( 'NONE', *, *, #207, .F. ) ;
#181 = ORIENTED_EDGE ( 'NONE', *, *, #223, .F. ) ;
#182 = ORIENTED_EDGE ( 'NONE', *, *, #220, .T. ) ;
#183 = ORIENTED_EDGE ( 'NONE', *, *, #201, .T. ) ;
#184 = ORIENTED_EDGE ( 'NONE', *, *, #204, .T. ) ;
#185 = ORIENTED_EDGE ( 'NONE', *, *, #210, .T. ) ;
#186 = ORIENTED_EDGE ( 'NONE', *, *, #194, .F. ) ;
#187 = ORIENTED_EDGE ( 'NONE', *, *, #227, .F. ) ;
#188 = PRODUCT_DEFINITION_SHAPE ( 'NONE', 'NONE',  #285 ) ;
#189 = DESIGN_CONTEXT ( 'detailed design', #33, 'design' ) ;
#190 = ADVANCED_BREP_SHAPE_REPRESENTATION ( 'C-1029-S-M4', ( #191, #259 ), #202 ) ;
#191 = MANIFOLD_SOLID_BREP ( 'ñ]1', #132 ) ;
#192 = EDGE_CURVE ( 'NONE', #76, #84, #241, .T. ) ;
#193 = ADVANCED_FACE ( 'NONE', ( #108, #109 ), #331, .T. ) ;
#194 = EDGE_CURVE ( 'NONE', #74, #118, #89, .T. ) ;
#195 = LOCAL_TIME ( 16, 40, 5.000000000000000000, #92 ) ;
#196 = ADVANCED_FACE ( 'NONE', ( #110 ), #91, .F. ) ;
#197 = ADVANCED_FACE ( 'NONE', ( #144 ), #100, .F. ) ;
#198 = ADVANCED_FACE ( 'NONE', ( #148 ), #266, .F. ) ;
#199 = ADVANCED_FACE ( 'NONE', ( #173, #111 ), #308, .T. ) ;
#200 = EDGE_CURVE ( 'NONE', #84, #76, #239, .T. ) ;
#201 = EDGE_CURVE ( 'NONE', #118, #71, #253, .T. ) ;
#202 =( GEOMETRIC_REPRESENTATION_CONTEXT ( 3 ) GLOBAL_UNCERTAINTY_ASSIGNED_CONTEXT ( ( #1 ) ) GLOBAL_UNIT_ASSIGNED_CONTEXT ( ( #29, #47, #45 ) ) REPRESENTATION_CONTEXT ( 'NONE', 'WORKASPACE' ) );
#203 = EDGE_CURVE ( 'NONE', #71, #118, #260, .T. ) ;
#204 = EDGE_CURVE ( 'NONE', #71, #70, #238, .T. ) ;
#205 = ADVANCED_FACE ( 'NONE', ( #114 ), #263, .F. ) ;
#206 = ADVANCED_FACE ( 'NONE', ( #149 ), #245, .T. ) ;
#207 = EDGE_CURVE ( 'NONE', #156, #70, #271, .T. ) ;
#208 = LOCAL_TIME ( 16, 40, 5.000000000000000000, #163 ) ;
#209 = ADVANCED_FACE ( 'NONE', ( #90 ), #249, .T. ) ;
#210 = EDGE_CURVE ( 'NONE', #154, #112, #292, .T. ) ;
#211 = EDGE_CURVE ( 'NONE', #172, #71, #139, .T. ) ;
#212 = EDGE_CURVE ( 'NONE', #172, #74, #248, .T. ) ;
#213 = EDGE_CURVE ( 'NONE', #112, #154, #265, .T. ) ;
#214 = EDGE_CURVE ( 'NONE', #74, #172, #264, .T. ) ;
#215 = EDGE_CURVE ( 'NONE', #73, #179, #270, .T. ) ;
#216 = EDGE_CURVE ( 'NONE', #70, #156, #290, .T. ) ;
#217 = ADVANCED_FACE ( 'NONE', ( #150 ), #106, .T. ) ;
#218 = ADVANCED_FACE ( 'NONE', ( #136 ), #104, .T. ) ;
#219 = EDGE_CURVE ( 'NONE', #112, #76, #107, .T. ) ;
#220 = EDGE_CURVE ( 'NONE', #179, #73, #275, .T. ) ;
#221 = LOCAL_TIME ( 16, 40, 5.000000000000000000, #158 ) ;
#222 = LOCAL_TIME ( 16, 40, 5.000000000000000000, #98 ) ;
#223 = EDGE_CURVE ( 'NONE', #76, #179, #75, .T. ) ;
#224 = LOCAL_TIME ( 16, 40, 5.000000000000000000, #115 ) ;
#225 = EDGE_CURVE ( 'NONE', #84, #73, #152, .T. ) ;
#226 = EDGE_CURVE ( 'NONE', #154, #84, #134, .T. ) ;
#227 = EDGE_CURVE ( 'NONE', #118, #156, #286, .T. ) ;
#228 = AXIS2_PLACEMENT_3D ( 'NONE', #64, #44, #27 ) ;
#229 = AXIS2_PLACEMENT_3D ( 'NONE', #61, #8, #25 ) ;
#230 = AXIS2_PLACEMENT_3D ( 'NONE', #309, #342, #307 ) ;
#231 = AXIS2_PLACEMENT_3D ( 'NONE', #299, #297, #349 ) ;
#232 = CC_DESIGN_APPROVAL ( #262, ( #289 ) ) ;
#233 = AXIS2_PLACEMENT_3D ( 'NONE', #302, #301, #300 ) ;
#234 = AXIS2_PLACEMENT_3D ( 'NONE', #328, #329, #330 ) ;
#235 = AXIS2_PLACEMENT_3D ( 'NONE', #54, #26, #50 ) ;
#236 = VECTOR ( 'NONE', #24, 999.9999999999998900 ) ;
#237 = CC_DESIGN_DATE_AND_TIME_ASSIGNMENT ( #94, #14, ( #289 ) ) ;
#238 = CIRCLE ( 'NONE', #268, 1.000000000000000900 ) ;
#239 = CIRCLE ( 'NONE', #246, 2.249999999999999100 ) ;
#240 = CC_DESIGN_DATE_AND_TIME_ASSIGNMENT ( #101, #19, ( #285 ) ) ;
#241 = CIRCLE ( 'NONE', #234, 2.249999999999999100 ) ;
#242 = AXIS2_PLACEMENT_3D ( 'NONE', #18, #69, #48 ) ;
#243 = AXIS2_PLACEMENT_3D ( 'NONE', #22, #12, #20 ) ;
#244 = CC_DESIGN_SECURITY_CLASSIFICATION ( #289, ( #256 ) ) ;
#245 = TOROIDAL_SURFACE ( 'NONE', #267, 4.999999999999999100, 1.000000000000000400 ) ;
#246 = AXIS2_PLACEMENT_3D ( 'NONE', #350, #348, #310 ) ;
#247 = PRODUCT_RELATED_PRODUCT_CATEGORY ( 'detail', '', ( #2 ) ) ;
#248 = CIRCLE ( 'NONE', #229, 5.999999999999999100 ) ;
#249 = TOROIDAL_SURFACE ( 'NONE', #258, 4.999999999999999100, 1.000000000000000400 ) ;
#250 = AXIS2_PLACEMENT_3D ( 'NONE', #324, #346, #314 ) ;
#251 = VECTOR ( 'NONE', #337, 1000.000000000000000 ) ;
#252 = AXIS2_PLACEMENT_3D ( 'NONE', #338, #339, #340 ) ;
#253 = CIRCLE ( 'NONE', #250, 6.000000000000000000 ) ;
#254 = CC_DESIGN_PERSON_AND_ORGANIZATION_ASSIGNMENT ( #168, #21, ( #285 ) ) ;
#255 = VECTOR ( 'NONE', #55, 1000.000000000000000 ) ;
#256 = PRODUCT_DEFINITION_FORMATION_WITH_SPECIFIED_SOURCE ( 'ANY', '', #2, .NOT_KNOWN. ) ;
#257 = APPROVAL ( #16, 'UNSPECIFIED' ) ;
#258 = AXIS2_PLACEMENT_3D ( 'NONE', #313, #311, #66 ) ;
#259 = AXIS2_PLACEMENT_3D ( 'NONE', #68, #46, #67 ) ;
#260 = CIRCLE ( 'NONE', #231, 6.000000000000000000 ) ;
#261 = CC_DESIGN_PERSON_AND_ORGANIZATION_ASSIGNMENT ( #78, #11, ( #256 ) ) ;
#262 = APPROVAL ( #51, 'UNSPECIFIED' ) ;
#263 = CONICAL_SURFACE ( 'NONE', #233, 2.249999999999999100, 0.7853981633974433900 ) ;
#264 = CIRCLE ( 'NONE', #280, 5.999999999999999100 ) ;
#265 = CIRCLE ( 'NONE', #228, 2.249999999999999100 ) ;
#266 = CONICAL_SURFACE ( 'NONE', #273, 2.249999999999999100, 0.7853981633974433900 ) ;
#267 = AXIS2_PLACEMENT_3D ( 'NONE', #298, #296, #295 ) ;
#268 = AXIS2_PLACEMENT_3D ( 'NONE', #305, #304, #303 ) ;
#269 = AXIS2_PLACEMENT_3D ( 'NONE', #17, #58, #7 ) ;
#270 = CIRCLE ( 'NONE', #288, 4.249999999999978700 ) ;
#271 = CIRCLE ( 'NONE', #230, 4.999999999999999100 ) ;
#272 = AXIS2_PLACEMENT_3D ( 'NONE', #347, #351, #335 ) ;
#273 = AXIS2_PLACEMENT_3D ( 'NONE', #345, #306, #312 ) ;
#274 = VECTOR ( 'NONE', #34, 999.9999999999998900 ) ;
#275 = CIRCLE ( 'NONE', #242, 4.249999999999978700 ) ;
#276 = CC_DESIGN_APPROVAL ( #282, ( #285 ) ) ;
#277 = VECTOR ( 'NONE', #36, 1000.000000000000000 ) ;
#278 = CC_DESIGN_PERSON_AND_ORGANIZATION_ASSIGNMENT ( #93, #9, ( #256 ) ) ;
#279 = AXIS2_PLACEMENT_3D ( 'NONE', #332, #333, #334 ) ;
#280 = AXIS2_PLACEMENT_3D ( 'NONE', #15, #52, #37 ) ;
#281 = AXIS2_PLACEMENT_3D ( 'NONE', #341, #343, #344 ) ;
#282 = APPROVAL ( #63, 'UNSPECIFIED' ) ;
#283 = AXIS2_PLACEMENT_3D ( 'NONE', #65, #28, #4 ) ;
#284 = VECTOR ( 'NONE', #39, 1000.000000000000000 ) ;
#285 = PRODUCT_DEFINITION ( 'UNKNOWN', '', #256, #189 ) ;
#286 = CIRCLE ( 'NONE', #283, 1.000000000000000900 ) ;
#287 = AXIS2_PLACEMENT_3D ( 'NONE', #49, #32, #59 ) ;
#288 = AXIS2_PLACEMENT_3D ( 'NONE', #53, #6, #41 ) ;
#289 = SECURITY_CLASSIFICATION ( '', '', #5 ) ;
#290 = CIRCLE ( 'NONE', #269, 4.999999999999999100 ) ;
#291 = CC_DESIGN_PERSON_AND_ORGANIZATION_ASSIGNMENT ( #88, #35, ( #2 ) ) ;
#292 = CIRCLE ( 'NONE', #243, 2.249999999999999100 ) ;
#293 = CC_DESIGN_PERSON_AND_ORGANIZATION_ASSIGNMENT ( #79, #10, ( #289 ) ) ;
#294 = CC_DESIGN_APPROVAL ( #257, ( #256 ) ) ;
#295 = DIRECTION ( 'NONE',  ( 0.0000000000000000000, 0.0000000000000000000, 1.000000000000000000 ) ) ;
#296 = DIRECTION ( 'NONE',  ( -0.0000000000000000000, 1.000000000000000000, -0.0000000000000000000 ) ) ;
#297 = DIRECTION ( 'NONE',  ( -0.0000000000000000000, 1.000000000000000000, -0.0000000000000000000 ) ) ;
#298 = CARTESIAN_POINT ( 'NONE',  ( 0.0000000000000000000, 1.499999999999999800, 0.0000000000000000000 ) ) ;
#299 = CARTESIAN_POINT ( 'NONE',  ( 0.0000000000000000000, 1.499999999999999600, 0.0000000000000000000 ) ) ;
#300 = DIRECTION ( 'NONE',  ( 0.0000000000000000000, 0.0000000000000000000, 1.000000000000000000 ) ) ;
#301 = DIRECTION ( 'NONE',  ( -0.0000000000000000000, 1.000000000000000000, -0.0000000000000000000 ) ) ;
#302 = CARTESIAN_POINT ( 'NONE',  ( 0.0000000000000000000, 0.5000000000000004400, 0.0000000000000000000 ) ) ;
#303 = DIRECTION ( 'NONE',  ( 1.224646799147352500E-016, 0.0000000000000000000, -1.000000000000000000 ) ) ;
#304 = DIRECTION ( 'NONE',  ( 1.000000000000000000, 0.0000000000000000000, 1.224646799147353200E-016 ) ) ;
#305 = CARTESIAN_POINT ( 'NONE',  ( 6.123233995736765300E-016, 1.499999999999999800, -4.999999999999999100 ) ) ;
#306 = DIRECTION ( 'NONE',  ( -0.0000000000000000000, 1.000000000000000000, -0.0000000000000000000 ) ) ;
#307 = DIRECTION ( 'NONE',  ( 0.0000000000000000000, 0.0000000000000000000, 1.000000000000000000 ) ) ;
#308 = PLANE ( 'NONE',  #272 ) ;
#309 = CARTESIAN_POINT ( 'NONE',  ( 0.0000000000000000000, 2.500000000000000400, 0.0000000000000000000 ) ) ;
#310 = DIRECTION ( 'NONE',  ( 0.0000000000000000000, 0.0000000000000000000, 1.000000000000000000 ) ) ;
#311 = DIRECTION ( 'NONE',  ( -0.0000000000000000000, 1.000000000000000000, -0.0000000000000000000 ) ) ;
#312 = DIRECTION ( 'NONE',  ( 0.0000000000000000000, 0.0000000000000000000, 1.000000000000000000 ) ) ;
#313 = CARTESIAN_POINT ( 'NONE',  ( 0.0000000000000000000, 1.499999999999999800, 0.0000000000000000000 ) ) ;
#314 = DIRECTION ( 'NONE',  ( 0.0000000000000000000, 0.0000000000000000000, 1.000000000000000000 ) ) ;
#315 = CARTESIAN_POINT ( 'NONE',  ( 7.347880794884118800E-016, 1.499999999999999600, -6.000000000000000000 ) ) ;
#316 = CARTESIAN_POINT ( 'NONE',  ( 6.735557395310442000E-016, 2.500000000000000400, -4.999999999999999100 ) ) ;
#317 = CARTESIAN_POINT ( 'NONE',  ( 0.0000000000000000000, 2.499999999999999600, 4.249999999999977800 ) ) ;
#318 = CARTESIAN_POINT ( 'NONE',  ( 0.0000000000000000000, 0.0000000000000000000, 5.999999999999999100 ) ) ;
#319 = CARTESIAN_POINT ( 'NONE',  ( 3.980102097228883900E-016, 0.5000000000000004400, -2.249999999999999100 ) ) ;
#320 = CARTESIAN_POINT ( 'NONE',  ( 0.0000000000000000000, 0.5000000000000004400, 2.249999999999999100 ) ) ;
#321 = CARTESIAN_POINT ( 'NONE',  ( 2.755455298081543300E-016, 0.0000000000000000000, -2.249999999999999100 ) ) ;
#322 = CARTESIAN_POINT ( 'NONE',  ( 0.0000000000000000000, 1.499999999999999600, 6.000000000000000000 ) ) ;
#323 = CARTESIAN_POINT ( 'NONE',  ( 0.0000000000000000000, 0.0000000000000000000, 2.249999999999999100 ) ) ;
#324 = CARTESIAN_POINT ( 'NONE',  ( 0.0000000000000000000, 1.499999999999999600, 0.0000000000000000000 ) ) ;
#325 = CARTESIAN_POINT ( 'NONE',  ( 0.0000000000000000000, 2.500000000000000400, 4.999999999999999100 ) ) ;
#326 = CARTESIAN_POINT ( 'NONE',  ( 7.347880794884118800E-016, 0.0000000000000000000, -5.999999999999999100 ) ) ;
#327 = CARTESIAN_POINT ( 'NONE',  ( 5.204748896376224100E-016, 2.499999999999999600, -4.249999999999977800 ) ) ;
#328 = CARTESIAN_POINT ( 'NONE',  ( 0.0000000000000000000, 0.5000000000000004400, 0.0000000000000000000 ) ) ;
#329 = DIRECTION ( 'NONE',  ( -0.0000000000000000000, 1.000000000000000000, -0.0000000000000000000 ) ) ;
#330 = DIRECTION ( 'NONE',  ( 0.0000000000000000000, 0.0000000000000000000, 1.000000000000000000 ) ) ;
#331 = PLANE ( 'NONE',  #279 ) ;
#332 = CARTESIAN_POINT ( 'NONE',  ( 0.0000000000000000000, 0.0000000000000000000, 5.999999999999999100 ) ) ;
#333 = DIRECTION ( 'NONE',  ( 0.0000000000000000000, -1.000000000000000000, 0.0000000000000000000 ) ) ;
#334 = DIRECTION ( 'NONE',  ( 0.0000000000000000000, -0.0000000000000000000, -1.000000000000000000 ) ) ;
#335 = DIRECTION ( 'NONE',  ( 0.0000000000000000000, 0.0000000000000000000, 1.000000000000000000 ) ) ;
#336 = CARTESIAN_POINT ( 'NONE',  ( 0.0000000000000000000, 7.283860049783210200, 6.000000000000000000 ) ) ;
#337 = DIRECTION ( 'NONE',  ( -0.0000000000000000000, 1.000000000000000000, -0.0000000000000000000 ) ) ;
#338 = CARTESIAN_POINT ( 'NONE',  ( 0.0000000000000000000, 7.283860049783210200, 0.0000000000000000000 ) ) ;
#339 = DIRECTION ( 'NONE',  ( -0.0000000000000000000, 1.000000000000000000, -0.0000000000000000000 ) ) ;
#340 = DIRECTION ( 'NONE',  ( 0.0000000000000000000, 0.0000000000000000000, 1.000000000000000000 ) ) ;
#341 = CARTESIAN_POINT ( 'NONE',  ( 0.0000000000000000000, 7.283860049783210200, 0.0000000000000000000 ) ) ;
#342 = DIRECTION ( 'NONE',  ( -0.0000000000000000000, 1.000000000000000000, -0.0000000000000000000 ) ) ;
#343 = DIRECTION ( 'NONE',  ( -0.0000000000000000000, 1.000000000000000000, -0.0000000000000000000 ) ) ;
#344 = DIRECTION ( 'NONE',  ( 0.0000000000000000000, 0.0000000000000000000, 1.000000000000000000 ) ) ;
#345 = CARTESIAN_POINT ( 'NONE',  ( 0.0000000000000000000, 0.5000000000000004400, 0.0000000000000000000 ) ) ;
#346 = DIRECTION ( 'NONE',  ( -0.0000000000000000000, 1.000000000000000000, -0.0000000000000000000 ) ) ;
#347 = CARTESIAN_POINT ( 'NONE',  ( 0.0000000000000000000, 2.500000000000000000, 4.249999999999978700 ) ) ;
#348 = DIRECTION ( 'NONE',  ( -0.0000000000000000000, 1.000000000000000000, -0.0000000000000000000 ) ) ;
#349 = DIRECTION ( 'NONE',  ( 0.0000000000000000000, 0.0000000000000000000, 1.000000000000000000 ) ) ;
#350 = CARTESIAN_POINT ( 'NONE',  ( 0.0000000000000000000, 0.5000000000000004400, 0.0000000000000000000 ) ) ;
#351 = DIRECTION ( 'NONE',  ( -0.0000000000000000000, 1.000000000000000000, 0.0000000000000000000 ) ) ;
ENDSEC;
END-ISO-10303-21;
