ISO-10303-21;
HEADER;
FILE_DESCRIPTION (( 'STEP AP203' ),
    '1' );
FILE_NAME ('C-1029-S-M3.STEP',
    '2012-03-27T07:36:29',
    ( '11sw' ),
    ( '^LQ»¢®ïÐ' ),
    'SwSTEP 2.0',
    'SolidWorks 2011',
    '' );
FILE_SCHEMA (( 'CONFIG_CONTROL_DESIGN' ));
ENDSEC;

DATA;
#1 = UNCERTAINTY_MEASURE_WITH_UNIT (LENGTH_MEASURE( 1.000000000000000100E-005 ), #260, 'distance_accuracy_value', 'NONE');
#2 = PRODUCT ( 'C-1029-S-M3', 'C-1029-S-M3', '', ( #304 ) ) ;
#3 = PERSON ( 'UNSPECIFIED', 'UNSPECIFIED', 'UNSPECIFIED', ('UNSPECIFIED'), ('UNSPECIFIED'), ('UNSPECIFIED') ) ;
#4 = FACE_BOUND ( 'NONE', #68, .T. ) ;
#5 = VERTEX_POINT ( 'NONE', #319 ) ;
#6 = PERSON_AND_ORGANIZATION ( #3, #28 ) ;
#7 = PERSON_AND_ORGANIZATION ( #3, #28 ) ;
#8 = APPROVAL_PERSON_ORGANIZATION ( #52, #190, #275 ) ;
#9 = COORDINATED_UNIVERSAL_TIME_OFFSET ( 9, 0, .AHEAD. ) ;
#10 = COORDINATED_UNIVERSAL_TIME_OFFSET ( 9, 0, .AHEAD. ) ;
#11 = CALENDAR_DATE ( 2012, 27, 3 ) ;
#12 = DATE_AND_TIME ( #11, #161 ) ;
#13 = FACE_OUTER_BOUND ( 'NONE', #17, .T. ) ;
#14 = EDGE_LOOP ( 'NONE', ( #19, #29, #87, #81 ) ) ;
#15 = ORIENTED_EDGE ( 'NONE', *, *, #133, .T. ) ;
#16 = EDGE_LOOP ( 'NONE', ( #25, #90 ) ) ;
#17 = EDGE_LOOP ( 'NONE', ( #18, #15, #79, #20 ) ) ;
#18 = ORIENTED_EDGE ( 'NONE', *, *, #143, .T. ) ;
#19 = ORIENTED_EDGE ( 'NONE', *, *, #142, .F. ) ;
#20 = ORIENTED_EDGE ( 'NONE', *, *, #141, .F. ) ;
#21 = COORDINATED_UNIVERSAL_TIME_OFFSET ( 9, 0, .AHEAD. ) ;
#22 = PERSON_AND_ORGANIZATION ( #3, #28 ) ;
#23 = CYLINDRICAL_SURFACE ( 'NONE', #203, 4.999999999999999100 ) ;
#24 = CALENDAR_DATE ( 2012, 27, 3 ) ;
#25 = ORIENTED_EDGE ( 'NONE', *, *, #153, .T. ) ;
#26 = ORIENTED_EDGE ( 'NONE', *, *, #145, .F. ) ;
#27 = ORIENTED_EDGE ( 'NONE', *, *, #129, .F. ) ;
#28 = ORGANIZATION ( 'UNSPECIFIED', 'UNSPECIFIED', '' ) ;
#29 = ORIENTED_EDGE ( 'NONE', *, *, #139, .T. ) ;
#30 = CYLINDRICAL_SURFACE ( 'NONE', #217, 4.999999999999999100 ) ;
#31 = SHAPE_DEFINITION_REPRESENTATION ( #164, #126 ) ;
#32 = VERTEX_POINT ( 'NONE', #342 ) ;
#33 = LINE ( 'NONE', #351, #186 ) ;
#34 = EDGE_LOOP ( 'NONE', ( #64, #112 ) ) ;
#35 = APPROVAL_DATE_TIME ( #37, #179 ) ;
#36 = APPROVAL_PERSON_ORGANIZATION ( #7, #179, #292 ) ;
#37 = DATE_AND_TIME ( #24, #144 ) ;
#38 = LINE ( 'NONE', #276, #170 ) ;
#39 = FACE_OUTER_BOUND ( 'NONE', #51, .T. ) ;
#40 = FACE_OUTER_BOUND ( 'NONE', #113, .T. ) ;
#41 = CALENDAR_DATE ( 2012, 27, 3 ) ;
#42 = FACE_OUTER_BOUND ( 'NONE', #70, .T. ) ;
#43 = FACE_OUTER_BOUND ( 'NONE', #72, .T. ) ;
#44 = LINE ( 'NONE', #348, #218 ) ;
#45 = ORIENTED_EDGE ( 'NONE', *, *, #131, .F. ) ;
#46 = DATE_AND_TIME ( #50, #162 ) ;
#47 = COORDINATED_UNIVERSAL_TIME_OFFSET ( 9, 0, .AHEAD. ) ;
#48 = FACE_OUTER_BOUND ( 'NONE', #71, .T. ) ;
#49 = ORIENTED_EDGE ( 'NONE', *, *, #140, .T. ) ;
#50 = CALENDAR_DATE ( 2012, 27, 3 ) ;
#51 = EDGE_LOOP ( 'NONE', ( #49, #82, #67, #84 ) ) ;
#52 = PERSON_AND_ORGANIZATION ( #3, #28 ) ;
#53 = PERSON_AND_ORGANIZATION ( #3, #28 ) ;
#54 = COORDINATED_UNIVERSAL_TIME_OFFSET ( 9, 0, .AHEAD. ) ;
#55 = ORIENTED_EDGE ( 'NONE', *, *, #128, .F. ) ;
#56 = DATE_AND_TIME ( #41, #157 ) ;
#57 = CALENDAR_DATE ( 2012, 27, 3 ) ;
#58 = PERSON_AND_ORGANIZATION ( #3, #28 ) ;
#59 = APPROVAL_DATE_TIME ( #61, #183 ) ;
#60 = APPROVAL_PERSON_ORGANIZATION ( #58, #183, #237 ) ;
#61 = DATE_AND_TIME ( #57, #160 ) ;
#62 = PERSON_AND_ORGANIZATION ( #3, #28 ) ;
#63 = PERSON_AND_ORGANIZATION ( #3, #28 ) ;
#64 = ORIENTED_EDGE ( 'NONE', *, *, #151, .T. ) ;
#65 = CYLINDRICAL_SURFACE ( 'NONE', #195, 1.749999999999999100 ) ;
#66 = ORIENTED_EDGE ( 'NONE', *, *, #158, .T. ) ;
#67 = ORIENTED_EDGE ( 'NONE', *, *, #153, .F. ) ;
#68 = EDGE_LOOP ( 'NONE', ( #26, #55 ) ) ;
#69 = ORIENTED_EDGE ( 'NONE', *, *, #145, .T. ) ;
#70 = EDGE_LOOP ( 'NONE', ( #95, #66, #116, #114 ) ) ;
#71 = EDGE_LOOP ( 'NONE', ( #74, #118, #120, #80 ) ) ;
#72 = EDGE_LOOP ( 'NONE', ( #45, #94, #76, #78 ) ) ;
#73 = EDGE_LOOP ( 'NONE', ( #98, #27, #106, #69 ) ) ;
#74 = ORIENTED_EDGE ( 'NONE', *, *, #139, .F. ) ;
#75 = ORIENTED_EDGE ( 'NONE', *, *, #141, .T. ) ;
#76 = ORIENTED_EDGE ( 'NONE', *, *, #128, .T. ) ;
#77 = ORIENTED_EDGE ( 'NONE', *, *, #163, .T. ) ;
#78 = ORIENTED_EDGE ( 'NONE', *, *, #156, .F. ) ;
#79 = ORIENTED_EDGE ( 'NONE', *, *, #140, .F. ) ;
#80 = ORIENTED_EDGE ( 'NONE', *, *, #129, .T. ) ;
#81 = ORIENTED_EDGE ( 'NONE', *, *, #130, .F. ) ;
#82 = ORIENTED_EDGE ( 'NONE', *, *, #132, .T. ) ;
#83 = VERTEX_POINT ( 'NONE', #334 ) ;
#84 = ORIENTED_EDGE ( 'NONE', *, *, #146, .F. ) ;
#85 = VERTEX_POINT ( 'NONE', #333 ) ;
#86 = VERTEX_POINT ( 'NONE', #320 ) ;
#87 = ORIENTED_EDGE ( 'NONE', *, *, #131, .T. ) ;
#88 = LINE ( 'NONE', #298, #200 ) ;
#89 = ORIENTED_EDGE ( 'NONE', *, *, #133, .F. ) ;
#90 = ORIENTED_EDGE ( 'NONE', *, *, #152, .T. ) ;
#91 = LINE ( 'NONE', #262, #178 ) ;
#92 = VERTEX_POINT ( 'NONE', #313 ) ;
#93 = VERTEX_POINT ( 'NONE', #335 ) ;
#94 = ORIENTED_EDGE ( 'NONE', *, *, #150, .T. ) ;
#95 = ORIENTED_EDGE ( 'NONE', *, *, #132, .F. ) ;
#96 = ORIENTED_EDGE ( 'NONE', *, *, #163, .F. ) ;
#97 = CLOSED_SHELL ( 'NONE', ( #138, #136, #137, #147, #134, #135, #149, #154, #148, #155 ) ) ;
#98 = ORIENTED_EDGE ( 'NONE', *, *, #150, .F. ) ;
#99 = APPROVAL_DATE_TIME ( #12, #190 ) ;
#100 = FACE_OUTER_BOUND ( 'NONE', #119, .T. ) ;
#101 = FACE_BOUND ( 'NONE', #34, .T. ) ;
#102 = FACE_OUTER_BOUND ( 'NONE', #16, .T. ) ;
#103 = LINE ( 'NONE', #250, #206 ) ;
#104 = CYLINDRICAL_SURFACE ( 'NONE', #214, 1.749999999999999100 ) ;
#105 = VERTEX_POINT ( 'NONE', #349 ) ;
#106 = ORIENTED_EDGE ( 'NONE', *, *, #156, .T. ) ;
#107 = FACE_OUTER_BOUND ( 'NONE', #14, .T. ) ;
#108 = VERTEX_POINT ( 'NONE', #317 ) ;
#109 = ORIENTED_EDGE ( 'NONE', *, *, #143, .F. ) ;
#110 = FACE_OUTER_BOUND ( 'NONE', #73, .T. ) ;
#111 = VERTEX_POINT ( 'NONE', #316 ) ;
#112 = ORIENTED_EDGE ( 'NONE', *, *, #142, .T. ) ;
#113 = EDGE_LOOP ( 'NONE', ( #109, #96 ) ) ;
#114 = ORIENTED_EDGE ( 'NONE', *, *, #152, .F. ) ;
#115 = VERTEX_POINT ( 'NONE', #325 ) ;
#116 = ORIENTED_EDGE ( 'NONE', *, *, #146, .T. ) ;
#117 = ORIENTED_EDGE ( 'NONE', *, *, #158, .F. ) ;
#118 = ORIENTED_EDGE ( 'NONE', *, *, #151, .F. ) ;
#119 = EDGE_LOOP ( 'NONE', ( #89, #77, #75, #117 ) ) ;
#120 = ORIENTED_EDGE ( 'NONE', *, *, #130, .T. ) ;
#121 = VERTEX_POINT ( 'NONE', #343 ) ;
#122 = CONICAL_SURFACE ( 'NONE', #123, 1.749999999999999100, 0.7853981633974435100 ) ;
#123 = AXIS2_PLACEMENT_3D ( 'NONE', #321, #326, #318 ) ;
#124 = CIRCLE ( 'NONE', #125, 3.249999999999984500 ) ;
#125 = AXIS2_PLACEMENT_3D ( 'NONE', #315, #331, #332 ) ;
#126 = ADVANCED_BREP_SHAPE_REPRESENTATION ( 'C-1029-S-M3', ( #127, #201 ), #159 ) ;
#127 = MANIFOLD_SOLID_BREP ( 'ñ]1', #97 ) ;
#128 = EDGE_CURVE ( 'NONE', #83, #121, #124, .T. ) ;
#129 = EDGE_CURVE ( 'NONE', #93, #108, #172, .T. ) ;
#130 = EDGE_CURVE ( 'NONE', #86, #93, #33, .T. ) ;
#131 = EDGE_CURVE ( 'NONE', #108, #93, #193, .T. ) ;
#132 = EDGE_CURVE ( 'NONE', #5, #111, #220, .T. ) ;
#133 = EDGE_CURVE ( 'NONE', #115, #5, #44, .T. ) ;
#134 = ADVANCED_FACE ( 'NONE', ( #110 ), #122, .F. ) ;
#135 = ADVANCED_FACE ( 'NONE', ( #102, #4 ), #339, .T. ) ;
#136 = ADVANCED_FACE ( 'NONE', ( #13 ), #23, .T. ) ;
#137 = ADVANCED_FACE ( 'NONE', ( #39 ), #175, .T. ) ;
#138 = ADVANCED_FACE ( 'NONE', ( #107 ), #104, .F. ) ;
#139 = EDGE_CURVE ( 'NONE', #92, #108, #91, .T. ) ;
#140 = EDGE_CURVE ( 'NONE', #85, #5, #192, .T. ) ;
#141 = EDGE_CURVE ( 'NONE', #32, #85, #88, .T. ) ;
#142 = EDGE_CURVE ( 'NONE', #92, #86, #166, .T. ) ;
#143 = EDGE_CURVE ( 'NONE', #32, #115, #212, .T. ) ;
#144 = LOCAL_TIME ( 16, 36, 29.00000000000000000, #47 ) ;
#145 = EDGE_CURVE ( 'NONE', #121, #83, #226, .T. ) ;
#146 = EDGE_CURVE ( 'NONE', #85, #105, #222, .T. ) ;
#147 = ADVANCED_FACE ( 'NONE', ( #43 ), #177, .F. ) ;
#148 = ADVANCED_FACE ( 'NONE', ( #101, #40 ), #247, .T. ) ;
#149 = ADVANCED_FACE ( 'NONE', ( #42 ), #169, .T. ) ;
#150 = EDGE_CURVE ( 'NONE', #108, #83, #38, .T. ) ;
#151 = EDGE_CURVE ( 'NONE', #86, #92, #176, .T. ) ;
#152 = EDGE_CURVE ( 'NONE', #111, #105, #168, .T. ) ;
#153 = EDGE_CURVE ( 'NONE', #105, #111, #171, .T. ) ;
#154 = ADVANCED_FACE ( 'NONE', ( #100 ), #30, .T. ) ;
#155 = ADVANCED_FACE ( 'NONE', ( #48 ), #65, .F. ) ;
#156 = EDGE_CURVE ( 'NONE', #93, #121, #103, .T. ) ;
#157 = LOCAL_TIME ( 16, 36, 29.00000000000000000, #54 ) ;
#158 = EDGE_CURVE ( 'NONE', #5, #85, #194, .T. ) ;
#159 =( GEOMETRIC_REPRESENTATION_CONTEXT ( 3 ) GLOBAL_UNCERTAINTY_ASSIGNED_CONTEXT ( ( #1 ) ) GLOBAL_UNIT_ASSIGNED_CONTEXT ( ( #260, #271, #230 ) ) REPRESENTATION_CONTEXT ( 'NONE', 'WORKASPACE' ) );
#160 = LOCAL_TIME ( 16, 36, 29.00000000000000000, #21 ) ;
#161 = LOCAL_TIME ( 16, 36, 29.00000000000000000, #9 ) ;
#162 = LOCAL_TIME ( 16, 36, 29.00000000000000000, #10 ) ;
#163 = EDGE_CURVE ( 'NONE', #115, #32, #208, .T. ) ;
#164 = PRODUCT_DEFINITION_SHAPE ( 'NONE', 'NONE',  #188 ) ;
#165 = DESIGN_CONTEXT ( 'detailed design', #264, 'design' ) ;
#166 = CIRCLE ( 'NONE', #213, 1.749999999999999100 ) ;
#167 = CC_DESIGN_PERSON_AND_ORGANIZATION_ASSIGNMENT ( #62, #306, ( #216 ) ) ;
#168 = CIRCLE ( 'NONE', #174, 3.999999999999999100 ) ;
#169 = TOROIDAL_SURFACE ( 'NONE', #185, 3.999999999999999100, 1.000000000000000400 ) ;
#170 = VECTOR ( 'NONE', #305, 1000.000000000000000 ) ;
#171 = CIRCLE ( 'NONE', #182, 3.999999999999999100 ) ;
#172 = CIRCLE ( 'NONE', #187, 1.749999999999999100 ) ;
#173 = AXIS2_PLACEMENT_3D ( 'NONE', #322, #328, #337 ) ;
#174 = AXIS2_PLACEMENT_3D ( 'NONE', #311, #288, #294 ) ;
#175 = TOROIDAL_SURFACE ( 'NONE', #209, 3.999999999999999100, 1.000000000000000400 ) ;
#176 = CIRCLE ( 'NONE', #227, 1.749999999999999100 ) ;
#177 = CONICAL_SURFACE ( 'NONE', #228, 1.749999999999999100, 0.7853981633974435100 ) ;
#178 = VECTOR ( 'NONE', #248, 1000.000000000000000 ) ;
#179 = APPROVAL ( #233, 'UNSPECIFIED' ) ;
#180 = AXIS2_PLACEMENT_3D ( 'NONE', #340, #344, #324 ) ;
#181 = CC_DESIGN_SECURITY_CLASSIFICATION ( #216, ( #223 ) ) ;
#182 = AXIS2_PLACEMENT_3D ( 'NONE', #255, #281, #256 ) ;
#183 = APPROVAL ( #297, 'UNSPECIFIED' ) ;
#184 = AXIS2_PLACEMENT_3D ( 'NONE', #307, #245, #284 ) ;
#185 = AXIS2_PLACEMENT_3D ( 'NONE', #301, #280, #302 ) ;
#186 = VECTOR ( 'NONE', #323, 1000.000000000000000 ) ;
#187 = AXIS2_PLACEMENT_3D ( 'NONE', #338, #327, #345 ) ;
#188 = PRODUCT_DEFINITION ( 'UNKNOWN', '', #223, #165 ) ;
#189 = AXIS2_PLACEMENT_3D ( 'NONE', #310, #268, #253 ) ;
#190 = APPROVAL ( #293, 'UNSPECIFIED' ) ;
#191 = AXIS2_PLACEMENT_3D ( 'NONE', #346, #341, #336 ) ;
#192 = CIRCLE ( 'NONE', #215, 4.999999999999999100 ) ;
#193 = CIRCLE ( 'NONE', #191, 1.749999999999999100 ) ;
#194 = CIRCLE ( 'NONE', #202, 4.999999999999999100 ) ;
#195 = AXIS2_PLACEMENT_3D ( 'NONE', #235, #257, #261 ) ;
#196 = CC_DESIGN_APPROVAL ( #179, ( #188 ) ) ;
#197 = CC_DESIGN_APPROVAL ( #190, ( #216 ) ) ;
#198 = CC_DESIGN_PERSON_AND_ORGANIZATION_ASSIGNMENT ( #63, #238, ( #223 ) ) ;
#199 = CC_DESIGN_PERSON_AND_ORGANIZATION_ASSIGNMENT ( #53, #252, ( #188 ) ) ;
#200 = VECTOR ( 'NONE', #266, 1000.000000000000000 ) ;
#201 = AXIS2_PLACEMENT_3D ( 'NONE', #272, #251, #287 ) ;
#202 = AXIS2_PLACEMENT_3D ( 'NONE', #291, #274, #267 ) ;
#203 = AXIS2_PLACEMENT_3D ( 'NONE', #314, #329, #347 ) ;
#204 = CC_DESIGN_DATE_AND_TIME_ASSIGNMENT ( #56, #282, ( #188 ) ) ;
#205 = AXIS2_PLACEMENT_3D ( 'NONE', #232, #234, #286 ) ;
#206 = VECTOR ( 'NONE', #299, 1000.000000000000000 ) ;
#207 = CC_DESIGN_PERSON_AND_ORGANIZATION_ASSIGNMENT ( #22, #273, ( #223 ) ) ;
#208 = CIRCLE ( 'NONE', #205, 4.999999999999999100 ) ;
#209 = AXIS2_PLACEMENT_3D ( 'NONE', #350, #241, #244 ) ;
#210 = CC_DESIGN_DATE_AND_TIME_ASSIGNMENT ( #46, #308, ( #216 ) ) ;
#211 = CC_DESIGN_APPROVAL ( #183, ( #223 ) ) ;
#212 = CIRCLE ( 'NONE', #221, 4.999999999999999100 ) ;
#213 = AXIS2_PLACEMENT_3D ( 'NONE', #258, #270, #289 ) ;
#214 = AXIS2_PLACEMENT_3D ( 'NONE', #309, #231, #236 ) ;
#215 = AXIS2_PLACEMENT_3D ( 'NONE', #265, #279, #263 ) ;
#216 = SECURITY_CLASSIFICATION ( '', '', #295 ) ;
#217 = AXIS2_PLACEMENT_3D ( 'NONE', #240, #303, #229 ) ;
#218 = VECTOR ( 'NONE', #330, 1000.000000000000000 ) ;
#219 = PRODUCT_RELATED_PRODUCT_CATEGORY ( 'detail', '', ( #2 ) ) ;
#220 = CIRCLE ( 'NONE', #180, 1.000000000000000000 ) ;
#221 = AXIS2_PLACEMENT_3D ( 'NONE', #296, #242, #246 ) ;
#222 = CIRCLE ( 'NONE', #224, 1.000000000000000000 ) ;
#223 = PRODUCT_DEFINITION_FORMATION_WITH_SPECIFIED_SOURCE ( 'ANY', '', #2, .NOT_KNOWN. ) ;
#224 = AXIS2_PLACEMENT_3D ( 'NONE', #285, #259, #243 ) ;
#225 = CC_DESIGN_PERSON_AND_ORGANIZATION_ASSIGNMENT ( #6, #278, ( #2 ) ) ;
#226 = CIRCLE ( 'NONE', #189, 3.249999999999984500 ) ;
#227 = AXIS2_PLACEMENT_3D ( 'NONE', #290, #312, #283 ) ;
#228 = AXIS2_PLACEMENT_3D ( 'NONE', #254, #249, #300 ) ;
#229 = DIRECTION ( 'NONE',  ( 0.0000000000000000000, 0.0000000000000000000, 1.000000000000000000 ) ) ;
#230 =( NAMED_UNIT ( * ) SI_UNIT ( $, .STERADIAN. ) SOLID_ANGLE_UNIT ( ) );
#231 = DIRECTION ( 'NONE',  ( -0.0000000000000000000, 1.000000000000000000, -0.0000000000000000000 ) ) ;
#232 = CARTESIAN_POINT ( 'NONE',  ( 0.0000000000000000000, 0.0000000000000000000, 0.0000000000000000000 ) ) ;
#233 = APPROVAL_STATUS ( 'not_yet_approved' ) ;
#234 = DIRECTION ( 'NONE',  ( -0.0000000000000000000, 1.000000000000000000, -0.0000000000000000000 ) ) ;
#235 = CARTESIAN_POINT ( 'NONE',  ( 0.0000000000000000000, 7.283860049783210200, 0.0000000000000000000 ) ) ;
#236 = DIRECTION ( 'NONE',  ( 0.0000000000000000000, 0.0000000000000000000, 1.000000000000000000 ) ) ;
#237 = APPROVAL_ROLE ( '' ) ;
#238 = PERSON_AND_ORGANIZATION_ROLE ( 'design_supplier' ) ;
#239 = APPLICATION_PROTOCOL_DEFINITION ( 'international standard', 'config_control_design', 1994, #264 ) ;
#240 = CARTESIAN_POINT ( 'NONE',  ( 0.0000000000000000000, 7.283860049783210200, 0.0000000000000000000 ) ) ;
#241 = DIRECTION ( 'NONE',  ( -0.0000000000000000000, 1.000000000000000000, -0.0000000000000000000 ) ) ;
#242 = DIRECTION ( 'NONE',  ( -0.0000000000000000000, 1.000000000000000000, -0.0000000000000000000 ) ) ;
#243 = DIRECTION ( 'NONE',  ( 0.0000000000000000000, 0.0000000000000000000, 1.000000000000000000 ) ) ;
#244 = DIRECTION ( 'NONE',  ( 0.0000000000000000000, 0.0000000000000000000, 1.000000000000000000 ) ) ;
#245 = DIRECTION ( 'NONE',  ( 0.0000000000000000000, -1.000000000000000000, 0.0000000000000000000 ) ) ;
#246 = DIRECTION ( 'NONE',  ( 0.0000000000000000000, 0.0000000000000000000, 1.000000000000000000 ) ) ;
#247 = PLANE ( 'NONE',  #184 ) ;
#248 = DIRECTION ( 'NONE',  ( -0.0000000000000000000, 1.000000000000000000, -0.0000000000000000000 ) ) ;
#249 = DIRECTION ( 'NONE',  ( -0.0000000000000000000, 1.000000000000000000, -0.0000000000000000000 ) ) ;
#250 = CARTESIAN_POINT ( 'NONE',  ( 0.0000000000000000000, 0.5000000000000004400, 1.749999999999999100 ) ) ;
#251 = DIRECTION ( 'NONE',  ( 0.0000000000000000000, 0.0000000000000000000, 1.000000000000000000 ) ) ;
#252 = PERSON_AND_ORGANIZATION_ROLE ( 'creator' ) ;
#253 = DIRECTION ( 'NONE',  ( 0.0000000000000000000, 0.0000000000000000000, 1.000000000000000000 ) ) ;
#254 = CARTESIAN_POINT ( 'NONE',  ( 0.0000000000000000000, 0.5000000000000004400, 0.0000000000000000000 ) ) ;
#255 = CARTESIAN_POINT ( 'NONE',  ( 0.0000000000000000000, 2.000000000000000900, 0.0000000000000000000 ) ) ;
#256 = DIRECTION ( 'NONE',  ( 0.0000000000000000000, 0.0000000000000000000, 1.000000000000000000 ) ) ;
#257 = DIRECTION ( 'NONE',  ( -0.0000000000000000000, 1.000000000000000000, -0.0000000000000000000 ) ) ;
#258 = CARTESIAN_POINT ( 'NONE',  ( 0.0000000000000000000, 0.0000000000000000000, 0.0000000000000000000 ) ) ;
#259 = DIRECTION ( 'NONE',  ( -1.000000000000000000, 0.0000000000000000000, 0.0000000000000000000 ) ) ;
#260 =( LENGTH_UNIT ( ) NAMED_UNIT ( * ) SI_UNIT ( .MILLI., .METRE. ) );
#261 = DIRECTION ( 'NONE',  ( 0.0000000000000000000, 0.0000000000000000000, 1.000000000000000000 ) ) ;
#262 = CARTESIAN_POINT ( 'NONE',  ( 2.143131898507867100E-016, 7.283860049783210200, -1.749999999999999100 ) ) ;
#263 = DIRECTION ( 'NONE',  ( 0.0000000000000000000, 0.0000000000000000000, 1.000000000000000000 ) ) ;
#264 = APPLICATION_CONTEXT ( 'configuration controlled 3d designs of mechanical parts and assemblies' ) ;
#265 = CARTESIAN_POINT ( 'NONE',  ( 0.0000000000000000000, 1.000000000000000900, 0.0000000000000000000 ) ) ;
#266 = DIRECTION ( 'NONE',  ( -0.0000000000000000000, 1.000000000000000000, -0.0000000000000000000 ) ) ;
#267 = DIRECTION ( 'NONE',  ( 0.0000000000000000000, 0.0000000000000000000, 1.000000000000000000 ) ) ;
#268 = DIRECTION ( 'NONE',  ( -0.0000000000000000000, 1.000000000000000000, -0.0000000000000000000 ) ) ;
#269 = APPLICATION_CONTEXT ( 'configuration controlled 3d designs of mechanical parts and assemblies' ) ;
#270 = DIRECTION ( 'NONE',  ( -0.0000000000000000000, 1.000000000000000000, -0.0000000000000000000 ) ) ;
#271 =( NAMED_UNIT ( * ) PLANE_ANGLE_UNIT ( ) SI_UNIT ( $, .RADIAN. ) );
#272 = CARTESIAN_POINT ( 'NONE',  ( 0.0000000000000000000, 0.0000000000000000000, 0.0000000000000000000 ) ) ;
#273 = PERSON_AND_ORGANIZATION_ROLE ( 'creator' ) ;
#274 = DIRECTION ( 'NONE',  ( -0.0000000000000000000, 1.000000000000000000, -0.0000000000000000000 ) ) ;
#275 = APPROVAL_ROLE ( '' ) ;
#276 = CARTESIAN_POINT ( 'NONE',  ( 2.143131898507867100E-016, 0.5000000000000004400, -1.749999999999999100 ) ) ;
#277 = APPLICATION_PROTOCOL_DEFINITION ( 'international standard', 'config_control_design', 1994, #269 ) ;
#278 = PERSON_AND_ORGANIZATION_ROLE ( 'design_owner' ) ;
#279 = DIRECTION ( 'NONE',  ( -0.0000000000000000000, 1.000000000000000000, -0.0000000000000000000 ) ) ;
#280 = DIRECTION ( 'NONE',  ( -0.0000000000000000000, 1.000000000000000000, -0.0000000000000000000 ) ) ;
#281 = DIRECTION ( 'NONE',  ( -0.0000000000000000000, 1.000000000000000000, -0.0000000000000000000 ) ) ;
#282 = DATE_TIME_ROLE ( 'creation_date' ) ;
#283 = DIRECTION ( 'NONE',  ( 0.0000000000000000000, 0.0000000000000000000, 1.000000000000000000 ) ) ;
#284 = DIRECTION ( 'NONE',  ( 0.0000000000000000000, -0.0000000000000000000, -1.000000000000000000 ) ) ;
#285 = CARTESIAN_POINT ( 'NONE',  ( 0.0000000000000000000, 1.000000000000000200, 3.999999999999999100 ) ) ;
#286 = DIRECTION ( 'NONE',  ( 0.0000000000000000000, 0.0000000000000000000, 1.000000000000000000 ) ) ;
#287 = DIRECTION ( 'NONE',  ( 1.000000000000000000, 0.0000000000000000000, 0.0000000000000000000 ) ) ;
#288 = DIRECTION ( 'NONE',  ( -0.0000000000000000000, 1.000000000000000000, -0.0000000000000000000 ) ) ;
#289 = DIRECTION ( 'NONE',  ( 0.0000000000000000000, 0.0000000000000000000, 1.000000000000000000 ) ) ;
#290 = CARTESIAN_POINT ( 'NONE',  ( 0.0000000000000000000, 0.0000000000000000000, 0.0000000000000000000 ) ) ;
#291 = CARTESIAN_POINT ( 'NONE',  ( 0.0000000000000000000, 1.000000000000000900, 0.0000000000000000000 ) ) ;
#292 = APPROVAL_ROLE ( '' ) ;
#293 = APPROVAL_STATUS ( 'not_yet_approved' ) ;
#294 = DIRECTION ( 'NONE',  ( 0.0000000000000000000, 0.0000000000000000000, 1.000000000000000000 ) ) ;
#295 = SECURITY_CLASSIFICATION_LEVEL ( 'unclassified' ) ;
#296 = CARTESIAN_POINT ( 'NONE',  ( 0.0000000000000000000, 0.0000000000000000000, 0.0000000000000000000 ) ) ;
#297 = APPROVAL_STATUS ( 'not_yet_approved' ) ;
#298 = CARTESIAN_POINT ( 'NONE',  ( 0.0000000000000000000, 7.283860049783210200, 4.999999999999999100 ) ) ;
#299 = DIRECTION ( 'NONE',  ( 0.0000000000000000000, 0.7071067811865507900, 0.7071067811865441300 ) ) ;
#300 = DIRECTION ( 'NONE',  ( 0.0000000000000000000, 0.0000000000000000000, 1.000000000000000000 ) ) ;
#301 = CARTESIAN_POINT ( 'NONE',  ( 0.0000000000000000000, 1.000000000000000200, 0.0000000000000000000 ) ) ;
#302 = DIRECTION ( 'NONE',  ( 0.0000000000000000000, 0.0000000000000000000, 1.000000000000000000 ) ) ;
#303 = DIRECTION ( 'NONE',  ( -0.0000000000000000000, 1.000000000000000000, -0.0000000000000000000 ) ) ;
#304 = MECHANICAL_CONTEXT ( 'NONE', #269, 'mechanical' ) ;
#305 = DIRECTION ( 'NONE',  ( 8.659560562354890900E-017, 0.7071067811865507900, -0.7071067811865441300 ) ) ;
#306 = PERSON_AND_ORGANIZATION_ROLE ( 'classification_officer' ) ;
#307 = CARTESIAN_POINT ( 'NONE',  ( 0.0000000000000000000, 0.0000000000000000000, 4.999999999999999100 ) ) ;
#308 = DATE_TIME_ROLE ( 'classification_date' ) ;
#309 = CARTESIAN_POINT ( 'NONE',  ( 0.0000000000000000000, 7.283860049783210200, 0.0000000000000000000 ) ) ;
#310 = CARTESIAN_POINT ( 'NONE',  ( 0.0000000000000000000, 2.000000000000000000, 0.0000000000000000000 ) ) ;
#311 = CARTESIAN_POINT ( 'NONE',  ( 0.0000000000000000000, 2.000000000000000900, 0.0000000000000000000 ) ) ;
#312 = DIRECTION ( 'NONE',  ( -0.0000000000000000000, 1.000000000000000000, -0.0000000000000000000 ) ) ;
#313 = CARTESIAN_POINT ( 'NONE',  ( 2.143131898507867100E-016, 0.0000000000000000000, -1.749999999999999100 ) ) ;
#314 = CARTESIAN_POINT ( 'NONE',  ( 0.0000000000000000000, 7.283860049783210200, 0.0000000000000000000 ) ) ;
#315 = CARTESIAN_POINT ( 'NONE',  ( 0.0000000000000000000, 2.000000000000000000, 0.0000000000000000000 ) ) ;
#316 = CARTESIAN_POINT ( 'NONE',  ( 5.510910596163088600E-016, 2.000000000000000900, -3.999999999999999100 ) ) ;
#317 = CARTESIAN_POINT ( 'NONE',  ( 3.061616997868372800E-016, 0.5000000000000004400, -1.749999999999999100 ) ) ;
#318 = DIRECTION ( 'NONE',  ( 0.0000000000000000000, 0.0000000000000000000, 1.000000000000000000 ) ) ;
#319 = CARTESIAN_POINT ( 'NONE',  ( 6.123233995736766300E-016, 1.000000000000000900, -4.999999999999999100 ) ) ;
#320 = CARTESIAN_POINT ( 'NONE',  ( 0.0000000000000000000, 0.0000000000000000000, 1.749999999999999100 ) ) ;
#321 = CARTESIAN_POINT ( 'NONE',  ( 0.0000000000000000000, 0.5000000000000004400, 0.0000000000000000000 ) ) ;
#322 = CARTESIAN_POINT ( 'NONE',  ( 0.0000000000000000000, 2.000000000000000400, 3.249999999999984500 ) ) ;
#323 = DIRECTION ( 'NONE',  ( -0.0000000000000000000, 1.000000000000000000, -0.0000000000000000000 ) ) ;
#324 = DIRECTION ( 'NONE',  ( 1.224646799147354400E-016, 0.0000000000000000000, -1.000000000000000000 ) ) ;
#325 = CARTESIAN_POINT ( 'NONE',  ( 6.123233995736765300E-016, 0.0000000000000000000, -4.999999999999999100 ) ) ;
#326 = DIRECTION ( 'NONE',  ( -0.0000000000000000000, 1.000000000000000000, -0.0000000000000000000 ) ) ;
#327 = DIRECTION ( 'NONE',  ( -0.0000000000000000000, 1.000000000000000000, -0.0000000000000000000 ) ) ;
#328 = DIRECTION ( 'NONE',  ( -0.0000000000000000000, 1.000000000000000000, 0.0000000000000000000 ) ) ;
#329 = DIRECTION ( 'NONE',  ( -0.0000000000000000000, 1.000000000000000000, -0.0000000000000000000 ) ) ;
#330 = DIRECTION ( 'NONE',  ( -0.0000000000000000000, 1.000000000000000000, -0.0000000000000000000 ) ) ;
#331 = DIRECTION ( 'NONE',  ( -0.0000000000000000000, 1.000000000000000000, -0.0000000000000000000 ) ) ;
#332 = DIRECTION ( 'NONE',  ( 0.0000000000000000000, 0.0000000000000000000, 1.000000000000000000 ) ) ;
#333 = CARTESIAN_POINT ( 'NONE',  ( 0.0000000000000000000, 1.000000000000000900, 4.999999999999999100 ) ) ;
#334 = CARTESIAN_POINT ( 'NONE',  ( 3.980102097228878500E-016, 2.000000000000000000, -3.249999999999984500 ) ) ;
#335 = CARTESIAN_POINT ( 'NONE',  ( 0.0000000000000000000, 0.5000000000000004400, 1.749999999999999100 ) ) ;
#336 = DIRECTION ( 'NONE',  ( 0.0000000000000000000, 0.0000000000000000000, 1.000000000000000000 ) ) ;
#337 = DIRECTION ( 'NONE',  ( 0.0000000000000000000, 0.0000000000000000000, 1.000000000000000000 ) ) ;
#338 = CARTESIAN_POINT ( 'NONE',  ( 0.0000000000000000000, 0.5000000000000004400, 0.0000000000000000000 ) ) ;
#339 = PLANE ( 'NONE',  #173 ) ;
#340 = CARTESIAN_POINT ( 'NONE',  ( 4.898587196589411800E-016, 1.000000000000000200, -3.999999999999999100 ) ) ;
#341 = DIRECTION ( 'NONE',  ( -0.0000000000000000000, 1.000000000000000000, -0.0000000000000000000 ) ) ;
#342 = CARTESIAN_POINT ( 'NONE',  ( 0.0000000000000000000, 0.0000000000000000000, 4.999999999999999100 ) ) ;
#343 = CARTESIAN_POINT ( 'NONE',  ( 0.0000000000000000000, 2.000000000000000000, 3.249999999999984500 ) ) ;
#344 = DIRECTION ( 'NONE',  ( 1.000000000000000000, 0.0000000000000000000, 1.224646799147353200E-016 ) ) ;
#345 = DIRECTION ( 'NONE',  ( 0.0000000000000000000, 0.0000000000000000000, 1.000000000000000000 ) ) ;
#346 = CARTESIAN_POINT ( 'NONE',  ( 0.0000000000000000000, 0.5000000000000004400, 0.0000000000000000000 ) ) ;
#347 = DIRECTION ( 'NONE',  ( 0.0000000000000000000, 0.0000000000000000000, 1.000000000000000000 ) ) ;
#348 = CARTESIAN_POINT ( 'NONE',  ( 6.123233995736765300E-016, 7.283860049783210200, -4.999999999999999100 ) ) ;
#349 = CARTESIAN_POINT ( 'NONE',  ( 0.0000000000000000000, 2.000000000000000900, 3.999999999999999100 ) ) ;
#350 = CARTESIAN_POINT ( 'NONE',  ( 0.0000000000000000000, 1.000000000000000200, 0.0000000000000000000 ) ) ;
#351 = CARTESIAN_POINT ( 'NONE',  ( 0.0000000000000000000, 7.283860049783210200, 1.749999999999999100 ) ) ;
ENDSEC;
END-ISO-10303-21;
