ISO-10303-21;
HEADER;
FILE_DESCRIPTION (( 'STEP AP203' ),
    '1' );
FILE_NAME ('B-122-30.STEP',
    '2022-03-11T02:27:10',
    ( '' ),
    ( '' ),
    'SwSTEP 2.0',
    'SolidWorks 2021',
    '' );
FILE_SCHEMA (( 'CONFIG_CONTROL_DESIGN' ));
ENDSEC;

DATA;
#1 = CARTESIAN_POINT ( 'NONE',  ( 0.000000000000000000, 4.253003599660558187, 0.000000000000000000 ) ) ;
#2 = AXIS2_PLACEMENT_3D ( 'NONE', #330, #98, #181 ) ;
#3 = DIRECTION ( 'NONE',  ( -0.000000000000000000, 1.000000000000000000, -0.000000000000000000 ) ) ;
#4 = DIRECTION ( 'NONE',  ( -0.000000000000000000, 1.000000000000000000, -0.000000000000000000 ) ) ;
#5 = DIRECTION ( 'NONE',  ( 0.000000000000000000, 0.000000000000000000, 1.000000000000000000 ) ) ;
#6 = FACE_OUTER_BOUND ( 'NONE', #329, .T. ) ;
#7 = AXIS2_PLACEMENT_3D ( 'NONE', #143, #271, #148 ) ;
#8 = CARTESIAN_POINT ( 'NONE',  ( 0.000000000000000000, -11.50000000000000000, 0.000000000000000000 ) ) ;
#9 = CYLINDRICAL_SURFACE ( 'NONE', #33, 1.949999999999997291 ) ;
#10 = PERSON_AND_ORGANIZATION ( #169, #332 ) ;
#11 = EDGE_CURVE ( 'NONE', #178, #180, #324, .T. ) ;
#12 =( LENGTH_UNIT ( ) NAMED_UNIT ( * ) SI_UNIT ( .MILLI., .METRE. ) );
#13 = DIRECTION ( 'NONE',  ( 0.000000000000000000, 0.000000000000000000, 1.000000000000000000 ) ) ;
#14 = CARTESIAN_POINT ( 'NONE',  ( 2.388061258337335685E-16, -11.50000000000000000, -1.949999999999997291 ) ) ;
#15 = ADVANCED_FACE ( 'NONE', ( #194 ), #160, .T. ) ;
#16 = APPROVAL_ROLE ( '' ) ;
#17 = EDGE_LOOP ( 'NONE', ( #109, #312, #232, #74 ) ) ;
#18 = CARTESIAN_POINT ( 'NONE',  ( 2.388061258337335685E-16, -9.999999999999998224, -1.949999999999997291 ) ) ;
#19 = LOCAL_TIME ( 11, 27, 10.00000000000000000, #44 ) ;
#20 = PERSON_AND_ORGANIZATION ( #169, #332 ) ;
#21 = VERTEX_POINT ( 'NONE', #104 ) ;
#22 = EDGE_CURVE ( 'NONE', #281, #256, #263, .T. ) ;
#23 = AXIS2_PLACEMENT_3D ( 'NONE', #236, #334, #71 ) ;
#24 = FACE_OUTER_BOUND ( 'NONE', #240, .T. ) ;
#25 = CALENDAR_DATE ( 2022, 11, 3 ) ;
#26 = EDGE_CURVE ( 'NONE', #180, #178, #51, .T. ) ;
#27 = DIRECTION ( 'NONE',  ( -0.000000000000000000, 1.000000000000000000, -0.000000000000000000 ) ) ;
#28 = CARTESIAN_POINT ( 'NONE',  ( 2.020667218593131522E-16, 7.347880794884127625E-18, -1.649999999999998801 ) ) ;
#29 = DIRECTION ( 'NONE',  ( -0.000000000000000000, 1.000000000000000000, -0.000000000000000000 ) ) ;
#30 = CC_DESIGN_PERSON_AND_ORGANIZATION_ASSIGNMENT ( #325, #280, ( #274 ) ) ;
#31 = CARTESIAN_POINT ( 'NONE',  ( 0.000000000000000000, 0.000000000000000000, 0.000000000000000000 ) ) ;
#32 = AXIS2_PLACEMENT_3D ( 'NONE', #215, #253, #210 ) ;
#33 = AXIS2_PLACEMENT_3D ( 'NONE', #157, #296, #223 ) ;
#34 =( NAMED_UNIT ( * ) PLANE_ANGLE_UNIT ( ) SI_UNIT ( $, .RADIAN. ) );
#35 = EDGE_CURVE ( 'NONE', #281, #117, #291, .T. ) ;
#36 = DIRECTION ( 'NONE',  ( 0.000000000000000000, 0.000000000000000000, 1.000000000000000000 ) ) ;
#37 = LINE ( 'NONE', #144, #276 ) ;
#38 = LOCAL_TIME ( 11, 27, 10.00000000000000000, #251 ) ;
#39 = CALENDAR_DATE ( 2022, 11, 3 ) ;
#40 = PRODUCT ( 'B-122-30', 'B-122-30', '', ( #199 ) ) ;
#41 = ORIENTED_EDGE ( 'NONE', *, *, #22, .F. ) ;
#42 = APPROVAL ( #115, 'UNSPECIFIED' ) ;
#43 = CARTESIAN_POINT ( 'NONE',  ( 0.000000000000000000, -9.999999999999998224, 1.949999999999997291 ) ) ;
#44 = COORDINATED_UNIVERSAL_TIME_OFFSET ( 9, 0, .AHEAD. ) ;
#45 = ORIENTED_EDGE ( 'NONE', *, *, #230, .F. ) ;
#46 = CALENDAR_DATE ( 2022, 11, 3 ) ;
#47 = EDGE_LOOP ( 'NONE', ( #106, #205, #154, #285 ) ) ;
#48 = DIRECTION ( 'NONE',  ( 0.000000000000000000, -0.000000000000000000, -1.000000000000000000 ) ) ;
#49 = EDGE_CURVE ( 'NONE', #135, #100, #306, .T. ) ;
#50 = DIRECTION ( 'NONE',  ( 0.000000000000000000, 0.000000000000000000, 1.000000000000000000 ) ) ;
#51 = CIRCLE ( 'NONE', #58, 4.999999999999999112 ) ;
#52 = DIRECTION ( 'NONE',  ( -0.000000000000000000, 1.000000000000000000, -0.000000000000000000 ) ) ;
#53 = DIRECTION ( 'NONE',  ( -0.000000000000000000, 1.000000000000000000, -0.000000000000000000 ) ) ;
#54 = CARTESIAN_POINT ( 'NONE',  ( 0.000000000000000000, 4.253003599660558187, 4.999999999999998224 ) ) ;
#55 = DIRECTION ( 'NONE',  ( 0.000000000000000000, -0.000000000000000000, -1.000000000000000000 ) ) ;
#56 = APPROVAL_PERSON_ORGANIZATION ( #275, #61, #183 ) ;
#57 = DIRECTION ( 'NONE',  ( 1.000000000000000000, 0.000000000000000000, 0.000000000000000000 ) ) ;
#58 = AXIS2_PLACEMENT_3D ( 'NONE', #31, #53, #136 ) ;
#59 =( GEOMETRIC_REPRESENTATION_CONTEXT ( 3 ) GLOBAL_UNCERTAINTY_ASSIGNED_CONTEXT ( ( #327 ) ) GLOBAL_UNIT_ASSIGNED_CONTEXT ( ( #12, #34, #267 ) ) REPRESENTATION_CONTEXT ( 'NONE', 'WORKASPACE' ) );
#60 = CARTESIAN_POINT ( 'NONE',  ( 0.000000000000000000, 0.000000000000000000, 0.000000000000000000 ) ) ;
#61 = APPROVAL ( #69, 'UNSPECIFIED' ) ;
#62 = CIRCLE ( 'NONE', #155, 1.949999999999997291 ) ;
#63 = CARTESIAN_POINT ( 'NONE',  ( 0.000000000000000000, -11.50000000000000000, 1.949999999999997291 ) ) ;
#64 = EDGE_CURVE ( 'NONE', #111, #124, #195, .T. ) ;
#65 = ORIENTED_EDGE ( 'NONE', *, *, #11, .F. ) ;
#66 = AXIS2_PLACEMENT_3D ( 'NONE', #87, #175, #13 ) ;
#67 = DATE_TIME_ROLE ( 'classification_date' ) ;
#68 = PLANE ( 'NONE',  #218 ) ;
#69 = APPROVAL_STATUS ( 'not_yet_approved' ) ;
#70 = EDGE_CURVE ( 'NONE', #124, #178, #220, .T. ) ;
#71 = DIRECTION ( 'NONE',  ( 0.000000000000000000, 0.000000000000000000, 1.000000000000000000 ) ) ;
#72 = CYLINDRICAL_SURFACE ( 'NONE', #82, 1.949999999999997291 ) ;
#73 = SHAPE_DEFINITION_REPRESENTATION ( #226, #302 ) ;
#74 = ORIENTED_EDGE ( 'NONE', *, *, #26, .F. ) ;
#75 = EDGE_LOOP ( 'NONE', ( #94, #184 ) ) ;
#76 = CARTESIAN_POINT ( 'NONE',  ( 6.123233995736765296E-16, 0.000000000000000000, -4.999999999999999112 ) ) ;
#77 = ORIENTED_EDGE ( 'NONE', *, *, #167, .T. ) ;
#78 = LINE ( 'NONE', #108, #90 ) ;
#79 = PRODUCT_RELATED_PRODUCT_CATEGORY ( 'detail', '', ( #40 ) ) ;
#80 = EDGE_LOOP ( 'NONE', ( #163, #278 ) ) ;
#81 = DIRECTION ( 'NONE',  ( -0.000000000000000000, 1.000000000000000000, -0.000000000000000000 ) ) ;
#82 = AXIS2_PLACEMENT_3D ( 'NONE', #186, #283, #50 ) ;
#83 = EDGE_LOOP ( 'NONE', ( #128, #96 ) ) ;
#84 = DIRECTION ( 'NONE',  ( 0.000000000000000000, 0.000000000000000000, 1.000000000000000000 ) ) ;
#85 = CC_DESIGN_PERSON_AND_ORGANIZATION_ASSIGNMENT ( #250, #140, ( #40 ) ) ;
#86 = DIRECTION ( 'NONE',  ( -0.000000000000000000, 1.000000000000000000, -0.000000000000000000 ) ) ;
#87 = CARTESIAN_POINT ( 'NONE',  ( 0.000000000000000000, 0.000000000000000000, 0.000000000000000000 ) ) ;
#88 = CYLINDRICAL_SURFACE ( 'NONE', #315, 1.649999999999998357 ) ;
#89 = AXIS2_PLACEMENT_3D ( 'NONE', #125, #260, #119 ) ;
#90 = VECTOR ( 'NONE', #29, 1000.000000000000000 ) ;
#91 = ORIENTED_EDGE ( 'NONE', *, *, #99, .T. ) ;
#92 = EDGE_CURVE ( 'NONE', #135, #193, #78, .T. ) ;
#93 = FACE_OUTER_BOUND ( 'NONE', #75, .T. ) ;
#94 = ORIENTED_EDGE ( 'NONE', *, *, #35, .F. ) ;
#95 = DATE_AND_TIME ( #25, #146 ) ;
#96 = ORIENTED_EDGE ( 'NONE', *, *, #174, .T. ) ;
#97 = AXIS2_PLACEMENT_3D ( 'NONE', #216, #52, #107 ) ;
#98 = DIRECTION ( 'NONE',  ( -0.000000000000000000, 1.000000000000000000, -0.000000000000000000 ) ) ;
#99 = EDGE_CURVE ( 'NONE', #100, #135, #304, .T. ) ;
#100 = VERTEX_POINT ( 'NONE', #292 ) ;
#101 = PERSON_AND_ORGANIZATION_ROLE ( 'design_supplier' ) ;
#102 = EDGE_LOOP ( 'NONE', ( #45, #333 ) ) ;
#103 = DIRECTION ( 'NONE',  ( -0.000000000000000000, 1.000000000000000000, 0.000000000000000000 ) ) ;
#104 = CARTESIAN_POINT ( 'NONE',  ( 0.000000000000000000, 7.347880794884127625E-18, 1.649999999999998801 ) ) ;
#105 = AXIS2_PLACEMENT_3D ( 'NONE', #289, #161, #269 ) ;
#106 = ORIENTED_EDGE ( 'NONE', *, *, #92, .F. ) ;
#107 = DIRECTION ( 'NONE',  ( 0.000000000000000000, 0.000000000000000000, 1.000000000000000000 ) ) ;
#108 = CARTESIAN_POINT ( 'NONE',  ( 2.020667218593130536E-16, 0.000000000000000000, -1.649999999999998357 ) ) ;
#109 = ORIENTED_EDGE ( 'NONE', *, *, #110, .F. ) ;
#110 = EDGE_CURVE ( 'NONE', #111, #180, #266, .T. ) ;
#111 = VERTEX_POINT ( 'NONE', #168 ) ;
#112 = DIRECTION ( 'NONE',  ( 0.000000000000000000, 0.000000000000000000, 1.000000000000000000 ) ) ;
#113 = DIRECTION ( 'NONE',  ( -0.000000000000000000, 1.000000000000000000, -0.000000000000000000 ) ) ;
#114 = DIRECTION ( 'NONE',  ( -0.000000000000000000, 1.000000000000000000, -0.000000000000000000 ) ) ;
#115 = APPROVAL_STATUS ( 'not_yet_approved' ) ;
#116 = COORDINATED_UNIVERSAL_TIME_OFFSET ( 9, 0, .AHEAD. ) ;
#117 = VERTEX_POINT ( 'NONE', #14 ) ;
#118 = AXIS2_PLACEMENT_3D ( 'NONE', #279, #286, #257 ) ;
#119 = DIRECTION ( 'NONE',  ( 0.000000000000000000, 0.000000000000000000, 1.000000000000000000 ) ) ;
#120 = FACE_OUTER_BOUND ( 'NONE', #102, .T. ) ;
#121 = PERSON_AND_ORGANIZATION ( #169, #332 ) ;
#122 = CARTESIAN_POINT ( 'NONE',  ( -2.602085213965210642E-15, -9.000000000000001776, 0.000000000000000000 ) ) ;
#123 = APPROVAL_ROLE ( '' ) ;
#124 = VERTEX_POINT ( 'NONE', #295 ) ;
#125 = CARTESIAN_POINT ( 'NONE',  ( 0.000000000000000000, -11.50000000000000000, 0.000000000000000000 ) ) ;
#126 = EDGE_CURVE ( 'NONE', #100, #21, #141, .T. ) ;
#127 = PERSON_AND_ORGANIZATION_ROLE ( 'classification_officer' ) ;
#128 = ORIENTED_EDGE ( 'NONE', *, *, #134, .T. ) ;
#129 = VECTOR ( 'NONE', #159, 1000.000000000000000 ) ;
#130 = FACE_BOUND ( 'NONE', #310, .T. ) ;
#131 = CIRCLE ( 'NONE', #191, 1.649999999999998801 ) ;
#132 = SECURITY_CLASSIFICATION ( '', '', #255 ) ;
#133 = DATE_AND_TIME ( #258, #38 ) ;
#134 = EDGE_CURVE ( 'NONE', #256, #235, #259, .T. ) ;
#135 = VERTEX_POINT ( 'NONE', #261 ) ;
#136 = DIRECTION ( 'NONE',  ( 0.000000000000000000, 0.000000000000000000, 1.000000000000000000 ) ) ;
#137 = EDGE_CURVE ( 'NONE', #21, #193, #189, .T. ) ;
#138 = ORIENTED_EDGE ( 'NONE', *, *, #167, .F. ) ;
#139 = DIRECTION ( 'NONE',  ( 0.000000000000000000, 0.000000000000000000, 1.000000000000000000 ) ) ;
#140 = PERSON_AND_ORGANIZATION_ROLE ( 'design_owner' ) ;
#141 = LINE ( 'NONE', #248, #172 ) ;
#142 = CC_DESIGN_PERSON_AND_ORGANIZATION_ASSIGNMENT ( #10, #145, ( #190 ) ) ;
#143 = CARTESIAN_POINT ( 'NONE',  ( 0.000000000000000000, -9.999999999999998224, 0.000000000000000000 ) ) ;
#144 = CARTESIAN_POINT ( 'NONE',  ( 2.388061258337335685E-16, 4.253003599660558187, -1.949999999999997291 ) ) ;
#145 = PERSON_AND_ORGANIZATION_ROLE ( 'creator' ) ;
#146 = LOCAL_TIME ( 11, 27, 10.00000000000000000, #116 ) ;
#147 = ORIENTED_EDGE ( 'NONE', *, *, #22, .T. ) ;
#148 = DIRECTION ( 'NONE',  ( 0.000000000000000000, 0.000000000000000000, 1.000000000000000000 ) ) ;
#149 = ORIENTED_EDGE ( 'NONE', *, *, #230, .T. ) ;
#150 = CARTESIAN_POINT ( 'NONE',  ( 0.000000000000000000, 0.000000000000000000, 4.999999999999999112 ) ) ;
#151 = DATE_TIME_ROLE ( 'creation_date' ) ;
#152 = EDGE_LOOP ( 'NONE', ( #149, #307, #65, #326 ) ) ;
#153 = DATE_AND_TIME ( #46, #19 ) ;
#154 = ORIENTED_EDGE ( 'NONE', *, *, #126, .T. ) ;
#155 = AXIS2_PLACEMENT_3D ( 'NONE', #242, #314, #268 ) ;
#156 = CARTESIAN_POINT ( 'NONE',  ( 0.000000000000000000, 7.347880794884127625E-18, 0.000000000000000000 ) ) ;
#157 = CARTESIAN_POINT ( 'NONE',  ( 0.000000000000000000, 4.253003599660558187, 0.000000000000000000 ) ) ;
#158 = ADVANCED_FACE ( 'NONE', ( #234, #120 ), #239, .T. ) ;
#159 = DIRECTION ( 'NONE',  ( -0.000000000000000000, 1.000000000000000000, -0.000000000000000000 ) ) ;
#160 = CYLINDRICAL_SURFACE ( 'NONE', #203, 4.999999999999998224 ) ;
#161 = DIRECTION ( 'NONE',  ( -0.000000000000000000, 1.000000000000000000, -0.000000000000000000 ) ) ;
#162 = CC_DESIGN_APPROVAL ( #61, ( #132 ) ) ;
#163 = ORIENTED_EDGE ( 'NONE', *, *, #11, .T. ) ;
#164 = ADVANCED_FACE ( 'NONE', ( #24 ), #72, .T. ) ;
#165 = APPLICATION_CONTEXT ( 'configuration controlled 3d designs of mechanical parts and assemblies' ) ;
#166 = AXIS2_PLACEMENT_3D ( 'NONE', #217, #81, #5 ) ;
#167 = EDGE_CURVE ( 'NONE', #193, #21, #131, .T. ) ;
#168 = CARTESIAN_POINT ( 'NONE',  ( 6.123233995736764310E-16, -9.999999999999998224, -4.999999999999997335 ) ) ;
#169 = PERSON ( 'UNSPECIFIED', 'UNSPECIFIED', 'UNSPECIFIED', ('UNSPECIFIED'), ('UNSPECIFIED'), ('UNSPECIFIED') ) ;
#170 = PERSON_AND_ORGANIZATION ( #169, #332 ) ;
#171 = CIRCLE ( 'NONE', #23, 4.999999999999997335 ) ;
#172 = VECTOR ( 'NONE', #86, 1000.000000000000000 ) ;
#173 = APPLICATION_PROTOCOL_DEFINITION ( 'international standard', 'config_control_design', 1994, #165 ) ;
#174 = EDGE_CURVE ( 'NONE', #235, #256, #62, .T. ) ;
#175 = DIRECTION ( 'NONE',  ( -0.000000000000000000, 1.000000000000000000, -0.000000000000000000 ) ) ;
#176 = APPROVAL_DATE_TIME ( #297, #42 ) ;
#177 = DIRECTION ( 'NONE',  ( -0.000000000000000000, 1.000000000000000000, -0.000000000000000000 ) ) ;
#178 = VERTEX_POINT ( 'NONE', #245 ) ;
#179 = ORIENTED_EDGE ( 'NONE', *, *, #126, .F. ) ;
#180 = VERTEX_POINT ( 'NONE', #76 ) ;
#181 = DIRECTION ( 'NONE',  ( 0.000000000000000000, 0.000000000000000000, 1.000000000000000000 ) ) ;
#182 = APPLICATION_CONTEXT ( 'configuration controlled 3d designs of mechanical parts and assemblies' ) ;
#183 = APPROVAL_ROLE ( '' ) ;
#184 = ORIENTED_EDGE ( 'NONE', *, *, #262, .F. ) ;
#185 = FACE_OUTER_BOUND ( 'NONE', #290, .T. ) ;
#186 = CARTESIAN_POINT ( 'NONE',  ( 0.000000000000000000, 4.253003599660558187, 0.000000000000000000 ) ) ;
#187 = ORIENTED_EDGE ( 'NONE', *, *, #49, .T. ) ;
#188 = AXIS2_PLACEMENT_3D ( 'NONE', #150, #103, #214 ) ;
#189 = CIRCLE ( 'NONE', #32, 1.649999999999998801 ) ;
#190 = PRODUCT_DEFINITION ( 'UNKNOWN', '', #274, #207 ) ;
#191 = AXIS2_PLACEMENT_3D ( 'NONE', #156, #27, #139 ) ;
#192 = CARTESIAN_POINT ( 'NONE',  ( 0.000000000000000000, 4.253003599660558187, 1.949999999999997291 ) ) ;
#193 = VERTEX_POINT ( 'NONE', #28 ) ;
#194 = FACE_OUTER_BOUND ( 'NONE', #152, .T. ) ;
#195 = CIRCLE ( 'NONE', #105, 4.999999999999997335 ) ;
#196 = ORIENTED_EDGE ( 'NONE', *, *, #174, .F. ) ;
#197 = AXIS2_PLACEMENT_3D ( 'NONE', #60, #36, #57 ) ;
#198 = LOCAL_TIME ( 11, 27, 10.00000000000000000, #238 ) ;
#199 = MECHANICAL_CONTEXT ( 'NONE', #165, 'mechanical' ) ;
#200 = CARTESIAN_POINT ( 'NONE',  ( 6.123233995736764310E-16, 4.253003599660558187, -4.999999999999998224 ) ) ;
#201 = ADVANCED_FACE ( 'NONE', ( #322 ), #323, .F. ) ;
#202 = CIRCLE ( 'NONE', #89, 1.949999999999997291 ) ;
#203 = AXIS2_PLACEMENT_3D ( 'NONE', #1, #3, #265 ) ;
#204 = PLANE ( 'NONE',  #264 ) ;
#205 = ORIENTED_EDGE ( 'NONE', *, *, #99, .F. ) ;
#206 = ORIENTED_EDGE ( 'NONE', *, *, #137, .F. ) ;
#207 = DESIGN_CONTEXT ( 'detailed design', #182, 'design' ) ;
#208 = ORIENTED_EDGE ( 'NONE', *, *, #212, .F. ) ;
#209 = CARTESIAN_POINT ( 'NONE',  ( 0.000000000000000000, 0.000000000000000000, 0.000000000000000000 ) ) ;
#210 = DIRECTION ( 'NONE',  ( 0.000000000000000000, 0.000000000000000000, 1.000000000000000000 ) ) ;
#211 = CALENDAR_DATE ( 2022, 11, 3 ) ;
#212 = EDGE_CURVE ( 'NONE', #117, #235, #37, .T. ) ;
#213 = ORIENTED_EDGE ( 'NONE', *, *, #262, .T. ) ;
#214 = DIRECTION ( 'NONE',  ( 0.000000000000000000, 0.000000000000000000, 1.000000000000000000 ) ) ;
#215 = CARTESIAN_POINT ( 'NONE',  ( 0.000000000000000000, 7.347880794884127625E-18, 0.000000000000000000 ) ) ;
#216 = CARTESIAN_POINT ( 'NONE',  ( 0.000000000000000000, 0.000000000000000000, 0.000000000000000000 ) ) ;
#217 = CARTESIAN_POINT ( 'NONE',  ( 0.000000000000000000, -9.000000000000001776, 0.000000000000000000 ) ) ;
#218 = AXIS2_PLACEMENT_3D ( 'NONE', #122, #282, #48 ) ;
#219 = AXIS2_PLACEMENT_3D ( 'NONE', #294, #313, #112 ) ;
#220 = LINE ( 'NONE', #54, #129 ) ;
#221 = ADVANCED_FACE ( 'NONE', ( #321 ), #88, .F. ) ;
#222 = VECTOR ( 'NONE', #4, 1000.000000000000000 ) ;
#223 = DIRECTION ( 'NONE',  ( 0.000000000000000000, 0.000000000000000000, 1.000000000000000000 ) ) ;
#224 = CC_DESIGN_DATE_AND_TIME_ASSIGNMENT ( #95, #67, ( #132 ) ) ;
#225 = COORDINATED_UNIVERSAL_TIME_OFFSET ( 9, 0, .AHEAD. ) ;
#226 = PRODUCT_DEFINITION_SHAPE ( 'NONE', 'NONE',  #190 ) ;
#227 = DATE_AND_TIME ( #211, #198 ) ;
#228 = EDGE_LOOP ( 'NONE', ( #299, #272, #77, #179 ) ) ;
#229 = FACE_OUTER_BOUND ( 'NONE', #80, .T. ) ;
#230 = EDGE_CURVE ( 'NONE', #124, #111, #171, .T. ) ;
#231 = FACE_OUTER_BOUND ( 'NONE', #17, .T. ) ;
#232 = ORIENTED_EDGE ( 'NONE', *, *, #70, .T. ) ;
#233 = PLANE ( 'NONE',  #188 ) ;
#234 = FACE_BOUND ( 'NONE', #83, .T. ) ;
#235 = VERTEX_POINT ( 'NONE', #18 ) ;
#236 = CARTESIAN_POINT ( 'NONE',  ( 0.000000000000000000, -9.999999999999998224, 0.000000000000000000 ) ) ;
#237 = ADVANCED_FACE ( 'NONE', ( #185 ), #68, .F. ) ;
#238 = COORDINATED_UNIVERSAL_TIME_OFFSET ( 9, 0, .AHEAD. ) ;
#239 = PLANE ( 'NONE',  #118 ) ;
#240 = EDGE_LOOP ( 'NONE', ( #308, #293, #254, #41 ) ) ;
#241 = CLOSED_SHELL ( 'NONE', ( #201, #164, #15, #270, #288, #158, #320, #305, #237, #221 ) ) ;
#242 = CARTESIAN_POINT ( 'NONE',  ( 0.000000000000000000, -9.999999999999998224, 0.000000000000000000 ) ) ;
#243 = APPROVAL ( #301, 'UNSPECIFIED' ) ;
#244 = DIRECTION ( 'NONE',  ( 0.000000000000000000, -1.000000000000000000, 0.000000000000000000 ) ) ;
#245 = CARTESIAN_POINT ( 'NONE',  ( 0.000000000000000000, 0.000000000000000000, 4.999999999999999112 ) ) ;
#246 = APPROVAL_PERSON_ORGANIZATION ( #170, #42, #16 ) ;
#247 = APPLICATION_PROTOCOL_DEFINITION ( 'international standard', 'config_control_design', 1994, #182 ) ;
#248 = CARTESIAN_POINT ( 'NONE',  ( 0.000000000000000000, 0.000000000000000000, 1.649999999999998357 ) ) ;
#249 = CC_DESIGN_PERSON_AND_ORGANIZATION_ASSIGNMENT ( #328, #101, ( #274 ) ) ;
#250 = PERSON_AND_ORGANIZATION ( #169, #332 ) ;
#251 = COORDINATED_UNIVERSAL_TIME_OFFSET ( 9, 0, .AHEAD. ) ;
#252 = CC_DESIGN_APPROVAL ( #243, ( #274 ) ) ;
#253 = DIRECTION ( 'NONE',  ( -0.000000000000000000, 1.000000000000000000, -0.000000000000000000 ) ) ;
#254 = ORIENTED_EDGE ( 'NONE', *, *, #134, .F. ) ;
#255 = SECURITY_CLASSIFICATION_LEVEL ( 'unclassified' ) ;
#256 = VERTEX_POINT ( 'NONE', #43 ) ;
#257 = DIRECTION ( 'NONE',  ( 0.000000000000000000, -0.000000000000000000, -1.000000000000000000 ) ) ;
#258 = CALENDAR_DATE ( 2022, 11, 3 ) ;
#259 = CIRCLE ( 'NONE', #7, 1.949999999999997291 ) ;
#260 = DIRECTION ( 'NONE',  ( -0.000000000000000000, 1.000000000000000000, -0.000000000000000000 ) ) ;
#261 = CARTESIAN_POINT ( 'NONE',  ( 2.020667218593130290E-16, -9.000000000000001776, -1.649999999999997913 ) ) ;
#262 = EDGE_CURVE ( 'NONE', #117, #281, #202, .T. ) ;
#263 = LINE ( 'NONE', #192, #222 ) ;
#264 = AXIS2_PLACEMENT_3D ( 'NONE', #300, #244, #55 ) ;
#265 = DIRECTION ( 'NONE',  ( 0.000000000000000000, 0.000000000000000000, 1.000000000000000000 ) ) ;
#266 = LINE ( 'NONE', #200, #316 ) ;
#267 =( NAMED_UNIT ( * ) SI_UNIT ( $, .STERADIAN. ) SOLID_ANGLE_UNIT ( ) );
#268 = DIRECTION ( 'NONE',  ( 0.000000000000000000, 0.000000000000000000, 1.000000000000000000 ) ) ;
#269 = DIRECTION ( 'NONE',  ( 0.000000000000000000, 0.000000000000000000, 1.000000000000000000 ) ) ;
#270 = ADVANCED_FACE ( 'NONE', ( #130, #229 ), #233, .T. ) ;
#271 = DIRECTION ( 'NONE',  ( -0.000000000000000000, 1.000000000000000000, -0.000000000000000000 ) ) ;
#272 = ORIENTED_EDGE ( 'NONE', *, *, #92, .T. ) ;
#273 = DIRECTION ( 'NONE',  ( 0.000000000000000000, 0.000000000000000000, 1.000000000000000000 ) ) ;
#274 = PRODUCT_DEFINITION_FORMATION_WITH_SPECIFIED_SOURCE ( 'ANY', '', #40, .NOT_KNOWN. ) ;
#275 = PERSON_AND_ORGANIZATION ( #169, #332 ) ;
#276 = VECTOR ( 'NONE', #114, 1000.000000000000000 ) ;
#277 = CC_DESIGN_PERSON_AND_ORGANIZATION_ASSIGNMENT ( #20, #127, ( #132 ) ) ;
#278 = ORIENTED_EDGE ( 'NONE', *, *, #26, .T. ) ;
#279 = CARTESIAN_POINT ( 'NONE',  ( 0.000000000000000000, -10.00000000000000000, 4.999999999999997335 ) ) ;
#280 = PERSON_AND_ORGANIZATION_ROLE ( 'creator' ) ;
#281 = VERTEX_POINT ( 'NONE', #63 ) ;
#282 = DIRECTION ( 'NONE',  ( 0.000000000000000000, -1.000000000000000000, 0.000000000000000000 ) ) ;
#283 = DIRECTION ( 'NONE',  ( -0.000000000000000000, 1.000000000000000000, -0.000000000000000000 ) ) ;
#284 = LOCAL_TIME ( 11, 27, 10.00000000000000000, #225 ) ;
#285 = ORIENTED_EDGE ( 'NONE', *, *, #137, .T. ) ;
#286 = DIRECTION ( 'NONE',  ( 0.000000000000000000, -1.000000000000000000, 0.000000000000000000 ) ) ;
#287 = DIRECTION ( 'NONE',  ( -0.000000000000000000, 1.000000000000000000, -0.000000000000000000 ) ) ;
#288 = ADVANCED_FACE ( 'NONE', ( #231 ), #303, .T. ) ;
#289 = CARTESIAN_POINT ( 'NONE',  ( 0.000000000000000000, -9.999999999999998224, 0.000000000000000000 ) ) ;
#290 = EDGE_LOOP ( 'NONE', ( #91, #187 ) ) ;
#291 = CIRCLE ( 'NONE', #331, 1.949999999999997291 ) ;
#292 = CARTESIAN_POINT ( 'NONE',  ( 0.000000000000000000, -9.000000000000001776, 1.649999999999997913 ) ) ;
#293 = ORIENTED_EDGE ( 'NONE', *, *, #212, .T. ) ;
#294 = CARTESIAN_POINT ( 'NONE',  ( 0.000000000000000000, -9.000000000000001776, 0.000000000000000000 ) ) ;
#295 = CARTESIAN_POINT ( 'NONE',  ( 0.000000000000000000, -9.999999999999998224, 4.999999999999997335 ) ) ;
#296 = DIRECTION ( 'NONE',  ( -0.000000000000000000, 1.000000000000000000, -0.000000000000000000 ) ) ;
#297 = DATE_AND_TIME ( #39, #284 ) ;
#298 = CC_DESIGN_DATE_AND_TIME_ASSIGNMENT ( #153, #151, ( #190 ) ) ;
#299 = ORIENTED_EDGE ( 'NONE', *, *, #49, .F. ) ;
#300 = CARTESIAN_POINT ( 'NONE',  ( 0.000000000000000000, -11.50000000000000000, -1.929186543528103020E-15 ) ) ;
#301 = APPROVAL_STATUS ( 'not_yet_approved' ) ;
#302 = ADVANCED_BREP_SHAPE_REPRESENTATION ( 'B-122-30', ( #317, #197 ), #59 ) ;
#303 = CYLINDRICAL_SURFACE ( 'NONE', #2, 4.999999999999998224 ) ;
#304 = CIRCLE ( 'NONE', #166, 1.649999999999997913 ) ;
#305 = ADVANCED_FACE ( 'NONE', ( #93 ), #204, .T. ) ;
#306 = CIRCLE ( 'NONE', #219, 1.649999999999997913 ) ;
#307 = ORIENTED_EDGE ( 'NONE', *, *, #110, .T. ) ;
#308 = ORIENTED_EDGE ( 'NONE', *, *, #35, .T. ) ;
#309 = APPROVAL_DATE_TIME ( #227, #61 ) ;
#310 = EDGE_LOOP ( 'NONE', ( #206, #138 ) ) ;
#311 = CC_DESIGN_APPROVAL ( #42, ( #190 ) ) ;
#312 = ORIENTED_EDGE ( 'NONE', *, *, #64, .T. ) ;
#313 = DIRECTION ( 'NONE',  ( -0.000000000000000000, 1.000000000000000000, -0.000000000000000000 ) ) ;
#314 = DIRECTION ( 'NONE',  ( -0.000000000000000000, 1.000000000000000000, -0.000000000000000000 ) ) ;
#315 = AXIS2_PLACEMENT_3D ( 'NONE', #209, #177, #273 ) ;
#316 = VECTOR ( 'NONE', #113, 1000.000000000000000 ) ;
#317 = MANIFOLD_SOLID_BREP ( 'M4x0.7 ‚Ë‚¶ŒŠ2', #241 ) ;
#318 = APPROVAL_PERSON_ORGANIZATION ( #121, #243, #123 ) ;
#319 = CC_DESIGN_SECURITY_CLASSIFICATION ( #132, ( #274 ) ) ;
#320 = ADVANCED_FACE ( 'NONE', ( #6 ), #9, .T. ) ;
#321 = FACE_OUTER_BOUND ( 'NONE', #47, .T. ) ;
#322 = FACE_OUTER_BOUND ( 'NONE', #228, .T. ) ;
#323 = CYLINDRICAL_SURFACE ( 'NONE', #66, 1.649999999999998357 ) ;
#324 = CIRCLE ( 'NONE', #97, 4.999999999999999112 ) ;
#325 = PERSON_AND_ORGANIZATION ( #169, #332 ) ;
#326 = ORIENTED_EDGE ( 'NONE', *, *, #70, .F. ) ;
#327 = UNCERTAINTY_MEASURE_WITH_UNIT (LENGTH_MEASURE( 1.000000000000000082E-05 ), #12, 'distance_accuracy_value', 'NONE');
#328 = PERSON_AND_ORGANIZATION ( #169, #332 ) ;
#329 = EDGE_LOOP ( 'NONE', ( #208, #213, #147, #196 ) ) ;
#330 = CARTESIAN_POINT ( 'NONE',  ( 0.000000000000000000, 4.253003599660558187, 0.000000000000000000 ) ) ;
#331 = AXIS2_PLACEMENT_3D ( 'NONE', #8, #287, #84 ) ;
#332 = ORGANIZATION ( 'UNSPECIFIED', 'UNSPECIFIED', '' ) ;
#333 = ORIENTED_EDGE ( 'NONE', *, *, #64, .F. ) ;
#334 = DIRECTION ( 'NONE',  ( -0.000000000000000000, 1.000000000000000000, -0.000000000000000000 ) ) ;
#335 = APPROVAL_DATE_TIME ( #133, #243 ) ;
ENDSEC;
END-ISO-10303-21;
