ISO-10303-21;
HEADER;
FILE_DESCRIPTION (( 'STEP AP203' ),
    '1' );
FILE_NAME ('B-122-28.STEP',
    '2022-03-11T02:24:28',
    ( '' ),
    ( '' ),
    'SwSTEP 2.0',
    'SolidWorks 2021',
    '' );
FILE_SCHEMA (( 'CONFIG_CONTROL_DESIGN' ));
ENDSEC;

DATA;
#1 = DIRECTION ( 'NONE',  ( 0.000000000000000000, -0.000000000000000000, -1.000000000000000000 ) ) ;
#2 = CC_DESIGN_PERSON_AND_ORGANIZATION_ASSIGNMENT ( #332, #290, ( #55 ) ) ;
#3 = AXIS2_PLACEMENT_3D ( 'NONE', #96, #207, #67 ) ;
#4 = CC_DESIGN_APPROVAL ( #322, ( #27 ) ) ;
#5 = COORDINATED_UNIVERSAL_TIME_OFFSET ( 9, 0, .AHEAD. ) ;
#6 = AXIS2_PLACEMENT_3D ( 'NONE', #286, #183, #129 ) ;
#7 = ADVANCED_FACE ( 'NONE', ( #232 ), #333, .T. ) ;
#8 = ORIENTED_EDGE ( 'NONE', *, *, #173, .T. ) ;
#9 = VERTEX_POINT ( 'NONE', #273 ) ;
#10 = VECTOR ( 'NONE', #147, 1000.000000000000000 ) ;
#11 = EDGE_CURVE ( 'NONE', #85, #145, #51, .T. ) ;
#12 = CARTESIAN_POINT ( 'NONE',  ( 0.000000000000000000, 0.000000000000000000, 0.000000000000000000 ) ) ;
#13 = PERSON_AND_ORGANIZATION ( #83, #241 ) ;
#14 = AXIS2_PLACEMENT_3D ( 'NONE', #255, #199, #260 ) ;
#15 = CARTESIAN_POINT ( 'NONE',  ( 0.000000000000000000, 0.000000000000000000, 0.000000000000000000 ) ) ;
#16 = APPROVAL_PERSON_ORGANIZATION ( #314, #133, #213 ) ;
#17 = CARTESIAN_POINT ( 'NONE',  ( 0.000000000000000000, -13.50000000000000000, 1.649999999999996581 ) ) ;
#18 = DIRECTION ( 'NONE',  ( 0.000000000000000000, 0.000000000000000000, 1.000000000000000000 ) ) ;
#19 = CARTESIAN_POINT ( 'NONE',  ( 0.000000000000000000, -16.50000000000000000, 0.000000000000000000 ) ) ;
#20 = DIRECTION ( 'NONE',  ( 0.000000000000000000, 0.000000000000000000, 1.000000000000000000 ) ) ;
#21 = DIRECTION ( 'NONE',  ( 0.000000000000000000, 0.000000000000000000, 1.000000000000000000 ) ) ;
#22 = CARTESIAN_POINT ( 'NONE',  ( 0.000000000000000000, -15.00000000000000000, 1.949999999999997735 ) ) ;
#23 = AXIS2_PLACEMENT_3D ( 'NONE', #12, #115, #321 ) ;
#24 = DIRECTION ( 'NONE',  ( 0.000000000000000000, 0.000000000000000000, 1.000000000000000000 ) ) ;
#25 = COORDINATED_UNIVERSAL_TIME_OFFSET ( 9, 0, .AHEAD. ) ;
#26 = CARTESIAN_POINT ( 'NONE',  ( 2.020667218593129550E-16, 0.000000000000000000, -1.649999999999997469 ) ) ;
#27 = PRODUCT_DEFINITION_FORMATION_WITH_SPECIFIED_SOURCE ( 'ANY', '', #228, .NOT_KNOWN. ) ;
#28 = LOCAL_TIME ( 11, 24, 28.00000000000000000, #68 ) ;
#29 = PERSON_AND_ORGANIZATION ( #83, #241 ) ;
#30 = EDGE_CURVE ( 'NONE', #145, #85, #58, .T. ) ;
#31 = ORIENTED_EDGE ( 'NONE', *, *, #259, .T. ) ;
#32 = ORIENTED_EDGE ( 'NONE', *, *, #161, .F. ) ;
#33 = ORIENTED_EDGE ( 'NONE', *, *, #219, .T. ) ;
#34 = AXIS2_PLACEMENT_3D ( 'NONE', #15, #236, #118 ) ;
#35 = VERTEX_POINT ( 'NONE', #102 ) ;
#36 = CC_DESIGN_PERSON_AND_ORGANIZATION_ASSIGNMENT ( #187, #311, ( #75 ) ) ;
#37 = ORIENTED_EDGE ( 'NONE', *, *, #11, .F. ) ;
#38 = CARTESIAN_POINT ( 'NONE',  ( 0.000000000000000000, -15.00000000000000000, 0.000000000000000000 ) ) ;
#39 =( NAMED_UNIT ( * ) SI_UNIT ( $, .STERADIAN. ) SOLID_ANGLE_UNIT ( ) );
#40 = FACE_BOUND ( 'NONE', #108, .T. ) ;
#41 = PLANE ( 'NONE',  #331 ) ;
#42 = LINE ( 'NONE', #282, #10 ) ;
#43 = DIRECTION ( 'NONE',  ( -0.000000000000000000, 1.000000000000000000, -0.000000000000000000 ) ) ;
#44 = ADVANCED_FACE ( 'NONE', ( #62 ), #205, .T. ) ;
#45 = CARTESIAN_POINT ( 'NONE',  ( 0.000000000000000000, -15.00000000000000000, 4.999999999999996447 ) ) ;
#46 = APPLICATION_CONTEXT ( 'configuration controlled 3d designs of mechanical parts and assemblies' ) ;
#47 = CARTESIAN_POINT ( 'NONE',  ( 0.000000000000000000, -13.50000000000000000, 0.000000000000000000 ) ) ;
#48 = AXIS2_PLACEMENT_3D ( 'NONE', #19, #334, #21 ) ;
#49 = DIRECTION ( 'NONE',  ( -0.000000000000000000, 1.000000000000000000, -0.000000000000000000 ) ) ;
#50 = LINE ( 'NONE', #26, #249 ) ;
#51 = CIRCLE ( 'NONE', #262, 4.999999999999996447 ) ;
#52 = CALENDAR_DATE ( 2022, 11, 3 ) ;
#53 = DATE_AND_TIME ( #52, #245 ) ;
#54 = COORDINATED_UNIVERSAL_TIME_OFFSET ( 9, 0, .AHEAD. ) ;
#55 = PRODUCT_DEFINITION ( 'UNKNOWN', '', #27, #109 ) ;
#56 = ORIENTED_EDGE ( 'NONE', *, *, #157, .T. ) ;
#57 = ORIENTED_EDGE ( 'NONE', *, *, #146, .F. ) ;
#58 = CIRCLE ( 'NONE', #288, 4.999999999999996447 ) ;
#59 = CC_DESIGN_SECURITY_CLASSIFICATION ( #75, ( #27 ) ) ;
#60 = EDGE_LOOP ( 'NONE', ( #86, #267, #32, #242 ) ) ;
#61 = EDGE_LOOP ( 'NONE', ( #299, #250 ) ) ;
#62 = FACE_OUTER_BOUND ( 'NONE', #296, .T. ) ;
#63 = ADVANCED_FACE ( 'NONE', ( #330 ), #276, .F. ) ;
#64 = DIRECTION ( 'NONE',  ( -0.000000000000000000, 1.000000000000000000, -0.000000000000000000 ) ) ;
#65 = PERSON_AND_ORGANIZATION ( #83, #241 ) ;
#66 = AXIS2_PLACEMENT_3D ( 'NONE', #77, #312, #24 ) ;
#67 = DIRECTION ( 'NONE',  ( 0.000000000000000000, -0.000000000000000000, -1.000000000000000000 ) ) ;
#68 = COORDINATED_UNIVERSAL_TIME_OFFSET ( 9, 0, .AHEAD. ) ;
#69 = DIRECTION ( 'NONE',  ( 0.000000000000000000, 0.000000000000000000, 1.000000000000000000 ) ) ;
#70 = EDGE_CURVE ( 'NONE', #145, #226, #175, .T. ) ;
#71 = DIRECTION ( 'NONE',  ( 0.000000000000000000, 0.000000000000000000, 1.000000000000000000 ) ) ;
#72 = DIRECTION ( 'NONE',  ( -0.000000000000000000, 1.000000000000000000, -0.000000000000000000 ) ) ;
#73 = DIRECTION ( 'NONE',  ( 0.000000000000000000, -1.000000000000000000, 0.000000000000000000 ) ) ;
#74 = AXIS2_PLACEMENT_3D ( 'NONE', #274, #178, #307 ) ;
#75 = SECURITY_CLASSIFICATION ( '', '', #243 ) ;
#76 = COORDINATED_UNIVERSAL_TIME_OFFSET ( 9, 0, .AHEAD. ) ;
#77 = CARTESIAN_POINT ( 'NONE',  ( 0.000000000000000000, -15.00000000000000000, 0.000000000000000000 ) ) ;
#78 = APPROVAL_ROLE ( '' ) ;
#79 = ADVANCED_FACE ( 'NONE', ( #40, #148 ), #198, .T. ) ;
#80 = APPROVAL_DATE_TIME ( #164, #133 ) ;
#81 = AXIS2_PLACEMENT_3D ( 'NONE', #152, #261, #327 ) ;
#82 = CC_DESIGN_APPROVAL ( #133, ( #75 ) ) ;
#83 = PERSON ( 'UNSPECIFIED', 'UNSPECIFIED', 'UNSPECIFIED', ('UNSPECIFIED'), ('UNSPECIFIED'), ('UNSPECIFIED') ) ;
#84 = APPROVAL_STATUS ( 'not_yet_approved' ) ;
#85 = VERTEX_POINT ( 'NONE', #253 ) ;
#86 = ORIENTED_EDGE ( 'NONE', *, *, #11, .T. ) ;
#87 = APPROVAL_PERSON_ORGANIZATION ( #13, #275, #323 ) ;
#88 = EDGE_LOOP ( 'NONE', ( #222, #196 ) ) ;
#89 = VERTEX_POINT ( 'NONE', #22 ) ;
#90 = ORIENTED_EDGE ( 'NONE', *, *, #217, .F. ) ;
#91 = LOCAL_TIME ( 11, 24, 28.00000000000000000, #54 ) ;
#92 = DIRECTION ( 'NONE',  ( -0.000000000000000000, 1.000000000000000000, -0.000000000000000000 ) ) ;
#93 = ADVANCED_FACE ( 'NONE', ( #303 ), #304, .F. ) ;
#94 = APPROVAL_DATE_TIME ( #125, #275 ) ;
#95 = CARTESIAN_POINT ( 'NONE',  ( 0.000000000000000000, 0.000000000000000000, 1.649999999999997469 ) ) ;
#96 = CARTESIAN_POINT ( 'NONE',  ( -3.469446951953614189E-15, -13.50000000000000178, 0.000000000000000000 ) ) ;
#97 = CARTESIAN_POINT ( 'NONE',  ( 0.000000000000000000, -3.673940397442039931E-18, 0.000000000000000000 ) ) ;
#98 = ADVANCED_FACE ( 'NONE', ( #150 ), #227, .F. ) ;
#99 = AXIS2_PLACEMENT_3D ( 'NONE', #97, #181, #302 ) ;
#100 = CARTESIAN_POINT ( 'NONE',  ( 0.000000000000000000, 0.000000000000000000, 0.000000000000000000 ) ) ;
#101 =( LENGTH_UNIT ( ) NAMED_UNIT ( * ) SI_UNIT ( .MILLI., .METRE. ) );
#102 = CARTESIAN_POINT ( 'NONE',  ( 2.388061258337336178E-16, -15.00000000000000000, -1.949999999999997735 ) ) ;
#103 = CARTESIAN_POINT ( 'NONE',  ( 2.388061258337336178E-16, 4.253003599660558187, -1.949999999999997957 ) ) ;
#104 = DIRECTION ( 'NONE',  ( -0.000000000000000000, 1.000000000000000000, -0.000000000000000000 ) ) ;
#105 = DATE_TIME_ROLE ( 'creation_date' ) ;
#106 = ORIENTED_EDGE ( 'NONE', *, *, #136, .T. ) ;
#107 = CIRCLE ( 'NONE', #154, 1.649999999999996581 ) ;
#108 = EDGE_LOOP ( 'NONE', ( #110, #172 ) ) ;
#109 = DESIGN_CONTEXT ( 'detailed design', #46, 'design' ) ;
#110 = ORIENTED_EDGE ( 'NONE', *, *, #259, .F. ) ;
#111 = ORIENTED_EDGE ( 'NONE', *, *, #157, .F. ) ;
#112 = ORIENTED_EDGE ( 'NONE', *, *, #219, .F. ) ;
#113 = CLOSED_SHELL ( 'NONE', ( #63, #7, #44, #235, #328, #294, #291, #79, #98, #93 ) ) ;
#114 = VERTEX_POINT ( 'NONE', #324 ) ;
#115 = DIRECTION ( 'NONE',  ( -0.000000000000000000, 1.000000000000000000, -0.000000000000000000 ) ) ;
#116 = CIRCLE ( 'NONE', #233, 1.649999999999998357 ) ;
#117 = FACE_OUTER_BOUND ( 'NONE', #317, .T. ) ;
#118 = DIRECTION ( 'NONE',  ( 0.000000000000000000, 0.000000000000000000, 1.000000000000000000 ) ) ;
#119 = CC_DESIGN_PERSON_AND_ORGANIZATION_ASSIGNMENT ( #65, #156, ( #228 ) ) ;
#120 = CARTESIAN_POINT ( 'NONE',  ( 0.000000000000000000, 4.253003599660558187, 4.999999999999997335 ) ) ;
#121 = APPLICATION_CONTEXT ( 'configuration controlled 3d designs of mechanical parts and assemblies' ) ;
#122 = CARTESIAN_POINT ( 'NONE',  ( 0.000000000000000000, -13.50000000000000000, 0.000000000000000000 ) ) ;
#123 = DIRECTION ( 'NONE',  ( -0.000000000000000000, 1.000000000000000000, -0.000000000000000000 ) ) ;
#124 = EDGE_CURVE ( 'NONE', #251, #193, #256, .T. ) ;
#125 = DATE_AND_TIME ( #234, #28 ) ;
#126 = VECTOR ( 'NONE', #310, 1000.000000000000000 ) ;
#127 = CARTESIAN_POINT ( 'NONE',  ( 6.123233995736763324E-16, 4.253003599660558187, -4.999999999999997335 ) ) ;
#128 = APPLICATION_PROTOCOL_DEFINITION ( 'international standard', 'config_control_design', 1994, #121 ) ;
#129 = DIRECTION ( 'NONE',  ( 0.000000000000000000, 0.000000000000000000, 1.000000000000000000 ) ) ;
#130 = PERSON_AND_ORGANIZATION_ROLE ( 'creator' ) ;
#131 = DIRECTION ( 'NONE',  ( 0.000000000000000000, 0.000000000000000000, 1.000000000000000000 ) ) ;
#132 = LOCAL_TIME ( 11, 24, 28.00000000000000000, #25 ) ;
#133 = APPROVAL ( #265, 'UNSPECIFIED' ) ;
#134 = LOCAL_TIME ( 11, 24, 28.00000000000000000, #76 ) ;
#135 = PERSON_AND_ORGANIZATION_ROLE ( 'design_supplier' ) ;
#136 = EDGE_CURVE ( 'NONE', #85, #9, #180, .T. ) ;
#137 = EDGE_CURVE ( 'NONE', #248, #89, #42, .T. ) ;
#138 = AXIS2_PLACEMENT_3D ( 'NONE', #212, #73, #1 ) ;
#139 = ORIENTED_EDGE ( 'NONE', *, *, #272, .F. ) ;
#140 = ORIENTED_EDGE ( 'NONE', *, *, #141, .F. ) ;
#141 = EDGE_CURVE ( 'NONE', #216, #248, #149, .T. ) ;
#142 = ORIENTED_EDGE ( 'NONE', *, *, #137, .F. ) ;
#143 = CIRCLE ( 'NONE', #244, 1.949999999999997735 ) ;
#144 = EDGE_LOOP ( 'NONE', ( #56, #271 ) ) ;
#145 = VERTEX_POINT ( 'NONE', #200 ) ;
#146 = EDGE_CURVE ( 'NONE', #226, #9, #305, .T. ) ;
#147 = DIRECTION ( 'NONE',  ( -0.000000000000000000, 1.000000000000000000, -0.000000000000000000 ) ) ;
#148 = FACE_OUTER_BOUND ( 'NONE', #61, .T. ) ;
#149 = CIRCLE ( 'NONE', #189, 1.949999999999998179 ) ;
#150 = FACE_OUTER_BOUND ( 'NONE', #144, .T. ) ;
#151 = DIRECTION ( 'NONE',  ( -0.000000000000000000, 1.000000000000000000, -0.000000000000000000 ) ) ;
#152 = CARTESIAN_POINT ( 'NONE',  ( 0.000000000000000000, 0.000000000000000000, 4.999999999999999112 ) ) ;
#153 = PRODUCT_DEFINITION_SHAPE ( 'NONE', 'NONE',  #55 ) ;
#154 = AXIS2_PLACEMENT_3D ( 'NONE', #47, #160, #285 ) ;
#155 = PLANE ( 'NONE',  #138 ) ;
#156 = PERSON_AND_ORGANIZATION_ROLE ( 'design_owner' ) ;
#157 = EDGE_CURVE ( 'NONE', #251, #114, #107, .T. ) ;
#158 = CARTESIAN_POINT ( 'NONE',  ( 2.020667218593130536E-16, -3.673940397442039931E-18, -1.649999999999998135 ) ) ;
#159 = CC_DESIGN_PERSON_AND_ORGANIZATION_ASSIGNMENT ( #191, #135, ( #27 ) ) ;
#160 = DIRECTION ( 'NONE',  ( -0.000000000000000000, 1.000000000000000000, -0.000000000000000000 ) ) ;
#161 = EDGE_CURVE ( 'NONE', #9, #226, #203, .T. ) ;
#162 = CALENDAR_DATE ( 2022, 11, 3 ) ;
#163 = PRODUCT_RELATED_PRODUCT_CATEGORY ( 'detail', '', ( #228 ) ) ;
#164 = DATE_AND_TIME ( #292, #91 ) ;
#165 = UNCERTAINTY_MEASURE_WITH_UNIT (LENGTH_MEASURE( 1.000000000000000082E-05 ), #101, 'distance_accuracy_value', 'NONE');
#166 = ORIENTED_EDGE ( 'NONE', *, *, #124, .F. ) ;
#167 = VECTOR ( 'NONE', #202, 1000.000000000000000 ) ;
#168 = APPROVAL_PERSON_ORGANIZATION ( #214, #322, #78 ) ;
#169 = EDGE_LOOP ( 'NONE', ( #316, #111, #171, #31 ) ) ;
#170 = VERTEX_POINT ( 'NONE', #158 ) ;
#171 = ORIENTED_EDGE ( 'NONE', *, *, #124, .T. ) ;
#172 = ORIENTED_EDGE ( 'NONE', *, *, #173, .F. ) ;
#173 = EDGE_CURVE ( 'NONE', #170, #193, #116, .T. ) ;
#174 = ORIENTED_EDGE ( 'NONE', *, *, #30, .T. ) ;
#175 = LINE ( 'NONE', #127, #293 ) ;
#176 = DIRECTION ( 'NONE',  ( 0.000000000000000000, -0.000000000000000000, -1.000000000000000000 ) ) ;
#177 = CARTESIAN_POINT ( 'NONE',  ( 0.000000000000000000, -15.00000000000000000, 0.000000000000000000 ) ) ;
#178 = DIRECTION ( 'NONE',  ( -0.000000000000000000, 1.000000000000000000, -0.000000000000000000 ) ) ;
#179 = DIRECTION ( 'NONE',  ( 0.000000000000000000, 0.000000000000000000, 1.000000000000000000 ) ) ;
#180 = LINE ( 'NONE', #120, #167 ) ;
#181 = DIRECTION ( 'NONE',  ( -0.000000000000000000, 1.000000000000000000, -0.000000000000000000 ) ) ;
#182 = AXIS2_PLACEMENT_3D ( 'NONE', #122, #279, #204 ) ;
#183 = DIRECTION ( 'NONE',  ( -0.000000000000000000, 1.000000000000000000, -0.000000000000000000 ) ) ;
#184 = CC_DESIGN_PERSON_AND_ORGANIZATION_ASSIGNMENT ( #29, #130, ( #27 ) ) ;
#185 = DATE_AND_TIME ( #239, #134 ) ;
#186 = CARTESIAN_POINT ( 'NONE',  ( 2.388061258337336671E-16, -16.50000000000000000, -1.949999999999998401 ) ) ;
#187 = PERSON_AND_ORGANIZATION ( #83, #241 ) ;
#188 = SHAPE_DEFINITION_REPRESENTATION ( #153, #208 ) ;
#189 = AXIS2_PLACEMENT_3D ( 'NONE', #252, #258, #20 ) ;
#190 = DATE_AND_TIME ( #162, #132 ) ;
#191 = PERSON_AND_ORGANIZATION ( #83, #241 ) ;
#192 = AXIS2_PLACEMENT_3D ( 'NONE', #209, #179, #309 ) ;
#193 = VERTEX_POINT ( 'NONE', #238 ) ;
#194 = EDGE_LOOP ( 'NONE', ( #139, #140 ) ) ;
#195 = ORIENTED_EDGE ( 'NONE', *, *, #221, .T. ) ;
#196 = ORIENTED_EDGE ( 'NONE', *, *, #289, .T. ) ;
#197 = CIRCLE ( 'NONE', #99, 1.649999999999998357 ) ;
#198 = PLANE ( 'NONE',  #81 ) ;
#199 = DIRECTION ( 'NONE',  ( -0.000000000000000000, 1.000000000000000000, -0.000000000000000000 ) ) ;
#200 = CARTESIAN_POINT ( 'NONE',  ( 6.123233995736762338E-16, -15.00000000000000000, -4.999999999999996447 ) ) ;
#201 = FACE_OUTER_BOUND ( 'NONE', #269, .T. ) ;
#202 = DIRECTION ( 'NONE',  ( -0.000000000000000000, 1.000000000000000000, -0.000000000000000000 ) ) ;
#203 = CIRCLE ( 'NONE', #6, 4.999999999999999112 ) ;
#204 = DIRECTION ( 'NONE',  ( 0.000000000000000000, 0.000000000000000000, 1.000000000000000000 ) ) ;
#205 = CYLINDRICAL_SURFACE ( 'NONE', #297, 1.949999999999997957 ) ;
#206 = CARTESIAN_POINT ( 'NONE',  ( 0.000000000000000000, -15.00000000000000000, 0.000000000000000000 ) ) ;
#207 = DIRECTION ( 'NONE',  ( 0.000000000000000000, -1.000000000000000000, 0.000000000000000000 ) ) ;
#208 = ADVANCED_BREP_SHAPE_REPRESENTATION ( 'B-122-28', ( #325, #192 ), #211 ) ;
#209 = CARTESIAN_POINT ( 'NONE',  ( 0.000000000000000000, 0.000000000000000000, 0.000000000000000000 ) ) ;
#210 = CARTESIAN_POINT ( 'NONE',  ( 0.000000000000000000, -3.673940397442039931E-18, 0.000000000000000000 ) ) ;
#211 =( GEOMETRIC_REPRESENTATION_CONTEXT ( 3 ) GLOBAL_UNCERTAINTY_ASSIGNED_CONTEXT ( ( #165 ) ) GLOBAL_UNIT_ASSIGNED_CONTEXT ( ( #101, #281, #39 ) ) REPRESENTATION_CONTEXT ( 'NONE', 'WORKASPACE' ) );
#212 = CARTESIAN_POINT ( 'NONE',  ( 0.000000000000000000, -16.50000000000000000, -2.541509943101779944E-15 ) ) ;
#213 = APPROVAL_ROLE ( '' ) ;
#214 = PERSON_AND_ORGANIZATION ( #83, #241 ) ;
#215 = AXIS2_PLACEMENT_3D ( 'NONE', #100, #92, #280 ) ;
#216 = VERTEX_POINT ( 'NONE', #186 ) ;
#217 = EDGE_CURVE ( 'NONE', #89, #35, #270, .T. ) ;
#218 = ORIENTED_EDGE ( 'NONE', *, *, #137, .T. ) ;
#219 = EDGE_CURVE ( 'NONE', #216, #35, #335, .T. ) ;
#220 = AXIS2_PLACEMENT_3D ( 'NONE', #301, #123, #18 ) ;
#221 = EDGE_CURVE ( 'NONE', #114, #170, #50, .T. ) ;
#222 = ORIENTED_EDGE ( 'NONE', *, *, #217, .T. ) ;
#223 = CC_DESIGN_DATE_AND_TIME_ASSIGNMENT ( #190, #105, ( #55 ) ) ;
#224 = DIRECTION ( 'NONE',  ( -0.000000000000000000, 1.000000000000000000, -0.000000000000000000 ) ) ;
#225 = CYLINDRICAL_SURFACE ( 'NONE', #14, 4.999999999999997335 ) ;
#226 = VERTEX_POINT ( 'NONE', #240 ) ;
#227 = PLANE ( 'NONE',  #3 ) ;
#228 = PRODUCT ( 'B-122-28', 'B-122-28', '', ( #231 ) ) ;
#229 = FACE_BOUND ( 'NONE', #88, .T. ) ;
#230 = CARTESIAN_POINT ( 'NONE',  ( 0.000000000000000000, 4.253003599660558187, 0.000000000000000000 ) ) ;
#231 = MECHANICAL_CONTEXT ( 'NONE', #121, 'mechanical' ) ;
#232 = FACE_OUTER_BOUND ( 'NONE', #60, .T. ) ;
#233 = AXIS2_PLACEMENT_3D ( 'NONE', #210, #104, #131 ) ;
#234 = CALENDAR_DATE ( 2022, 11, 3 ) ;
#235 = ADVANCED_FACE ( 'NONE', ( #263 ), #155, .T. ) ;
#236 = DIRECTION ( 'NONE',  ( -0.000000000000000000, 1.000000000000000000, -0.000000000000000000 ) ) ;
#237 = DIRECTION ( 'NONE',  ( 0.000000000000000000, -1.000000000000000000, 0.000000000000000000 ) ) ;
#238 = CARTESIAN_POINT ( 'NONE',  ( 0.000000000000000000, -3.673940397442039931E-18, 1.649999999999998357 ) ) ;
#239 = CALENDAR_DATE ( 2022, 11, 3 ) ;
#240 = CARTESIAN_POINT ( 'NONE',  ( 6.123233995736766282E-16, 0.000000000000000000, -5.000000000000000000 ) ) ;
#241 = ORGANIZATION ( 'UNSPECIFIED', 'UNSPECIFIED', '' ) ;
#242 = ORIENTED_EDGE ( 'NONE', *, *, #136, .F. ) ;
#243 = SECURITY_CLASSIFICATION_LEVEL ( 'unclassified' ) ;
#244 = AXIS2_PLACEMENT_3D ( 'NONE', #206, #64, #71 ) ;
#245 = LOCAL_TIME ( 11, 24, 28.00000000000000000, #5 ) ;
#246 = CC_DESIGN_DATE_AND_TIME_ASSIGNMENT ( #185, #287, ( #75 ) ) ;
#247 = EDGE_LOOP ( 'NONE', ( #112, #318, #218, #295 ) ) ;
#248 = VERTEX_POINT ( 'NONE', #264 ) ;
#249 = VECTOR ( 'NONE', #49, 1000.000000000000000 ) ;
#250 = ORIENTED_EDGE ( 'NONE', *, *, #146, .T. ) ;
#251 = VERTEX_POINT ( 'NONE', #17 ) ;
#252 = CARTESIAN_POINT ( 'NONE',  ( 0.000000000000000000, -16.50000000000000000, 0.000000000000000000 ) ) ;
#253 = CARTESIAN_POINT ( 'NONE',  ( 0.000000000000000000, -15.00000000000000000, 4.999999999999996447 ) ) ;
#254 = CIRCLE ( 'NONE', #48, 1.949999999999998179 ) ;
#255 = CARTESIAN_POINT ( 'NONE',  ( 0.000000000000000000, 4.253003599660558187, 0.000000000000000000 ) ) ;
#256 = LINE ( 'NONE', #95, #283 ) ;
#257 = APPLICATION_PROTOCOL_DEFINITION ( 'international standard', 'config_control_design', 1994, #46 ) ;
#258 = DIRECTION ( 'NONE',  ( -0.000000000000000000, 1.000000000000000000, -0.000000000000000000 ) ) ;
#259 = EDGE_CURVE ( 'NONE', #193, #170, #197, .T. ) ;
#260 = DIRECTION ( 'NONE',  ( 0.000000000000000000, 0.000000000000000000, 1.000000000000000000 ) ) ;
#261 = DIRECTION ( 'NONE',  ( -0.000000000000000000, 1.000000000000000000, 0.000000000000000000 ) ) ;
#262 = AXIS2_PLACEMENT_3D ( 'NONE', #38, #151, #306 ) ;
#263 = FACE_OUTER_BOUND ( 'NONE', #194, .T. ) ;
#264 = CARTESIAN_POINT ( 'NONE',  ( 0.000000000000000000, -16.50000000000000000, 1.949999999999998179 ) ) ;
#265 = APPROVAL_STATUS ( 'not_yet_approved' ) ;
#266 = APPROVAL_DATE_TIME ( #53, #322 ) ;
#267 = ORIENTED_EDGE ( 'NONE', *, *, #70, .T. ) ;
#268 = EDGE_LOOP ( 'NONE', ( #298, #195, #8, #166 ) ) ;
#269 = EDGE_LOOP ( 'NONE', ( #315, #174, #106, #57 ) ) ;
#270 = CIRCLE ( 'NONE', #66, 1.949999999999997735 ) ;
#271 = ORIENTED_EDGE ( 'NONE', *, *, #313, .T. ) ;
#272 = EDGE_CURVE ( 'NONE', #248, #216, #254, .T. ) ;
#273 = CARTESIAN_POINT ( 'NONE',  ( 0.000000000000000000, 0.000000000000000000, 4.999999999999999112 ) ) ;
#274 = CARTESIAN_POINT ( 'NONE',  ( 0.000000000000000000, 4.253003599660558187, 0.000000000000000000 ) ) ;
#275 = APPROVAL ( #329, 'UNSPECIFIED' ) ;
#276 = CYLINDRICAL_SURFACE ( 'NONE', #215, 1.649999999999997469 ) ;
#277 = CC_DESIGN_APPROVAL ( #275, ( #55 ) ) ;
#278 = DIRECTION ( 'NONE',  ( 0.000000000000000000, 0.000000000000000000, 1.000000000000000000 ) ) ;
#279 = DIRECTION ( 'NONE',  ( -0.000000000000000000, 1.000000000000000000, -0.000000000000000000 ) ) ;
#280 = DIRECTION ( 'NONE',  ( 0.000000000000000000, 0.000000000000000000, 1.000000000000000000 ) ) ;
#281 =( NAMED_UNIT ( * ) PLANE_ANGLE_UNIT ( ) SI_UNIT ( $, .RADIAN. ) );
#282 = CARTESIAN_POINT ( 'NONE',  ( 0.000000000000000000, 4.253003599660558187, 1.949999999999997957 ) ) ;
#283 = VECTOR ( 'NONE', #308, 1000.000000000000000 ) ;
#284 = CYLINDRICAL_SURFACE ( 'NONE', #74, 1.949999999999997957 ) ;
#285 = DIRECTION ( 'NONE',  ( 0.000000000000000000, 0.000000000000000000, 1.000000000000000000 ) ) ;
#286 = CARTESIAN_POINT ( 'NONE',  ( 0.000000000000000000, 0.000000000000000000, 0.000000000000000000 ) ) ;
#287 = DATE_TIME_ROLE ( 'classification_date' ) ;
#288 = AXIS2_PLACEMENT_3D ( 'NONE', #177, #224, #69 ) ;
#289 = EDGE_CURVE ( 'NONE', #35, #89, #143, .T. ) ;
#290 = PERSON_AND_ORGANIZATION_ROLE ( 'creator' ) ;
#291 = ADVANCED_FACE ( 'NONE', ( #201 ), #225, .T. ) ;
#292 = CALENDAR_DATE ( 2022, 11, 3 ) ;
#293 = VECTOR ( 'NONE', #43, 1000.000000000000000 ) ;
#294 = ADVANCED_FACE ( 'NONE', ( #229, #117 ), #41, .T. ) ;
#295 = ORIENTED_EDGE ( 'NONE', *, *, #289, .F. ) ;
#296 = EDGE_LOOP ( 'NONE', ( #300, #33, #90, #142 ) ) ;
#297 = AXIS2_PLACEMENT_3D ( 'NONE', #230, #72, #278 ) ;
#298 = ORIENTED_EDGE ( 'NONE', *, *, #313, .F. ) ;
#299 = ORIENTED_EDGE ( 'NONE', *, *, #161, .T. ) ;
#300 = ORIENTED_EDGE ( 'NONE', *, *, #272, .T. ) ;
#301 = CARTESIAN_POINT ( 'NONE',  ( 0.000000000000000000, 4.253003599660558187, 0.000000000000000000 ) ) ;
#302 = DIRECTION ( 'NONE',  ( 0.000000000000000000, 0.000000000000000000, 1.000000000000000000 ) ) ;
#303 = FACE_OUTER_BOUND ( 'NONE', #169, .T. ) ;
#304 = CYLINDRICAL_SURFACE ( 'NONE', #34, 1.649999999999997469 ) ;
#305 = CIRCLE ( 'NONE', #23, 4.999999999999999112 ) ;
#306 = DIRECTION ( 'NONE',  ( 0.000000000000000000, 0.000000000000000000, 1.000000000000000000 ) ) ;
#307 = DIRECTION ( 'NONE',  ( 0.000000000000000000, 0.000000000000000000, 1.000000000000000000 ) ) ;
#308 = DIRECTION ( 'NONE',  ( -0.000000000000000000, 1.000000000000000000, -0.000000000000000000 ) ) ;
#309 = DIRECTION ( 'NONE',  ( 1.000000000000000000, 0.000000000000000000, 0.000000000000000000 ) ) ;
#310 = DIRECTION ( 'NONE',  ( -0.000000000000000000, 1.000000000000000000, -0.000000000000000000 ) ) ;
#311 = PERSON_AND_ORGANIZATION_ROLE ( 'classification_officer' ) ;
#312 = DIRECTION ( 'NONE',  ( -0.000000000000000000, 1.000000000000000000, -0.000000000000000000 ) ) ;
#313 = EDGE_CURVE ( 'NONE', #114, #251, #320, .T. ) ;
#314 = PERSON_AND_ORGANIZATION ( #83, #241 ) ;
#315 = ORIENTED_EDGE ( 'NONE', *, *, #70, .F. ) ;
#316 = ORIENTED_EDGE ( 'NONE', *, *, #221, .F. ) ;
#317 = EDGE_LOOP ( 'NONE', ( #37, #319 ) ) ;
#318 = ORIENTED_EDGE ( 'NONE', *, *, #141, .T. ) ;
#319 = ORIENTED_EDGE ( 'NONE', *, *, #30, .F. ) ;
#320 = CIRCLE ( 'NONE', #182, 1.649999999999996581 ) ;
#321 = DIRECTION ( 'NONE',  ( 0.000000000000000000, 0.000000000000000000, 1.000000000000000000 ) ) ;
#322 = APPROVAL ( #84, 'UNSPECIFIED' ) ;
#323 = APPROVAL_ROLE ( '' ) ;
#324 = CARTESIAN_POINT ( 'NONE',  ( 2.020667218593129304E-16, -13.50000000000000000, -1.649999999999996581 ) ) ;
#325 = MANIFOLD_SOLID_BREP ( 'M4x0.7 ‚Ë‚¶ŒŠ1', #113 ) ;
#326 = FACE_OUTER_BOUND ( 'NONE', #247, .T. ) ;
#327 = DIRECTION ( 'NONE',  ( 0.000000000000000000, 0.000000000000000000, 1.000000000000000000 ) ) ;
#328 = ADVANCED_FACE ( 'NONE', ( #326 ), #284, .T. ) ;
#329 = APPROVAL_STATUS ( 'not_yet_approved' ) ;
#330 = FACE_OUTER_BOUND ( 'NONE', #268, .T. ) ;
#331 = AXIS2_PLACEMENT_3D ( 'NONE', #45, #237, #176 ) ;
#332 = PERSON_AND_ORGANIZATION ( #83, #241 ) ;
#333 = CYLINDRICAL_SURFACE ( 'NONE', #220, 4.999999999999997335 ) ;
#334 = DIRECTION ( 'NONE',  ( -0.000000000000000000, 1.000000000000000000, -0.000000000000000000 ) ) ;
#335 = LINE ( 'NONE', #103, #126 ) ;
ENDSEC;
END-ISO-10303-21;
