ISO-10303-21;
HEADER;
FILE_DESCRIPTION (( 'STEP AP203' ),
    '1' );
FILE_NAME ('B-122-27.STEP',
    '2022-03-11T02:23:07',
    ( '' ),
    ( '' ),
    'SwSTEP 2.0',
    'SolidWorks 2021',
    '' );
FILE_SCHEMA (( 'CONFIG_CONTROL_DESIGN' ));
ENDSEC;

DATA;
#1 = LINE ( 'NONE', #6, #211 ) ;
#2 = ADVANCED_FACE ( 'NONE', ( #86, #270 ), #265, .T. ) ;
#3 = ORIENTED_EDGE ( 'NONE', *, *, #119, .F. ) ;
#4 = APPROVAL_ROLE ( '' ) ;
#5 = ORIENTED_EDGE ( 'NONE', *, *, #178, .T. ) ;
#6 = CARTESIAN_POINT ( 'NONE',  ( 6.123233995736763324E-16, 4.253003599660558187, -4.999999999999997335 ) ) ;
#7 = EDGE_LOOP ( 'NONE', ( #215, #133, #312, #255 ) ) ;
#8 = CIRCLE ( 'NONE', #308, 4.999999999999999112 ) ;
#9 = PLANE ( 'NONE',  #18 ) ;
#10 = DIRECTION ( 'NONE',  ( 0.000000000000000000, -1.000000000000000000, 0.000000000000000000 ) ) ;
#11 = ORIENTED_EDGE ( 'NONE', *, *, #239, .T. ) ;
#12 = CARTESIAN_POINT ( 'NONE',  ( 0.000000000000000000, -15.00000000000000000, 1.949999999999997735 ) ) ;
#13 = AXIS2_PLACEMENT_3D ( 'NONE', #311, #252, #108 ) ;
#14 =( GEOMETRIC_REPRESENTATION_CONTEXT ( 3 ) GLOBAL_UNCERTAINTY_ASSIGNED_CONTEXT ( ( #219 ) ) GLOBAL_UNIT_ASSIGNED_CONTEXT ( ( #23, #225, #174 ) ) REPRESENTATION_CONTEXT ( 'NONE', 'WORKASPACE' ) );
#15 = DIRECTION ( 'NONE',  ( -0.000000000000000000, 1.000000000000000000, -0.000000000000000000 ) ) ;
#16 = DIRECTION ( 'NONE',  ( 0.000000000000000000, 0.000000000000000000, 1.000000000000000000 ) ) ;
#17 = CARTESIAN_POINT ( 'NONE',  ( 0.000000000000000000, 0.000000000000000000, 0.000000000000000000 ) ) ;
#18 = AXIS2_PLACEMENT_3D ( 'NONE', #189, #38, #238 ) ;
#19 = CARTESIAN_POINT ( 'NONE',  ( 0.000000000000000000, 0.000000000000000000, 0.000000000000000000 ) ) ;
#20 = APPROVAL_DATE_TIME ( #254, #274 ) ;
#21 = CALENDAR_DATE ( 2022, 11, 3 ) ;
#22 = EDGE_LOOP ( 'NONE', ( #228, #62, #101, #317 ) ) ;
#23 =( LENGTH_UNIT ( ) NAMED_UNIT ( * ) SI_UNIT ( .MILLI., .METRE. ) );
#24 = CIRCLE ( 'NONE', #278, 1.949999999999997735 ) ;
#25 = APPROVAL_STATUS ( 'not_yet_approved' ) ;
#26 = VERTEX_POINT ( 'NONE', #81 ) ;
#27 = EDGE_LOOP ( 'NONE', ( #105, #36 ) ) ;
#28 = ORIENTED_EDGE ( 'NONE', *, *, #157, .F. ) ;
#29 = ADVANCED_FACE ( 'NONE', ( #267, #319 ), #139, .T. ) ;
#30 = AXIS2_PLACEMENT_3D ( 'NONE', #232, #316, #124 ) ;
#31 = AXIS2_PLACEMENT_3D ( 'NONE', #229, #258, #153 ) ;
#32 = APPROVAL_DATE_TIME ( #116, #192 ) ;
#33 = DIRECTION ( 'NONE',  ( 0.000000000000000000, 0.000000000000000000, 1.000000000000000000 ) ) ;
#34 = DIRECTION ( 'NONE',  ( 0.000000000000000000, -0.000000000000000000, -1.000000000000000000 ) ) ;
#35 = APPROVAL_STATUS ( 'not_yet_approved' ) ;
#36 = ORIENTED_EDGE ( 'NONE', *, *, #157, .T. ) ;
#37 = PERSON_AND_ORGANIZATION ( #162, #49 ) ;
#38 = DIRECTION ( 'NONE',  ( 0.000000000000000000, -1.000000000000000000, 0.000000000000000000 ) ) ;
#39 = PRODUCT ( 'B-122-27', 'B-122-27', '', ( #205 ) ) ;
#40 = DIRECTION ( 'NONE',  ( -0.000000000000000000, 1.000000000000000000, -0.000000000000000000 ) ) ;
#41 = CC_DESIGN_PERSON_AND_ORGANIZATION_ASSIGNMENT ( #182, #262, ( #236 ) ) ;
#42 = DIRECTION ( 'NONE',  ( -0.000000000000000000, 1.000000000000000000, -0.000000000000000000 ) ) ;
#43 = DIRECTION ( 'NONE',  ( -0.000000000000000000, 1.000000000000000000, -0.000000000000000000 ) ) ;
#44 = CARTESIAN_POINT ( 'NONE',  ( 0.000000000000000000, -15.00000000000000000, 0.000000000000000000 ) ) ;
#45 = EDGE_CURVE ( 'NONE', #152, #56, #272, .T. ) ;
#46 = DIRECTION ( 'NONE',  ( 0.000000000000000000, 0.000000000000000000, 1.000000000000000000 ) ) ;
#47 = AXIS2_PLACEMENT_3D ( 'NONE', #198, #271, #248 ) ;
#49 = ORGANIZATION ( 'UNSPECIFIED', 'UNSPECIFIED', '' ) ;
#48 = CALENDAR_DATE ( 2022, 11, 3 ) ;
#50 = PERSON_AND_ORGANIZATION ( #162, #49 ) ;
#51 = VERTEX_POINT ( 'NONE', #294 ) ;
#52 = ADVANCED_FACE ( 'NONE', ( #142 ), #9, .F. ) ;
#53 = DATE_TIME_ROLE ( 'creation_date' ) ;
#54 = APPROVAL_STATUS ( 'not_yet_approved' ) ;
#55 = VECTOR ( 'NONE', #165, 1000.000000000000000 ) ;
#56 = VERTEX_POINT ( 'NONE', #110 ) ;
#57 = EDGE_CURVE ( 'NONE', #256, #130, #166, .T. ) ;
#58 = ORIENTED_EDGE ( 'NONE', *, *, #57, .F. ) ;
#59 = DIRECTION ( 'NONE',  ( -0.000000000000000000, 1.000000000000000000, -0.000000000000000000 ) ) ;
#60 = DIRECTION ( 'NONE',  ( 0.000000000000000000, 0.000000000000000000, 1.000000000000000000 ) ) ;
#61 = PRODUCT_DEFINITION ( 'UNKNOWN', '', #145, #244 ) ;
#62 = ORIENTED_EDGE ( 'NONE', *, *, #307, .F. ) ;
#63 = AXIS2_PLACEMENT_3D ( 'NONE', #163, #10, #34 ) ;
#64 = FACE_OUTER_BOUND ( 'NONE', #279, .T. ) ;
#65 = CIRCLE ( 'NONE', #84, 2.099999999999999201 ) ;
#66 = DIRECTION ( 'NONE',  ( 0.000000000000000000, 0.000000000000000000, 1.000000000000000000 ) ) ;
#67 = CC_DESIGN_PERSON_AND_ORGANIZATION_ASSIGNMENT ( #200, #313, ( #145 ) ) ;
#68 = LINE ( 'NONE', #218, #293 ) ;
#69 = CARTESIAN_POINT ( 'NONE',  ( 2.388061258337336671E-16, -16.50000000000000000, -1.949999999999998401 ) ) ;
#70 = CIRCLE ( 'NONE', #13, 4.999999999999996447 ) ;
#71 = DIRECTION ( 'NONE',  ( 0.000000000000000000, 0.000000000000000000, 1.000000000000000000 ) ) ;
#72 = CARTESIAN_POINT ( 'NONE',  ( 2.571758278209440478E-16, -4.286263797015761401E-18, -2.099999999999999201 ) ) ;
#73 = LINE ( 'NONE', #329, #89 ) ;
#74 = ADVANCED_FACE ( 'NONE', ( #64 ), #240, .T. ) ;
#75 = VERTEX_POINT ( 'NONE', #289 ) ;
#76 = VERTEX_POINT ( 'NONE', #159 ) ;
#77 = PERSON_AND_ORGANIZATION ( #162, #49 ) ;
#78 = ORIENTED_EDGE ( 'NONE', *, *, #138, .F. ) ;
#79 = SECURITY_CLASSIFICATION_LEVEL ( 'unclassified' ) ;
#80 = COORDINATED_UNIVERSAL_TIME_OFFSET ( 9, 0, .AHEAD. ) ;
#81 = CARTESIAN_POINT ( 'NONE',  ( 2.571758278209438999E-16, -13.50000000000000000, -2.099999999999997424 ) ) ;
#82 = AXIS2_PLACEMENT_3D ( 'NONE', #164, #83, #323 ) ;
#83 = DIRECTION ( 'NONE',  ( 0.000000000000000000, -1.000000000000000000, 0.000000000000000000 ) ) ;
#84 = AXIS2_PLACEMENT_3D ( 'NONE', #224, #42, #172 ) ;
#85 = PRODUCT_DEFINITION_SHAPE ( 'NONE', 'NONE',  #61 ) ;
#86 = FACE_BOUND ( 'NONE', #199, .T. ) ;
#87 = AXIS2_PLACEMENT_3D ( 'NONE', #144, #275, #16 ) ;
#88 = EDGE_LOOP ( 'NONE', ( #78, #161, #156, #314 ) ) ;
#89 = VECTOR ( 'NONE', #92, 1000.000000000000000 ) ;
#90 = ADVANCED_FACE ( 'NONE', ( #216 ), #268, .T. ) ;
#91 = CARTESIAN_POINT ( 'NONE',  ( 0.000000000000000000, 0.000000000000000000, 4.999999999999999112 ) ) ;
#92 = DIRECTION ( 'NONE',  ( -0.000000000000000000, 1.000000000000000000, -0.000000000000000000 ) ) ;
#93 = CYLINDRICAL_SURFACE ( 'NONE', #181, 1.949999999999997957 ) ;
#94 = APPLICATION_CONTEXT ( 'configuration controlled 3d designs of mechanical parts and assemblies' ) ;
#95 = CC_DESIGN_PERSON_AND_ORGANIZATION_ASSIGNMENT ( #77, #151, ( #39 ) ) ;
#96 = LINE ( 'NONE', #197, #158 ) ;
#97 = FACE_OUTER_BOUND ( 'NONE', #137, .T. ) ;
#98 = ADVANCED_FACE ( 'NONE', ( #112 ), #210, .T. ) ;
#99 = DATE_AND_TIME ( #48, #303 ) ;
#100 = AXIS2_PLACEMENT_3D ( 'NONE', #292, #298, #33 ) ;
#101 = ORIENTED_EDGE ( 'NONE', *, *, #302, .T. ) ;
#103 = APPROVAL_PERSON_ORGANIZATION ( #257, #274, #4 ) ;
#102 = PERSON_AND_ORGANIZATION ( #162, #49 ) ;
#104 = PERSON_AND_ORGANIZATION_ROLE ( 'creator' ) ;
#105 = ORIENTED_EDGE ( 'NONE', *, *, #226, .T. ) ;
#106 = PERSON_AND_ORGANIZATION ( #162, #49 ) ;
#107 = ORIENTED_EDGE ( 'NONE', *, *, #269, .F. ) ;
#108 = DIRECTION ( 'NONE',  ( 0.000000000000000000, 0.000000000000000000, 1.000000000000000000 ) ) ;
#109 = VERTEX_POINT ( 'NONE', #12 ) ;
#110 = CARTESIAN_POINT ( 'NONE',  ( 0.000000000000000000, -15.00000000000000000, 4.999999999999996447 ) ) ;
#111 = EDGE_CURVE ( 'NONE', #134, #75, #68, .T. ) ;
#112 = FACE_OUTER_BOUND ( 'NONE', #234, .T. ) ;
#113 = AXIS2_PLACEMENT_3D ( 'NONE', #325, #241, #140 ) ;
#114 = VERTEX_POINT ( 'NONE', #147 ) ;
#115 = LOCAL_TIME ( 11, 23, 7.000000000000000000, #80 ) ;
#116 = DATE_AND_TIME ( #212, #173 ) ;
#117 = DIRECTION ( 'NONE',  ( -0.000000000000000000, 1.000000000000000000, -0.000000000000000000 ) ) ;
#118 = CARTESIAN_POINT ( 'NONE',  ( 0.000000000000000000, 4.253003599660558187, 0.000000000000000000 ) ) ;
#119 = EDGE_CURVE ( 'NONE', #134, #76, #233, .T. ) ;
#120 = DIRECTION ( 'NONE',  ( -0.000000000000000000, 1.000000000000000000, -0.000000000000000000 ) ) ;
#121 = CARTESIAN_POINT ( 'NONE',  ( 0.000000000000000000, 4.253003599660558187, 1.949999999999997957 ) ) ;
#122 = CIRCLE ( 'NONE', #47, 2.099999999999997424 ) ;
#123 = DIRECTION ( 'NONE',  ( -0.000000000000000000, 1.000000000000000000, -0.000000000000000000 ) ) ;
#124 = DIRECTION ( 'NONE',  ( 0.000000000000000000, 0.000000000000000000, 1.000000000000000000 ) ) ;
#125 = EDGE_CURVE ( 'NONE', #76, #109, #143, .T. ) ;
#126 = AXIS2_PLACEMENT_3D ( 'NONE', #160, #59, #186 ) ;
#127 = ORIENTED_EDGE ( 'NONE', *, *, #318, .F. ) ;
#129 = CYLINDRICAL_SURFACE ( 'NONE', #30, 2.099999999999998312 ) ;
#128 = APPROVAL_PERSON_ORGANIZATION ( #50, #185, #176 ) ;
#130 = VERTEX_POINT ( 'NONE', #304 ) ;
#131 = COORDINATED_UNIVERSAL_TIME_OFFSET ( 9, 0, .AHEAD. ) ;
#132 = PRODUCT_RELATED_PRODUCT_CATEGORY ( 'detail', '', ( #39 ) ) ;
#133 = ORIENTED_EDGE ( 'NONE', *, *, #119, .T. ) ;
#134 = VERTEX_POINT ( 'NONE', #69 ) ;
#135 = AXIS2_PLACEMENT_3D ( 'NONE', #194, #43, #146 ) ;
#136 = LOCAL_TIME ( 11, 23, 7.000000000000000000, #187 ) ;
#137 = EDGE_LOOP ( 'NONE', ( #154, #237, #230, #280 ) ) ;
#138 = EDGE_CURVE ( 'NONE', #26, #114, #122, .T. ) ;
#139 = PLANE ( 'NONE',  #100 ) ;
#140 = DIRECTION ( 'NONE',  ( 0.000000000000000000, 0.000000000000000000, 1.000000000000000000 ) ) ;
#141 = APPROVAL_ROLE ( '' ) ;
#142 = FACE_OUTER_BOUND ( 'NONE', #284, .T. ) ;
#143 = LINE ( 'NONE', #121, #171 ) ;
#144 = CARTESIAN_POINT ( 'NONE',  ( 0.000000000000000000, -16.50000000000000000, 0.000000000000000000 ) ) ;
#145 = PRODUCT_DEFINITION_FORMATION_WITH_SPECIFIED_SOURCE ( 'ANY', '', #39, .NOT_KNOWN. ) ;
#146 = DIRECTION ( 'NONE',  ( 0.000000000000000000, 0.000000000000000000, 1.000000000000000000 ) ) ;
#147 = CARTESIAN_POINT ( 'NONE',  ( 0.000000000000000000, -13.50000000000000000, 2.099999999999997424 ) ) ;
#148 = CARTESIAN_POINT ( 'NONE',  ( 0.000000000000000000, -15.00000000000000000, 0.000000000000000000 ) ) ;
#149 = APPLICATION_PROTOCOL_DEFINITION ( 'international standard', 'config_control_design', 1994, #94 ) ;
#150 = ADVANCED_FACE ( 'NONE', ( #251 ), #221, .F. ) ;
#151 = PERSON_AND_ORGANIZATION_ROLE ( 'design_owner' ) ;
#152 = VERTEX_POINT ( 'NONE', #276 ) ;
#153 = DIRECTION ( 'NONE',  ( 1.000000000000000000, 0.000000000000000000, 0.000000000000000000 ) ) ;
#154 = ORIENTED_EDGE ( 'NONE', *, *, #222, .T. ) ;
#155 = FACE_OUTER_BOUND ( 'NONE', #22, .T. ) ;
#156 = ORIENTED_EDGE ( 'NONE', *, *, #57, .T. ) ;
#157 = EDGE_CURVE ( 'NONE', #51, #206, #261, .T. ) ;
#158 = VECTOR ( 'NONE', #332, 1000.000000000000000 ) ;
#159 = CARTESIAN_POINT ( 'NONE',  ( 0.000000000000000000, -16.50000000000000000, 1.949999999999998179 ) ) ;
#160 = CARTESIAN_POINT ( 'NONE',  ( 0.000000000000000000, -15.00000000000000000, 0.000000000000000000 ) ) ;
#161 = ORIENTED_EDGE ( 'NONE', *, *, #249, .T. ) ;
#162 = PERSON ( 'UNSPECIFIED', 'UNSPECIFIED', 'UNSPECIFIED', ('UNSPECIFIED'), ('UNSPECIFIED'), ('UNSPECIFIED') ) ;
#163 = CARTESIAN_POINT ( 'NONE',  ( 0.000000000000000000, -16.50000000000000000, -2.541509943101779944E-15 ) ) ;
#164 = CARTESIAN_POINT ( 'NONE',  ( 0.000000000000000000, -15.00000000000000000, 4.999999999999996447 ) ) ;
#165 = DIRECTION ( 'NONE',  ( -0.000000000000000000, 1.000000000000000000, -0.000000000000000000 ) ) ;
#166 = CIRCLE ( 'NONE', #113, 2.099999999999999201 ) ;
#167 = DIRECTION ( 'NONE',  ( -0.000000000000000000, 1.000000000000000000, -0.000000000000000000 ) ) ;
#168 = CC_DESIGN_SECURITY_CLASSIFICATION ( #236, ( #145 ) ) ;
#169 = LINE ( 'NONE', #250, #55 ) ;
#170 = DIRECTION ( 'NONE',  ( 0.000000000000000000, 0.000000000000000000, 1.000000000000000000 ) ) ;
#171 = VECTOR ( 'NONE', #15, 1000.000000000000000 ) ;
#172 = DIRECTION ( 'NONE',  ( 0.000000000000000000, 0.000000000000000000, 1.000000000000000000 ) ) ;
#173 = LOCAL_TIME ( 11, 23, 7.000000000000000000, #291 ) ;
#174 =( NAMED_UNIT ( * ) SI_UNIT ( $, .STERADIAN. ) SOLID_ANGLE_UNIT ( ) );
#175 = ORIENTED_EDGE ( 'NONE', *, *, #239, .F. ) ;
#176 = APPROVAL_ROLE ( '' ) ;
#177 = ORIENTED_EDGE ( 'NONE', *, *, #307, .T. ) ;
#178 = EDGE_CURVE ( 'NONE', #109, #75, #296, .T. ) ;
#179 = APPLICATION_PROTOCOL_DEFINITION ( 'international standard', 'config_control_design', 1994, #180 ) ;
#180 = APPLICATION_CONTEXT ( 'configuration controlled 3d designs of mechanical parts and assemblies' ) ;
#181 = AXIS2_PLACEMENT_3D ( 'NONE', #118, #217, #71 ) ;
#182 = PERSON_AND_ORGANIZATION ( #162, #49 ) ;
#183 = ORIENTED_EDGE ( 'NONE', *, *, #264, .T. ) ;
#184 = DATE_AND_TIME ( #266, #136 ) ;
#185 = APPROVAL ( #54, 'UNSPECIFIED' ) ;
#186 = DIRECTION ( 'NONE',  ( 0.000000000000000000, 0.000000000000000000, 1.000000000000000000 ) ) ;
#187 = COORDINATED_UNIVERSAL_TIME_OFFSET ( 9, 0, .AHEAD. ) ;
#188 = DIRECTION ( 'NONE',  ( -0.000000000000000000, 1.000000000000000000, -0.000000000000000000 ) ) ;
#189 = CARTESIAN_POINT ( 'NONE',  ( -3.469446951953614189E-15, -13.50000000000000000, 0.000000000000000000 ) ) ;
#190 = ORIENTED_EDGE ( 'NONE', *, *, #333, .F. ) ;
#191 = DIRECTION ( 'NONE',  ( -0.000000000000000000, 1.000000000000000000, -0.000000000000000000 ) ) ;
#192 = APPROVAL ( #35, 'UNSPECIFIED' ) ;
#193 = CARTESIAN_POINT ( 'NONE',  ( 0.000000000000000000, 4.253003599660558187, 0.000000000000000000 ) ) ;
#194 = CARTESIAN_POINT ( 'NONE',  ( 0.000000000000000000, -13.50000000000000000, 0.000000000000000000 ) ) ;
#195 = DIRECTION ( 'NONE',  ( -0.000000000000000000, 1.000000000000000000, -0.000000000000000000 ) ) ;
#196 = AXIS2_PLACEMENT_3D ( 'NONE', #44, #40, #242 ) ;
#197 = CARTESIAN_POINT ( 'NONE',  ( 2.571758278209439492E-16, 0.000000000000000000, -2.099999999999998312 ) ) ;
#198 = CARTESIAN_POINT ( 'NONE',  ( 0.000000000000000000, -13.50000000000000000, 0.000000000000000000 ) ) ;
#199 = EDGE_LOOP ( 'NONE', ( #5, #183 ) ) ;
#200 = PERSON_AND_ORGANIZATION ( #162, #49 ) ;
#201 = COORDINATED_UNIVERSAL_TIME_OFFSET ( 9, 0, .AHEAD. ) ;
#202 = PERSON_AND_ORGANIZATION_ROLE ( 'creator' ) ;
#203 = ORIENTED_EDGE ( 'NONE', *, *, #318, .T. ) ;
#204 = AXIS2_PLACEMENT_3D ( 'NONE', #193, #299, #306 ) ;
#205 = MECHANICAL_CONTEXT ( 'NONE', #94, 'mechanical' ) ;
#206 = VERTEX_POINT ( 'NONE', #91 ) ;
#207 = ADVANCED_FACE ( 'NONE', ( #97 ), #93, .T. ) ;
#208 = CARTESIAN_POINT ( 'NONE',  ( 0.000000000000000000, 4.253003599660558187, 0.000000000000000000 ) ) ;
#209 = SHAPE_DEFINITION_REPRESENTATION ( #85, #295 ) ;
#210 = CYLINDRICAL_SURFACE ( 'NONE', #282, 4.999999999999997335 ) ;
#211 = VECTOR ( 'NONE', #283, 1000.000000000000000 ) ;
#212 = CALENDAR_DATE ( 2022, 11, 3 ) ;
#213 = CC_DESIGN_DATE_AND_TIME_ASSIGNMENT ( #184, #287, ( #236 ) ) ;
#214 = ORIENTED_EDGE ( 'NONE', *, *, #222, .F. ) ;
#215 = ORIENTED_EDGE ( 'NONE', *, *, #111, .F. ) ;
#216 = FACE_OUTER_BOUND ( 'NONE', #7, .T. ) ;
#217 = DIRECTION ( 'NONE',  ( -0.000000000000000000, 1.000000000000000000, -0.000000000000000000 ) ) ;
#218 = CARTESIAN_POINT ( 'NONE',  ( 2.388061258337336178E-16, 4.253003599660558187, -1.949999999999997957 ) ) ;
#219 = UNCERTAINTY_MEASURE_WITH_UNIT (LENGTH_MEASURE( 1.000000000000000082E-05 ), #23, 'distance_accuracy_value', 'NONE');
#220 = FACE_OUTER_BOUND ( 'NONE', #231, .T. ) ;
#221 = CYLINDRICAL_SURFACE ( 'NONE', #285, 2.099999999999998312 ) ;
#222 = EDGE_CURVE ( 'NONE', #76, #134, #235, .T. ) ;
#223 = AXIS2_PLACEMENT_3D ( 'NONE', #331, #120, #327 ) ;
#224 = CARTESIAN_POINT ( 'NONE',  ( 0.000000000000000000, -4.286263797015761401E-18, 0.000000000000000000 ) ) ;
#225 =( NAMED_UNIT ( * ) PLANE_ANGLE_UNIT ( ) SI_UNIT ( $, .RADIAN. ) );
#226 = EDGE_CURVE ( 'NONE', #206, #51, #8, .T. ) ;
#227 = DATE_AND_TIME ( #21, #247 ) ;
#228 = ORIENTED_EDGE ( 'NONE', *, *, #249, .F. ) ;
#229 = CARTESIAN_POINT ( 'NONE',  ( 0.000000000000000000, 0.000000000000000000, 0.000000000000000000 ) ) ;
#230 = ORIENTED_EDGE ( 'NONE', *, *, #178, .F. ) ;
#231 = EDGE_LOOP ( 'NONE', ( #127, #322, #11, #28 ) ) ;
#232 = CARTESIAN_POINT ( 'NONE',  ( 0.000000000000000000, 0.000000000000000000, 0.000000000000000000 ) ) ;
#233 = CIRCLE ( 'NONE', #87, 1.949999999999998179 ) ;
#234 = EDGE_LOOP ( 'NONE', ( #263, #203, #310, #175 ) ) ;
#235 = CIRCLE ( 'NONE', #223, 1.949999999999998179 ) ;
#236 = SECURITY_CLASSIFICATION ( '', '', #79 ) ;
#237 = ORIENTED_EDGE ( 'NONE', *, *, #111, .T. ) ;
#238 = DIRECTION ( 'NONE',  ( 0.000000000000000000, -0.000000000000000000, -1.000000000000000000 ) ) ;
#239 = EDGE_CURVE ( 'NONE', #56, #206, #169, .T. ) ;
#240 = PLANE ( 'NONE',  #63 ) ;
#241 = DIRECTION ( 'NONE',  ( -0.000000000000000000, 1.000000000000000000, -0.000000000000000000 ) ) ;
#242 = DIRECTION ( 'NONE',  ( 0.000000000000000000, 0.000000000000000000, 1.000000000000000000 ) ) ;
#243 = CLOSED_SHELL ( 'NONE', ( #150, #98, #207, #74, #90, #2, #253, #29, #52, #328 ) ) ;
#244 = DESIGN_CONTEXT ( 'detailed design', #180, 'design' ) ;
#245 = CC_DESIGN_PERSON_AND_ORGANIZATION_ASSIGNMENT ( #102, #104, ( #61 ) ) ;
#246 = CARTESIAN_POINT ( 'NONE',  ( 0.000000000000000000, 0.000000000000000000, 0.000000000000000000 ) ) ;
#247 = LOCAL_TIME ( 11, 23, 7.000000000000000000, #131 ) ;
#248 = DIRECTION ( 'NONE',  ( 0.000000000000000000, 0.000000000000000000, 1.000000000000000000 ) ) ;
#249 = EDGE_CURVE ( 'NONE', #26, #256, #96, .T. ) ;
#250 = CARTESIAN_POINT ( 'NONE',  ( 0.000000000000000000, 4.253003599660558187, 4.999999999999997335 ) ) ;
#251 = FACE_OUTER_BOUND ( 'NONE', #88, .T. ) ;
#252 = DIRECTION ( 'NONE',  ( -0.000000000000000000, 1.000000000000000000, -0.000000000000000000 ) ) ;
#253 = ADVANCED_FACE ( 'NONE', ( #220 ), #305, .T. ) ;
#254 = DATE_AND_TIME ( #277, #115 ) ;
#255 = ORIENTED_EDGE ( 'NONE', *, *, #264, .F. ) ;
#256 = VERTEX_POINT ( 'NONE', #72 ) ;
#257 = PERSON_AND_ORGANIZATION ( #162, #49 ) ;
#258 = DIRECTION ( 'NONE',  ( 0.000000000000000000, 0.000000000000000000, 1.000000000000000000 ) ) ;
#259 = EDGE_LOOP ( 'NONE', ( #107, #58 ) ) ;
#260 = ORIENTED_EDGE ( 'NONE', *, *, #45, .F. ) ;
#261 = CIRCLE ( 'NONE', #315, 4.999999999999999112 ) ;
#262 = PERSON_AND_ORGANIZATION_ROLE ( 'classification_officer' ) ;
#263 = ORIENTED_EDGE ( 'NONE', *, *, #333, .T. ) ;
#264 = EDGE_CURVE ( 'NONE', #75, #109, #24, .T. ) ;
#265 = PLANE ( 'NONE',  #82 ) ;
#266 = CALENDAR_DATE ( 2022, 11, 3 ) ;
#267 = FACE_BOUND ( 'NONE', #259, .T. ) ;
#268 = CYLINDRICAL_SURFACE ( 'NONE', #301, 1.949999999999997957 ) ;
#269 = EDGE_CURVE ( 'NONE', #130, #256, #65, .T. ) ;
#270 = FACE_OUTER_BOUND ( 'NONE', #309, .T. ) ;
#271 = DIRECTION ( 'NONE',  ( -0.000000000000000000, 1.000000000000000000, -0.000000000000000000 ) ) ;
#272 = CIRCLE ( 'NONE', #126, 4.999999999999996447 ) ;
#273 = DIRECTION ( 'NONE',  ( 0.000000000000000000, 0.000000000000000000, 1.000000000000000000 ) ) ;
#274 = APPROVAL ( #25, 'UNSPECIFIED' ) ;
#275 = DIRECTION ( 'NONE',  ( -0.000000000000000000, 1.000000000000000000, -0.000000000000000000 ) ) ;
#276 = CARTESIAN_POINT ( 'NONE',  ( 6.123233995736762338E-16, -15.00000000000000000, -4.999999999999996447 ) ) ;
#277 = CALENDAR_DATE ( 2022, 11, 3 ) ;
#278 = AXIS2_PLACEMENT_3D ( 'NONE', #148, #123, #273 ) ;
#279 = EDGE_LOOP ( 'NONE', ( #214, #3 ) ) ;
#280 = ORIENTED_EDGE ( 'NONE', *, *, #125, .F. ) ;
#281 = MANIFOLD_SOLID_BREP ( 'M5x0.8 ‚Ë‚¶ŒŠ1', #243 ) ;
#282 = AXIS2_PLACEMENT_3D ( 'NONE', #320, #188, #60 ) ;
#283 = DIRECTION ( 'NONE',  ( -0.000000000000000000, 1.000000000000000000, -0.000000000000000000 ) ) ;
#284 = EDGE_LOOP ( 'NONE', ( #177, #286 ) ) ;
#285 = AXIS2_PLACEMENT_3D ( 'NONE', #246, #167, #330 ) ;
#286 = ORIENTED_EDGE ( 'NONE', *, *, #138, .T. ) ;
#287 = DATE_TIME_ROLE ( 'classification_date' ) ;
#288 = CC_DESIGN_PERSON_AND_ORGANIZATION_ASSIGNMENT ( #106, #202, ( #145 ) ) ;
#289 = CARTESIAN_POINT ( 'NONE',  ( 2.388061258337336178E-16, -15.00000000000000000, -1.949999999999997735 ) ) ;
#290 = APPROVAL_PERSON_ORGANIZATION ( #37, #192, #141 ) ;
#291 = COORDINATED_UNIVERSAL_TIME_OFFSET ( 9, 0, .AHEAD. ) ;
#292 = CARTESIAN_POINT ( 'NONE',  ( 0.000000000000000000, 0.000000000000000000, 4.999999999999999112 ) ) ;
#293 = VECTOR ( 'NONE', #117, 1000.000000000000000 ) ;
#294 = CARTESIAN_POINT ( 'NONE',  ( 6.123233995736766282E-16, 0.000000000000000000, -5.000000000000000000 ) ) ;
#295 = ADVANCED_BREP_SHAPE_REPRESENTATION ( 'B-122-27', ( #281, #31 ), #14 ) ;
#296 = CIRCLE ( 'NONE', #196, 1.949999999999997735 ) ;
#297 = CC_DESIGN_APPROVAL ( #185, ( #145 ) ) ;
#298 = DIRECTION ( 'NONE',  ( -0.000000000000000000, 1.000000000000000000, 0.000000000000000000 ) ) ;
#299 = DIRECTION ( 'NONE',  ( -0.000000000000000000, 1.000000000000000000, -0.000000000000000000 ) ) ;
#300 = DIRECTION ( 'NONE',  ( -0.000000000000000000, 1.000000000000000000, -0.000000000000000000 ) ) ;
#301 = AXIS2_PLACEMENT_3D ( 'NONE', #208, #191, #66 ) ;
#302 = EDGE_CURVE ( 'NONE', #114, #130, #73, .T. ) ;
#304 = CARTESIAN_POINT ( 'NONE',  ( 0.000000000000000000, -4.286263797015761401E-18, 2.099999999999999201 ) ) ;
#303 = LOCAL_TIME ( 11, 23, 7.000000000000000000, #201 ) ;
#305 = CYLINDRICAL_SURFACE ( 'NONE', #204, 4.999999999999997335 ) ;
#306 = DIRECTION ( 'NONE',  ( 0.000000000000000000, 0.000000000000000000, 1.000000000000000000 ) ) ;
#307 = EDGE_CURVE ( 'NONE', #114, #26, #335, .T. ) ;
#308 = AXIS2_PLACEMENT_3D ( 'NONE', #19, #195, #46 ) ;
#309 = EDGE_LOOP ( 'NONE', ( #190, #260 ) ) ;
#310 = ORIENTED_EDGE ( 'NONE', *, *, #226, .F. ) ;
#311 = CARTESIAN_POINT ( 'NONE',  ( 0.000000000000000000, -15.00000000000000000, 0.000000000000000000 ) ) ;
#312 = ORIENTED_EDGE ( 'NONE', *, *, #125, .T. ) ;
#313 = PERSON_AND_ORGANIZATION_ROLE ( 'design_supplier' ) ;
#314 = ORIENTED_EDGE ( 'NONE', *, *, #302, .F. ) ;
#315 = AXIS2_PLACEMENT_3D ( 'NONE', #17, #300, #170 ) ;
#316 = DIRECTION ( 'NONE',  ( -0.000000000000000000, 1.000000000000000000, -0.000000000000000000 ) ) ;
#317 = ORIENTED_EDGE ( 'NONE', *, *, #269, .T. ) ;
#318 = EDGE_CURVE ( 'NONE', #152, #51, #1, .T. ) ;
#319 = FACE_OUTER_BOUND ( 'NONE', #27, .T. ) ;
#320 = CARTESIAN_POINT ( 'NONE',  ( 0.000000000000000000, 4.253003599660558187, 0.000000000000000000 ) ) ;
#321 = CC_DESIGN_APPROVAL ( #192, ( #236 ) ) ;
#322 = ORIENTED_EDGE ( 'NONE', *, *, #45, .T. ) ;
#323 = DIRECTION ( 'NONE',  ( 0.000000000000000000, -0.000000000000000000, -1.000000000000000000 ) ) ;
#324 = CC_DESIGN_DATE_AND_TIME_ASSIGNMENT ( #99, #53, ( #61 ) ) ;
#325 = CARTESIAN_POINT ( 'NONE',  ( 0.000000000000000000, -4.286263797015761401E-18, 0.000000000000000000 ) ) ;
#326 = CC_DESIGN_APPROVAL ( #274, ( #61 ) ) ;
#327 = DIRECTION ( 'NONE',  ( 0.000000000000000000, 0.000000000000000000, 1.000000000000000000 ) ) ;
#328 = ADVANCED_FACE ( 'NONE', ( #155 ), #129, .F. ) ;
#329 = CARTESIAN_POINT ( 'NONE',  ( 0.000000000000000000, 0.000000000000000000, 2.099999999999998312 ) ) ;
#330 = DIRECTION ( 'NONE',  ( 0.000000000000000000, 0.000000000000000000, 1.000000000000000000 ) ) ;
#331 = CARTESIAN_POINT ( 'NONE',  ( 0.000000000000000000, -16.50000000000000000, 0.000000000000000000 ) ) ;
#332 = DIRECTION ( 'NONE',  ( -0.000000000000000000, 1.000000000000000000, -0.000000000000000000 ) ) ;
#333 = EDGE_CURVE ( 'NONE', #56, #152, #70, .T. ) ;
#334 = APPROVAL_DATE_TIME ( #227, #185 ) ;
#335 = CIRCLE ( 'NONE', #135, 2.099999999999997424 ) ;
ENDSEC;
END-ISO-10303-21;
