ISO-10303-21;
HEADER;
FILE_DESCRIPTION (( 'STEP AP203' ),
    '1' );
FILE_NAME ('B-122-26.STEP',
    '2022-03-11T02:21:55',
    ( '' ),
    ( '' ),
    'SwSTEP 2.0',
    'SolidWorks 2021',
    '' );
FILE_SCHEMA (( 'CONFIG_CONTROL_DESIGN' ));
ENDSEC;

DATA;
#1 = DIRECTION ( 'NONE',  ( 0.000000000000000000, -1.000000000000000000, 0.000000000000000000 ) ) ;
#2 = AXIS2_PLACEMENT_3D ( 'NONE', #96, #108, #203 ) ;
#3 = LINE ( 'NONE', #236, #25 ) ;
#4 = CARTESIAN_POINT ( 'NONE',  ( 0.000000000000000000, -12.00000000000000000, 1.949999999999997291 ) ) ;
#5 = ORIENTED_EDGE ( 'NONE', *, *, #113, .T. ) ;
#6 = EDGE_CURVE ( 'NONE', #168, #222, #71, .T. ) ;
#7 = AXIS2_PLACEMENT_3D ( 'NONE', #212, #98, #317 ) ;
#8 = LOCAL_TIME ( 11, 21, 55.00000000000000000, #53 ) ;
#9 = ORIENTED_EDGE ( 'NONE', *, *, #290, .T. ) ;
#10 = DIRECTION ( 'NONE',  ( 0.000000000000000000, 0.000000000000000000, 1.000000000000000000 ) ) ;
#11 = PRODUCT_DEFINITION ( 'UNKNOWN', '', #263, #81 ) ;
#12 = PERSON_AND_ORGANIZATION ( #110, #44 ) ;
#13 = LINE ( 'NONE', #128, #223 ) ;
#14 = UNCERTAINTY_MEASURE_WITH_UNIT (LENGTH_MEASURE( 1.000000000000000082E-05 ), #293, 'distance_accuracy_value', 'NONE');
#15 = PERSON_AND_ORGANIZATION ( #110, #44 ) ;
#16 = DIRECTION ( 'NONE',  ( -0.000000000000000000, 1.000000000000000000, -0.000000000000000000 ) ) ;
#17 = ORIENTED_EDGE ( 'NONE', *, *, #180, .F. ) ;
#18 = AXIS2_PLACEMENT_3D ( 'NONE', #246, #69, #42 ) ;
#19 = MECHANICAL_CONTEXT ( 'NONE', #166, 'mechanical' ) ;
#20 = DIRECTION ( 'NONE',  ( 0.000000000000000000, 0.000000000000000000, 1.000000000000000000 ) ) ;
#21 = COORDINATED_UNIVERSAL_TIME_OFFSET ( 9, 0, .AHEAD. ) ;
#22 = EDGE_CURVE ( 'NONE', #72, #265, #216, .T. ) ;
#23 = CARTESIAN_POINT ( 'NONE',  ( 0.000000000000000000, 4.253003599660558187, 0.000000000000000000 ) ) ;
#24 = DIRECTION ( 'NONE',  ( 0.000000000000000000, -0.000000000000000000, -1.000000000000000000 ) ) ;
#25 = VECTOR ( 'NONE', #260, 1000.000000000000000 ) ;
#26 = MANIFOLD_SOLID_BREP ( 'M5x0.8 ‚Ë‚¶ŒŠ2', #281 ) ;
#27 = DIRECTION ( 'NONE',  ( -0.000000000000000000, 1.000000000000000000, -0.000000000000000000 ) ) ;
#28 = EDGE_CURVE ( 'NONE', #167, #34, #334, .T. ) ;
#29 = CARTESIAN_POINT ( 'NONE',  ( -2.602085213965210642E-15, -9.000000000000001776, 0.000000000000000000 ) ) ;
#30 = FACE_OUTER_BOUND ( 'NONE', #211, .T. ) ;
#31 = LOCAL_TIME ( 11, 21, 55.00000000000000000, #127 ) ;
#32 = ORIENTED_EDGE ( 'NONE', *, *, #22, .F. ) ;
#33 = DIRECTION ( 'NONE',  ( 0.000000000000000000, 0.000000000000000000, 1.000000000000000000 ) ) ;
#34 = VERTEX_POINT ( 'NONE', #226 ) ;
#35 = APPROVAL ( #177, 'UNSPECIFIED' ) ;
#36 =( NAMED_UNIT ( * ) PLANE_ANGLE_UNIT ( ) SI_UNIT ( $, .RADIAN. ) );
#37 = AXIS2_PLACEMENT_3D ( 'NONE', #146, #224, #46 ) ;
#38 =( NAMED_UNIT ( * ) SI_UNIT ( $, .STERADIAN. ) SOLID_ANGLE_UNIT ( ) );
#39 = ORIENTED_EDGE ( 'NONE', *, *, #171, .F. ) ;
#40 = CYLINDRICAL_SURFACE ( 'NONE', #136, 2.099999999999998757 ) ;
#41 = CC_DESIGN_PERSON_AND_ORGANIZATION_ASSIGNMENT ( #112, #82, ( #11 ) ) ;
#42 = DIRECTION ( 'NONE',  ( 0.000000000000000000, 0.000000000000000000, 1.000000000000000000 ) ) ;
#43 = CIRCLE ( 'NONE', #65, 1.949999999999997291 ) ;
#44 = ORGANIZATION ( 'UNSPECIFIED', 'UNSPECIFIED', '' ) ;
#45 = CARTESIAN_POINT ( 'NONE',  ( 2.388061258337335685E-16, -12.00000000000000000, -1.949999999999997513 ) ) ;
#46 = DIRECTION ( 'NONE',  ( 0.000000000000000000, 0.000000000000000000, 1.000000000000000000 ) ) ;
#47 = SHAPE_DEFINITION_REPRESENTATION ( #312, #232 ) ;
#48 = DIRECTION ( 'NONE',  ( 0.000000000000000000, 0.000000000000000000, 1.000000000000000000 ) ) ;
#49 = DATE_AND_TIME ( #175, #150 ) ;
#50 = VECTOR ( 'NONE', #202, 1000.000000000000000 ) ;
#51 = CARTESIAN_POINT ( 'NONE',  ( 0.000000000000000000, -9.999999999999998224, 0.000000000000000000 ) ) ;
#52 = AXIS2_PLACEMENT_3D ( 'NONE', #188, #165, #186 ) ;
#53 = COORDINATED_UNIVERSAL_TIME_OFFSET ( 9, 0, .AHEAD. ) ;
#54 = DIRECTION ( 'NONE',  ( 0.000000000000000000, 0.000000000000000000, 1.000000000000000000 ) ) ;
#55 = SECURITY_CLASSIFICATION_LEVEL ( 'unclassified' ) ;
#56 = APPLICATION_CONTEXT ( 'configuration controlled 3d designs of mechanical parts and assemblies' ) ;
#57 = PLANE ( 'NONE',  #309 ) ;
#58 = PRODUCT ( 'B-122-26', 'B-122-26', '', ( #19 ) ) ;
#59 = CC_DESIGN_SECURITY_CLASSIFICATION ( #178, ( #263 ) ) ;
#60 = CYLINDRICAL_SURFACE ( 'NONE', #155, 1.949999999999997069 ) ;
#61 = EDGE_CURVE ( 'NONE', #265, #72, #43, .T. ) ;
#62 = CC_DESIGN_PERSON_AND_ORGANIZATION_ASSIGNMENT ( #247, #249, ( #263 ) ) ;
#63 = CARTESIAN_POINT ( 'NONE',  ( 2.571758278209440971E-16, -4.286263797015761401E-18, -2.099999999999999645 ) ) ;
#64 = DIRECTION ( 'NONE',  ( 0.000000000000000000, 0.000000000000000000, 1.000000000000000000 ) ) ;
#65 = AXIS2_PLACEMENT_3D ( 'NONE', #273, #276, #130 ) ;
#66 = ORIENTED_EDGE ( 'NONE', *, *, #204, .F. ) ;
#67 = EDGE_CURVE ( 'NONE', #141, #144, #123, .T. ) ;
#68 = VERTEX_POINT ( 'NONE', #145 ) ;
#69 = DIRECTION ( 'NONE',  ( -0.000000000000000000, 1.000000000000000000, -0.000000000000000000 ) ) ;
#70 = CARTESIAN_POINT ( 'NONE',  ( 0.000000000000000000, -12.00000000000000000, -1.990418883485470988E-15 ) ) ;
#71 = CIRCLE ( 'NONE', #137, 2.099999999999998312 ) ;
#72 = VERTEX_POINT ( 'NONE', #45 ) ;
#73 = CARTESIAN_POINT ( 'NONE',  ( 0.000000000000000000, -4.286263797015761401E-18, 0.000000000000000000 ) ) ;
#74 = EDGE_LOOP ( 'NONE', ( #106, #133 ) ) ;
#75 = DIRECTION ( 'NONE',  ( -0.000000000000000000, 1.000000000000000000, -0.000000000000000000 ) ) ;
#76 = AXIS2_PLACEMENT_3D ( 'NONE', #228, #183, #87 ) ;
#77 = EDGE_CURVE ( 'NONE', #222, #168, #95, .T. ) ;
#78 = ORIENTED_EDGE ( 'NONE', *, *, #171, .T. ) ;
#79 = DATE_TIME_ROLE ( 'classification_date' ) ;
#80 = VERTEX_POINT ( 'NONE', #332 ) ;
#81 = DESIGN_CONTEXT ( 'detailed design', #56, 'design' ) ;
#82 = PERSON_AND_ORGANIZATION_ROLE ( 'creator' ) ;
#83 = CARTESIAN_POINT ( 'NONE',  ( 0.000000000000000000, 0.000000000000000000, 0.000000000000000000 ) ) ;
#84 = PERSON_AND_ORGANIZATION_ROLE ( 'design_supplier' ) ;
#85 = ORIENTED_EDGE ( 'NONE', *, *, #204, .T. ) ;
#86 = CALENDAR_DATE ( 2022, 11, 3 ) ;
#87 = DIRECTION ( 'NONE',  ( 0.000000000000000000, 0.000000000000000000, 1.000000000000000000 ) ) ;
#88 = CC_DESIGN_DATE_AND_TIME_ASSIGNMENT ( #279, #79, ( #178 ) ) ;
#89 = AXIS2_PLACEMENT_3D ( 'NONE', #83, #176, #280 ) ;
#90 = CARTESIAN_POINT ( 'NONE',  ( 0.000000000000000000, 0.000000000000000000, 0.000000000000000000 ) ) ;
#91 = CARTESIAN_POINT ( 'NONE',  ( 7.347880794884118750E-16, -9.999999999999998224, -5.999999999999998224 ) ) ;
#92 = FACE_OUTER_BOUND ( 'NONE', #248, .T. ) ;
#93 = EDGE_CURVE ( 'NONE', #222, #194, #13, .T. ) ;
#94 = ORIENTED_EDGE ( 'NONE', *, *, #77, .T. ) ;
#95 = CIRCLE ( 'NONE', #140, 2.099999999999998312 ) ;
#96 = CARTESIAN_POINT ( 'NONE',  ( 0.000000000000000000, 0.000000000000000000, 0.000000000000000000 ) ) ;
#97 = EDGE_CURVE ( 'NONE', #144, #141, #101, .T. ) ;
#98 = DIRECTION ( 'NONE',  ( -0.000000000000000000, 1.000000000000000000, -0.000000000000000000 ) ) ;
#99 = EDGE_CURVE ( 'NONE', #34, #167, #321, .T. ) ;
#100 = CARTESIAN_POINT ( 'NONE',  ( 0.000000000000000000, 0.000000000000000000, 0.000000000000000000 ) ) ;
#101 = CIRCLE ( 'NONE', #89, 6.000000000000000000 ) ;
#102 = LOCAL_TIME ( 11, 21, 55.00000000000000000, #21 ) ;
#103 = ORIENTED_EDGE ( 'NONE', *, *, #6, .T. ) ;
#104 = ORIENTED_EDGE ( 'NONE', *, *, #244, .F. ) ;
#105 = COORDINATED_UNIVERSAL_TIME_OFFSET ( 9, 0, .AHEAD. ) ;
#106 = ORIENTED_EDGE ( 'NONE', *, *, #67, .T. ) ;
#107 = ORIENTED_EDGE ( 'NONE', *, *, #154, .F. ) ;
#108 = DIRECTION ( 'NONE',  ( 0.000000000000000000, 0.000000000000000000, 1.000000000000000000 ) ) ;
#109 = DIRECTION ( 'NONE',  ( 0.000000000000000000, 0.000000000000000000, 1.000000000000000000 ) ) ;
#110 = PERSON ( 'UNSPECIFIED', 'UNSPECIFIED', 'UNSPECIFIED', ('UNSPECIFIED'), ('UNSPECIFIED'), ('UNSPECIFIED') ) ;
#111 = CARTESIAN_POINT ( 'NONE',  ( 7.347880794884118750E-16, 4.253003599660558187, -5.999999999999999112 ) ) ;
#112 = PERSON_AND_ORGANIZATION ( #110, #44 ) ;
#113 = EDGE_CURVE ( 'NONE', #167, #144, #153, .T. ) ;
#114 = AXIS2_PLACEMENT_3D ( 'NONE', #289, #209, #184 ) ;
#115 = CARTESIAN_POINT ( 'NONE',  ( 0.000000000000000000, -9.000000000000001776, 2.099999999999998312 ) ) ;
#116 = CARTESIAN_POINT ( 'NONE',  ( 2.571758278209439492E-16, -9.000000000000001776, -2.099999999999998312 ) ) ;
#117 = CARTESIAN_POINT ( 'NONE',  ( 2.388061258337335192E-16, 4.253003599660558187, -1.949999999999997069 ) ) ;
#118 = LINE ( 'NONE', #191, #274 ) ;
#119 = CIRCLE ( 'NONE', #7, 1.949999999999996847 ) ;
#120 = DIRECTION ( 'NONE',  ( -0.000000000000000000, 1.000000000000000000, -0.000000000000000000 ) ) ;
#121 = ORIENTED_EDGE ( 'NONE', *, *, #97, .F. ) ;
#122 = DIRECTION ( 'NONE',  ( 0.000000000000000000, -1.000000000000000000, 0.000000000000000000 ) ) ;
#123 = CIRCLE ( 'NONE', #37, 6.000000000000000000 ) ;
#124 = LOCAL_TIME ( 11, 21, 55.00000000000000000, #219 ) ;
#125 = EDGE_LOOP ( 'NONE', ( #292, #187, #316, #107 ) ) ;
#126 = ADVANCED_FACE ( 'NONE', ( #308 ), #257, .F. ) ;
#127 = COORDINATED_UNIVERSAL_TIME_OFFSET ( 9, 0, .AHEAD. ) ;
#128 = CARTESIAN_POINT ( 'NONE',  ( 2.571758278209439985E-16, 0.000000000000000000, -2.099999999999998757 ) ) ;
#129 = CARTESIAN_POINT ( 'NONE',  ( 0.000000000000000000, -9.999999999999998224, 0.000000000000000000 ) ) ;
#130 = DIRECTION ( 'NONE',  ( 0.000000000000000000, 0.000000000000000000, 1.000000000000000000 ) ) ;
#131 = APPROVAL_DATE_TIME ( #333, #35 ) ;
#132 = CC_DESIGN_PERSON_AND_ORGANIZATION_ASSIGNMENT ( #199, #283, ( #58 ) ) ;
#133 = ORIENTED_EDGE ( 'NONE', *, *, #97, .T. ) ;
#134 = DIRECTION ( 'NONE',  ( -0.000000000000000000, 1.000000000000000000, -0.000000000000000000 ) ) ;
#135 = AXIS2_PLACEMENT_3D ( 'NONE', #90, #27, #182 ) ;
#136 = AXIS2_PLACEMENT_3D ( 'NONE', #100, #301, #33 ) ;
#137 = AXIS2_PLACEMENT_3D ( 'NONE', #331, #220, #20 ) ;
#138 = CARTESIAN_POINT ( 'NONE',  ( 0.000000000000000000, -10.00000000000000000, 5.999999999999998224 ) ) ;
#139 = CC_DESIGN_APPROVAL ( #235, ( #263 ) ) ;
#140 = AXIS2_PLACEMENT_3D ( 'NONE', #250, #16, #109 ) ;
#141 = VERTEX_POINT ( 'NONE', #207 ) ;
#142 = ADVANCED_FACE ( 'NONE', ( #206 ), #259, .F. ) ;
#143 = EDGE_LOOP ( 'NONE', ( #252, #32 ) ) ;
#144 = VERTEX_POINT ( 'NONE', #311 ) ;
#145 = CARTESIAN_POINT ( 'NONE',  ( 2.388061258337335192E-16, -9.999999999999998224, -1.949999999999996847 ) ) ;
#146 = CARTESIAN_POINT ( 'NONE',  ( 0.000000000000000000, 0.000000000000000000, 0.000000000000000000 ) ) ;
#147 = CALENDAR_DATE ( 2022, 11, 3 ) ;
#148 = ADVANCED_FACE ( 'NONE', ( #234, #313 ), #208, .T. ) ;
#149 = CIRCLE ( 'NONE', #262, 2.099999999999999645 ) ;
#150 = LOCAL_TIME ( 11, 21, 55.00000000000000000, #105 ) ;
#151 = EDGE_LOOP ( 'NONE', ( #103, #94 ) ) ;
#152 = APPROVAL_ROLE ( '' ) ;
#153 = LINE ( 'NONE', #111, #50 ) ;
#154 = EDGE_CURVE ( 'NONE', #168, #80, #3, .T. ) ;
#155 = AXIS2_PLACEMENT_3D ( 'NONE', #156, #134, #64 ) ;
#156 = CARTESIAN_POINT ( 'NONE',  ( 0.000000000000000000, 4.253003599660558187, 0.000000000000000000 ) ) ;
#157 = APPROVAL_PERSON_ORGANIZATION ( #221, #235, #307 ) ;
#158 = DIRECTION ( 'NONE',  ( -0.000000000000000000, 1.000000000000000000, 0.000000000000000000 ) ) ;
#159 = CARTESIAN_POINT ( 'NONE',  ( 0.000000000000000000, 4.253003599660558187, 5.999999999999999112 ) ) ;
#160 = ADVANCED_FACE ( 'NONE', ( #284, #92 ), #57, .T. ) ;
#161 = CYLINDRICAL_SURFACE ( 'NONE', #268, 1.949999999999997069 ) ;
#162 = APPLICATION_PROTOCOL_DEFINITION ( 'international standard', 'config_control_design', 1994, #166 ) ;
#163 = ORIENTED_EDGE ( 'NONE', *, *, #6, .F. ) ;
#164 = DIRECTION ( 'NONE',  ( 0.000000000000000000, -0.000000000000000000, -1.000000000000000000 ) ) ;
#165 = DIRECTION ( 'NONE',  ( -0.000000000000000000, 1.000000000000000000, -0.000000000000000000 ) ) ;
#166 = APPLICATION_CONTEXT ( 'configuration controlled 3d designs of mechanical parts and assemblies' ) ;
#167 = VERTEX_POINT ( 'NONE', #91 ) ;
#168 = VERTEX_POINT ( 'NONE', #115 ) ;
#169 = DIRECTION ( 'NONE',  ( 0.000000000000000000, 0.000000000000000000, 1.000000000000000000 ) ) ;
#170 = DATE_TIME_ROLE ( 'creation_date' ) ;
#171 = EDGE_CURVE ( 'NONE', #80, #194, #253, .T. ) ;
#172 = ORIENTED_EDGE ( 'NONE', *, *, #154, .T. ) ;
#173 = CALENDAR_DATE ( 2022, 11, 3 ) ;
#174 = EDGE_LOOP ( 'NONE', ( #39, #104 ) ) ;
#175 = CALENDAR_DATE ( 2022, 11, 3 ) ;
#176 = DIRECTION ( 'NONE',  ( -0.000000000000000000, 1.000000000000000000, -0.000000000000000000 ) ) ;
#177 = APPROVAL_STATUS ( 'not_yet_approved' ) ;
#178 = SECURITY_CLASSIFICATION ( '', '', #55 ) ;
#179 = VERTEX_POINT ( 'NONE', #181 ) ;
#180 = EDGE_CURVE ( 'NONE', #68, #179, #258, .T. ) ;
#181 = CARTESIAN_POINT ( 'NONE',  ( 0.000000000000000000, -9.999999999999998224, 1.949999999999996847 ) ) ;
#182 = DIRECTION ( 'NONE',  ( 0.000000000000000000, 0.000000000000000000, 1.000000000000000000 ) ) ;
#183 = DIRECTION ( 'NONE',  ( -0.000000000000000000, 1.000000000000000000, -0.000000000000000000 ) ) ;
#184 = DIRECTION ( 'NONE',  ( 0.000000000000000000, 0.000000000000000000, 1.000000000000000000 ) ) ;
#185 = ORIENTED_EDGE ( 'NONE', *, *, #22, .T. ) ;
#186 = DIRECTION ( 'NONE',  ( 0.000000000000000000, 0.000000000000000000, 1.000000000000000000 ) ) ;
#187 = ORIENTED_EDGE ( 'NONE', *, *, #93, .T. ) ;
#188 = CARTESIAN_POINT ( 'NONE',  ( 0.000000000000000000, 4.253003599660558187, 0.000000000000000000 ) ) ;
#189 = PLANE ( 'NONE',  #205 ) ;
#190 = ORIENTED_EDGE ( 'NONE', *, *, #113, .F. ) ;
#191 = CARTESIAN_POINT ( 'NONE',  ( 0.000000000000000000, 4.253003599660558187, 1.949999999999997069 ) ) ;
#192 = ORIENTED_EDGE ( 'NONE', *, *, #93, .F. ) ;
#193 = APPROVAL ( #275, 'UNSPECIFIED' ) ;
#194 = VERTEX_POINT ( 'NONE', #63 ) ;
#195 = ORIENTED_EDGE ( 'NONE', *, *, #61, .T. ) ;
#196 = PERSON_AND_ORGANIZATION ( #110, #44 ) ;
#197 = AXIS2_PLACEMENT_3D ( 'NONE', #129, #327, #169 ) ;
#198 = EDGE_LOOP ( 'NONE', ( #190, #245, #85, #121 ) ) ;
#199 = PERSON_AND_ORGANIZATION ( #110, #44 ) ;
#200 = DIRECTION ( 'NONE',  ( -0.000000000000000000, 1.000000000000000000, -0.000000000000000000 ) ) ;
#201 = DATE_AND_TIME ( #86, #8 ) ;
#202 = DIRECTION ( 'NONE',  ( -0.000000000000000000, 1.000000000000000000, -0.000000000000000000 ) ) ;
#203 = DIRECTION ( 'NONE',  ( 1.000000000000000000, 0.000000000000000000, 0.000000000000000000 ) ) ;
#204 = EDGE_CURVE ( 'NONE', #34, #141, #286, .T. ) ;
#205 = AXIS2_PLACEMENT_3D ( 'NONE', #70, #122, #164 ) ;
#206 = FACE_OUTER_BOUND ( 'NONE', #151, .T. ) ;
#207 = CARTESIAN_POINT ( 'NONE',  ( 0.000000000000000000, 0.000000000000000000, 6.000000000000000000 ) ) ;
#208 = PLANE ( 'NONE',  #241 ) ;
#209 = DIRECTION ( 'NONE',  ( -0.000000000000000000, 1.000000000000000000, -0.000000000000000000 ) ) ;
#210 = ADVANCED_FACE ( 'NONE', ( #30 ), #60, .T. ) ;
#211 = EDGE_LOOP ( 'NONE', ( #278, #185, #9, #17 ) ) ;
#212 = CARTESIAN_POINT ( 'NONE',  ( 0.000000000000000000, -9.999999999999998224, 0.000000000000000000 ) ) ;
#213 = DIRECTION ( 'NONE',  ( -0.000000000000000000, 1.000000000000000000, -0.000000000000000000 ) ) ;
#214 = ORIENTED_EDGE ( 'NONE', *, *, #28, .F. ) ;
#215 = FACE_OUTER_BOUND ( 'NONE', #282, .T. ) ;
#216 = CIRCLE ( 'NONE', #229, 1.949999999999997291 ) ;
#217 = APPROVAL_PERSON_ORGANIZATION ( #225, #35, #152 ) ;
#218 = FACE_OUTER_BOUND ( 'NONE', #198, .T. ) ;
#219 = COORDINATED_UNIVERSAL_TIME_OFFSET ( 9, 0, .AHEAD. ) ;
#220 = DIRECTION ( 'NONE',  ( -0.000000000000000000, 1.000000000000000000, -0.000000000000000000 ) ) ;
#221 = PERSON_AND_ORGANIZATION ( #110, #44 ) ;
#222 = VERTEX_POINT ( 'NONE', #116 ) ;
#223 = VECTOR ( 'NONE', #200, 1000.000000000000000 ) ;
#224 = DIRECTION ( 'NONE',  ( -0.000000000000000000, 1.000000000000000000, -0.000000000000000000 ) ) ;
#225 = PERSON_AND_ORGANIZATION ( #110, #44 ) ;
#226 = CARTESIAN_POINT ( 'NONE',  ( 0.000000000000000000, -9.999999999999998224, 5.999999999999998224 ) ) ;
#227 = CALENDAR_DATE ( 2022, 11, 3 ) ;
#228 = CARTESIAN_POINT ( 'NONE',  ( 0.000000000000000000, -4.286263797015761401E-18, 0.000000000000000000 ) ) ;
#229 = AXIS2_PLACEMENT_3D ( 'NONE', #325, #75, #48 ) ;
#230 = CC_DESIGN_APPROVAL ( #35, ( #178 ) ) ;
#231 = DIRECTION ( 'NONE',  ( 0.000000000000000000, -0.000000000000000000, -1.000000000000000000 ) ) ;
#232 = ADVANCED_BREP_SHAPE_REPRESENTATION ( 'B-122-26', ( #26, #2 ), #322 ) ;
#233 = ADVANCED_FACE ( 'NONE', ( #291 ), #161, .T. ) ;
#234 = FACE_BOUND ( 'NONE', #174, .T. ) ;
#235 = APPROVAL ( #277, 'UNSPECIFIED' ) ;
#236 = CARTESIAN_POINT ( 'NONE',  ( 0.000000000000000000, 0.000000000000000000, 2.099999999999998757 ) ) ;
#237 = DIRECTION ( 'NONE',  ( 0.000000000000000000, -1.000000000000000000, 0.000000000000000000 ) ) ;
#238 = CC_DESIGN_APPROVAL ( #193, ( #11 ) ) ;
#239 = ORIENTED_EDGE ( 'NONE', *, *, #302, .T. ) ;
#240 = CC_DESIGN_DATE_AND_TIME_ASSIGNMENT ( #254, #170, ( #11 ) ) ;
#241 = AXIS2_PLACEMENT_3D ( 'NONE', #288, #158, #314 ) ;
#242 = LINE ( 'NONE', #117, #298 ) ;
#243 = EDGE_CURVE ( 'NONE', #72, #68, #242, .T. ) ;
#244 = EDGE_CURVE ( 'NONE', #194, #80, #149, .T. ) ;
#245 = ORIENTED_EDGE ( 'NONE', *, *, #28, .T. ) ;
#246 = CARTESIAN_POINT ( 'NONE',  ( 0.000000000000000000, 4.253003599660558187, 0.000000000000000000 ) ) ;
#247 = PERSON_AND_ORGANIZATION ( #110, #44 ) ;
#248 = EDGE_LOOP ( 'NONE', ( #296, #214 ) ) ;
#249 = PERSON_AND_ORGANIZATION_ROLE ( 'creator' ) ;
#250 = CARTESIAN_POINT ( 'NONE',  ( 0.000000000000000000, -9.000000000000001776, 0.000000000000000000 ) ) ;
#251 = APPROVAL_ROLE ( '' ) ;
#252 = ORIENTED_EDGE ( 'NONE', *, *, #61, .F. ) ;
#253 = CIRCLE ( 'NONE', #76, 2.099999999999999645 ) ;
#254 = DATE_AND_TIME ( #147, #102 ) ;
#255 = DIRECTION ( 'NONE',  ( -0.000000000000000000, 1.000000000000000000, -0.000000000000000000 ) ) ;
#256 = PERSON_AND_ORGANIZATION_ROLE ( 'classification_officer' ) ;
#257 = CYLINDRICAL_SURFACE ( 'NONE', #135, 2.099999999999998757 ) ;
#258 = CIRCLE ( 'NONE', #114, 1.949999999999996847 ) ;
#259 = PLANE ( 'NONE',  #315 ) ;
#260 = DIRECTION ( 'NONE',  ( -0.000000000000000000, 1.000000000000000000, -0.000000000000000000 ) ) ;
#261 = DIRECTION ( 'NONE',  ( -0.000000000000000000, 1.000000000000000000, -0.000000000000000000 ) ) ;
#262 = AXIS2_PLACEMENT_3D ( 'NONE', #73, #120, #10 ) ;
#263 = PRODUCT_DEFINITION_FORMATION_WITH_SPECIFIED_SOURCE ( 'ANY', '', #58, .NOT_KNOWN. ) ;
#264 = CC_DESIGN_PERSON_AND_ORGANIZATION_ASSIGNMENT ( #15, #84, ( #263 ) ) ;
#265 = VERTEX_POINT ( 'NONE', #4 ) ;
#266 = DIRECTION ( 'NONE',  ( 0.000000000000000000, 0.000000000000000000, 1.000000000000000000 ) ) ;
#267 = EDGE_LOOP ( 'NONE', ( #239, #304 ) ) ;
#268 = AXIS2_PLACEMENT_3D ( 'NONE', #23, #324, #266 ) ;
#269 = ORIENTED_EDGE ( 'NONE', *, *, #290, .F. ) ;
#270 = CYLINDRICAL_SURFACE ( 'NONE', #52, 5.999999999999999112 ) ;
#271 = EDGE_LOOP ( 'NONE', ( #195, #300, #305, #269 ) ) ;
#272 = AXIS2_PLACEMENT_3D ( 'NONE', #51, #255, #54 ) ;
#273 = CARTESIAN_POINT ( 'NONE',  ( 0.000000000000000000, -12.00000000000000000, 0.000000000000000000 ) ) ;
#274 = VECTOR ( 'NONE', #213, 1000.000000000000000 ) ;
#275 = APPROVAL_STATUS ( 'not_yet_approved' ) ;
#276 = DIRECTION ( 'NONE',  ( -0.000000000000000000, 1.000000000000000000, -0.000000000000000000 ) ) ;
#277 = APPROVAL_STATUS ( 'not_yet_approved' ) ;
#278 = ORIENTED_EDGE ( 'NONE', *, *, #243, .F. ) ;
#279 = DATE_AND_TIME ( #227, #31 ) ;
#280 = DIRECTION ( 'NONE',  ( 0.000000000000000000, 0.000000000000000000, 1.000000000000000000 ) ) ;
#281 = CLOSED_SHELL ( 'NONE', ( #126, #329, #233, #335, #210, #160, #326, #148, #142, #285 ) ) ;
#282 = EDGE_LOOP ( 'NONE', ( #192, #163, #172, #78 ) ) ;
#283 = PERSON_AND_ORGANIZATION_ROLE ( 'design_owner' ) ;
#284 = FACE_BOUND ( 'NONE', #267, .T. ) ;
#285 = ADVANCED_FACE ( 'NONE', ( #215 ), #40, .F. ) ;
#286 = LINE ( 'NONE', #159, #287 ) ;
#287 = VECTOR ( 'NONE', #261, 1000.000000000000000 ) ;
#288 = CARTESIAN_POINT ( 'NONE',  ( 0.000000000000000000, 0.000000000000000000, 6.000000000000000000 ) ) ;
#289 = CARTESIAN_POINT ( 'NONE',  ( 0.000000000000000000, -9.999999999999998224, 0.000000000000000000 ) ) ;
#290 = EDGE_CURVE ( 'NONE', #265, #179, #118, .T. ) ;
#291 = FACE_OUTER_BOUND ( 'NONE', #271, .T. ) ;
#292 = ORIENTED_EDGE ( 'NONE', *, *, #77, .F. ) ;
#293 =( LENGTH_UNIT ( ) NAMED_UNIT ( * ) SI_UNIT ( .MILLI., .METRE. ) );
#294 = CYLINDRICAL_SURFACE ( 'NONE', #18, 5.999999999999999112 ) ;
#295 = PRODUCT_RELATED_PRODUCT_CATEGORY ( 'detail', '', ( #58 ) ) ;
#296 = ORIENTED_EDGE ( 'NONE', *, *, #99, .F. ) ;
#297 = FACE_OUTER_BOUND ( 'NONE', #143, .T. ) ;
#298 = VECTOR ( 'NONE', #319, 1000.000000000000000 ) ;
#299 = ORIENTED_EDGE ( 'NONE', *, *, #99, .T. ) ;
#300 = ORIENTED_EDGE ( 'NONE', *, *, #243, .T. ) ;
#301 = DIRECTION ( 'NONE',  ( -0.000000000000000000, 1.000000000000000000, -0.000000000000000000 ) ) ;
#302 = EDGE_CURVE ( 'NONE', #179, #68, #119, .T. ) ;
#303 = EDGE_LOOP ( 'NONE', ( #299, #5, #330, #66 ) ) ;
#304 = ORIENTED_EDGE ( 'NONE', *, *, #180, .T. ) ;
#305 = ORIENTED_EDGE ( 'NONE', *, *, #302, .F. ) ;
#306 = APPROVAL_DATE_TIME ( #201, #235 ) ;
#307 = APPROVAL_ROLE ( '' ) ;
#308 = FACE_OUTER_BOUND ( 'NONE', #125, .T. ) ;
#309 = AXIS2_PLACEMENT_3D ( 'NONE', #138, #1, #231 ) ;
#310 = APPLICATION_PROTOCOL_DEFINITION ( 'international standard', 'config_control_design', 1994, #56 ) ;
#311 = CARTESIAN_POINT ( 'NONE',  ( 7.347880794884120722E-16, 0.000000000000000000, -6.000000000000000888 ) ) ;
#312 = PRODUCT_DEFINITION_SHAPE ( 'NONE', 'NONE',  #11 ) ;
#313 = FACE_OUTER_BOUND ( 'NONE', #74, .T. ) ;
#314 = DIRECTION ( 'NONE',  ( 0.000000000000000000, 0.000000000000000000, 1.000000000000000000 ) ) ;
#315 = AXIS2_PLACEMENT_3D ( 'NONE', #29, #237, #24 ) ;
#316 = ORIENTED_EDGE ( 'NONE', *, *, #244, .T. ) ;
#317 = DIRECTION ( 'NONE',  ( 0.000000000000000000, 0.000000000000000000, 1.000000000000000000 ) ) ;
#318 = CC_DESIGN_PERSON_AND_ORGANIZATION_ASSIGNMENT ( #196, #256, ( #178 ) ) ;
#319 = DIRECTION ( 'NONE',  ( -0.000000000000000000, 1.000000000000000000, -0.000000000000000000 ) ) ;
#320 = FACE_OUTER_BOUND ( 'NONE', #303, .T. ) ;
#321 = CIRCLE ( 'NONE', #272, 5.999999999999998224 ) ;
#322 =( GEOMETRIC_REPRESENTATION_CONTEXT ( 3 ) GLOBAL_UNCERTAINTY_ASSIGNED_CONTEXT ( ( #14 ) ) GLOBAL_UNIT_ASSIGNED_CONTEXT ( ( #293, #36, #38 ) ) REPRESENTATION_CONTEXT ( 'NONE', 'WORKASPACE' ) );
#323 = APPROVAL_PERSON_ORGANIZATION ( #12, #193, #251 ) ;
#324 = DIRECTION ( 'NONE',  ( -0.000000000000000000, 1.000000000000000000, -0.000000000000000000 ) ) ;
#325 = CARTESIAN_POINT ( 'NONE',  ( 0.000000000000000000, -12.00000000000000000, 0.000000000000000000 ) ) ;
#326 = ADVANCED_FACE ( 'NONE', ( #218 ), #270, .T. ) ;
#327 = DIRECTION ( 'NONE',  ( -0.000000000000000000, 1.000000000000000000, -0.000000000000000000 ) ) ;
#328 = APPROVAL_DATE_TIME ( #49, #193 ) ;
#329 = ADVANCED_FACE ( 'NONE', ( #320 ), #294, .T. ) ;
#330 = ORIENTED_EDGE ( 'NONE', *, *, #67, .F. ) ;
#331 = CARTESIAN_POINT ( 'NONE',  ( 0.000000000000000000, -9.000000000000001776, 0.000000000000000000 ) ) ;
#332 = CARTESIAN_POINT ( 'NONE',  ( 0.000000000000000000, -4.286263797015761401E-18, 2.099999999999999645 ) ) ;
#333 = DATE_AND_TIME ( #173, #124 ) ;
#334 = CIRCLE ( 'NONE', #197, 5.999999999999998224 ) ;
#335 = ADVANCED_FACE ( 'NONE', ( #297 ), #189, .T. ) ;
ENDSEC;
END-ISO-10303-21;
