ISO-10303-21;
HEADER;
FILE_DESCRIPTION (( 'STEP AP203' ),
    '1' );
FILE_NAME ('B-122-25.STEP',
    '2022-03-11T02:20:32',
    ( '' ),
    ( '' ),
    'SwSTEP 2.0',
    'SolidWorks 2021',
    '' );
FILE_SCHEMA (( 'CONFIG_CONTROL_DESIGN' ));
ENDSEC;

DATA;
#1 = FACE_OUTER_BOUND ( 'NONE', #28, .T. ) ;
#2 = EDGE_CURVE ( 'NONE', #13, #241, #10, .T. ) ;
#3 =( NAMED_UNIT ( * ) SI_UNIT ( $, .STERADIAN. ) SOLID_ANGLE_UNIT ( ) );
#4 = ORIENTED_EDGE ( 'NONE', *, *, #96, .F. ) ;
#5 = ORIENTED_EDGE ( 'NONE', *, *, #8, .T. ) ;
#6 = LOCAL_TIME ( 11, 20, 32.00000000000000000, #193 ) ;
#7 = CARTESIAN_POINT ( 'NONE',  ( 2.571758278209439492E-16, 0.000000000000000000, -2.099999999999998312 ) ) ;
#8 = EDGE_CURVE ( 'NONE', #229, #203, #166, .T. ) ;
#9 = EDGE_LOOP ( 'NONE', ( #63, #233, #129, #231 ) ) ;
#10 = LINE ( 'NONE', #7, #35 ) ;
#11 = CC_DESIGN_APPROVAL ( #147, ( #262 ) ) ;
#12 = APPROVAL_DATE_TIME ( #189, #68 ) ;
#13 = VERTEX_POINT ( 'NONE', #297 ) ;
#14 = DIRECTION ( 'NONE',  ( 0.000000000000000000, 0.000000000000000000, 1.000000000000000000 ) ) ;
#15 = DESIGN_CONTEXT ( 'detailed design', #113, 'design' ) ;
#16 = CYLINDRICAL_SURFACE ( 'NONE', #160, 5.999999999999999112 ) ;
#17 = DIRECTION ( 'NONE',  ( -0.000000000000000000, 1.000000000000000000, -0.000000000000000000 ) ) ;
#18 = CARTESIAN_POINT ( 'NONE',  ( 7.347880794884120722E-16, 0.000000000000000000, -6.000000000000000888 ) ) ;
#19 = FACE_BOUND ( 'NONE', #180, .T. ) ;
#20 = CARTESIAN_POINT ( 'NONE',  ( 0.000000000000000000, -4.286263797015761401E-18, 0.000000000000000000 ) ) ;
#21 = PERSON_AND_ORGANIZATION ( #320, #287 ) ;
#22 = EDGE_LOOP ( 'NONE', ( #75, #281, #215, #240 ) ) ;
#23 = ORIENTED_EDGE ( 'NONE', *, *, #67, .T. ) ;
#24 = CARTESIAN_POINT ( 'NONE',  ( 0.000000000000000000, -15.00000000000000000, 0.000000000000000000 ) ) ;
#25 = VECTOR ( 'NONE', #97, 1000.000000000000000 ) ;
#26 = AXIS2_PLACEMENT_3D ( 'NONE', #276, #197, #225 ) ;
#27 = COORDINATED_UNIVERSAL_TIME_OFFSET ( 9, 0, .AHEAD. ) ;
#28 = EDGE_LOOP ( 'NONE', ( #324, #204 ) ) ;
#29 = ADVANCED_FACE ( 'NONE', ( #55 ), #192, .T. ) ;
#30 = VERTEX_POINT ( 'NONE', #158 ) ;
#31 = ADVANCED_FACE ( 'NONE', ( #117 ), #112, .T. ) ;
#32 = ADVANCED_FACE ( 'NONE', ( #139 ), #325, .F. ) ;
#33 = CARTESIAN_POINT ( 'NONE',  ( 0.000000000000000000, 0.000000000000000000, 0.000000000000000000 ) ) ;
#34 = AXIS2_PLACEMENT_3D ( 'NONE', #285, #181, #101 ) ;
#35 = VECTOR ( 'NONE', #294, 1000.000000000000000 ) ;
#36 = DIRECTION ( 'NONE',  ( -0.000000000000000000, 1.000000000000000000, -0.000000000000000000 ) ) ;
#37 = CYLINDRICAL_SURFACE ( 'NONE', #300, 2.099999999999998312 ) ;
#38 = EDGE_CURVE ( 'NONE', #132, #229, #85, .T. ) ;
#39 = CARTESIAN_POINT ( 'NONE',  ( -3.469446951953614189E-15, -13.50000000000000000, 0.000000000000000000 ) ) ;
#40 = DIRECTION ( 'NONE',  ( -0.000000000000000000, 1.000000000000000000, -0.000000000000000000 ) ) ;
#41 = CC_DESIGN_PERSON_AND_ORGANIZATION_ASSIGNMENT ( #52, #179, ( #185 ) ) ;
#42 = FACE_OUTER_BOUND ( 'NONE', #321, .T. ) ;
#43 = CARTESIAN_POINT ( 'NONE',  ( 0.000000000000000000, 0.000000000000000000, 0.000000000000000000 ) ) ;
#44 = CC_DESIGN_APPROVAL ( #68, ( #251 ) ) ;
#45 = CARTESIAN_POINT ( 'NONE',  ( 2.388061258337335685E-16, -17.00000000000000000, -1.949999999999997291 ) ) ;
#46 = DATE_AND_TIME ( #280, #315 ) ;
#47 = PERSON_AND_ORGANIZATION_ROLE ( 'creator' ) ;
#48 = ADVANCED_FACE ( 'NONE', ( #141 ), #37, .F. ) ;
#49 = DIRECTION ( 'NONE',  ( 1.000000000000000000, 0.000000000000000000, 0.000000000000000000 ) ) ;
#50 = CIRCLE ( 'NONE', #58, 5.999999999999998224 ) ;
#51 = EDGE_CURVE ( 'NONE', #30, #186, #151, .T. ) ;
#52 = PERSON_AND_ORGANIZATION ( #320, #287 ) ;
#53 = ORIENTED_EDGE ( 'NONE', *, *, #218, .T. ) ;
#54 = PERSON_AND_ORGANIZATION_ROLE ( 'design_supplier' ) ;
#55 = FACE_OUTER_BOUND ( 'NONE', #243, .T. ) ;
#56 = SHAPE_DEFINITION_REPRESENTATION ( #284, #98 ) ;
#57 = DIRECTION ( 'NONE',  ( 0.000000000000000000, 0.000000000000000000, 1.000000000000000000 ) ) ;
#58 = AXIS2_PLACEMENT_3D ( 'NONE', #149, #66, #176 ) ;
#59 = AXIS2_PLACEMENT_3D ( 'NONE', #211, #267, #296 ) ;
#60 = DATE_TIME_ROLE ( 'classification_date' ) ;
#61 = DIRECTION ( 'NONE',  ( 0.000000000000000000, 0.000000000000000000, 1.000000000000000000 ) ) ;
#62 = COORDINATED_UNIVERSAL_TIME_OFFSET ( 9, 0, .AHEAD. ) ;
#63 = ORIENTED_EDGE ( 'NONE', *, *, #126, .T. ) ;
#64 = CARTESIAN_POINT ( 'NONE',  ( 0.000000000000000000, 4.253003599660558187, 0.000000000000000000 ) ) ;
#65 = EDGE_CURVE ( 'NONE', #156, #290, #289, .T. ) ;
#66 = DIRECTION ( 'NONE',  ( -0.000000000000000000, 1.000000000000000000, -0.000000000000000000 ) ) ;
#67 = EDGE_CURVE ( 'NONE', #194, #13, #295, .T. ) ;
#68 = APPROVAL ( #266, 'UNSPECIFIED' ) ;
#69 = FACE_OUTER_BOUND ( 'NONE', #317, .T. ) ;
#70 = DIRECTION ( 'NONE',  ( 0.000000000000000000, 0.000000000000000000, 1.000000000000000000 ) ) ;
#71 = CIRCLE ( 'NONE', #196, 6.000000000000000000 ) ;
#72 = DIRECTION ( 'NONE',  ( -0.000000000000000000, 1.000000000000000000, -0.000000000000000000 ) ) ;
#73 = CARTESIAN_POINT ( 'NONE',  ( 0.000000000000000000, 0.000000000000000000, 0.000000000000000000 ) ) ;
#74 = CALENDAR_DATE ( 2022, 11, 3 ) ;
#75 = ORIENTED_EDGE ( 'NONE', *, *, #90, .T. ) ;
#76 = AXIS2_PLACEMENT_3D ( 'NONE', #39, #319, #143 ) ;
#77 = CIRCLE ( 'NONE', #226, 1.949999999999997291 ) ;
#78 = COORDINATED_UNIVERSAL_TIME_OFFSET ( 9, 0, .AHEAD. ) ;
#79 = PERSON_AND_ORGANIZATION_ROLE ( 'creator' ) ;
#80 = ORIENTED_EDGE ( 'NONE', *, *, #96, .T. ) ;
#81 = CIRCLE ( 'NONE', #26, 2.099999999999997424 ) ;
#82 = DIRECTION ( 'NONE',  ( 0.000000000000000000, 0.000000000000000000, 1.000000000000000000 ) ) ;
#83 = DIRECTION ( 'NONE',  ( 0.000000000000000000, 0.000000000000000000, 1.000000000000000000 ) ) ;
#84 = ORIENTED_EDGE ( 'NONE', *, *, #248, .T. ) ;
#85 = CIRCLE ( 'NONE', #273, 1.949999999999997291 ) ;
#86 = CALENDAR_DATE ( 2022, 11, 3 ) ;
#87 = EDGE_LOOP ( 'NONE', ( #190, #53 ) ) ;
#88 = DATE_AND_TIME ( #323, #134 ) ;
#89 = ORIENTED_EDGE ( 'NONE', *, *, #232, .T. ) ;
#90 = EDGE_CURVE ( 'NONE', #229, #132, #77, .T. ) ;
#91 = DIRECTION ( 'NONE',  ( -0.000000000000000000, 1.000000000000000000, 0.000000000000000000 ) ) ;
#92 = CC_DESIGN_DATE_AND_TIME_ASSIGNMENT ( #88, #60, ( #251 ) ) ;
#93 = DIRECTION ( 'NONE',  ( -0.000000000000000000, 1.000000000000000000, -0.000000000000000000 ) ) ;
#94 = APPLICATION_CONTEXT ( 'configuration controlled 3d designs of mechanical parts and assemblies' ) ;
#95 = LINE ( 'NONE', #222, #299 ) ;
#96 = EDGE_CURVE ( 'NONE', #257, #241, #274, .T. ) ;
#97 = DIRECTION ( 'NONE',  ( -0.000000000000000000, 1.000000000000000000, -0.000000000000000000 ) ) ;
#98 = ADVANCED_BREP_SHAPE_REPRESENTATION ( 'B-122-25', ( #123, #108 ), #279 ) ;
#99 = AXIS2_PLACEMENT_3D ( 'NONE', #223, #91, #172 ) ;
#100 = DIRECTION ( 'NONE',  ( 0.000000000000000000, 0.000000000000000000, 1.000000000000000000 ) ) ;
#101 = DIRECTION ( 'NONE',  ( 0.000000000000000000, -0.000000000000000000, -1.000000000000000000 ) ) ;
#102 = MECHANICAL_CONTEXT ( 'NONE', #94, 'mechanical' ) ;
#103 = ORIENTED_EDGE ( 'NONE', *, *, #218, .F. ) ;
#104 = ADVANCED_FACE ( 'NONE', ( #275 ), #16, .T. ) ;
#105 = ORIENTED_EDGE ( 'NONE', *, *, #90, .F. ) ;
#106 = EDGE_CURVE ( 'NONE', #132, #263, #269, .T. ) ;
#107 = PERSON_AND_ORGANIZATION ( #320, #287 ) ;
#108 = AXIS2_PLACEMENT_3D ( 'NONE', #202, #182, #49 ) ;
#109 = FACE_BOUND ( 'NONE', #130, .T. ) ;
#110 = ORIENTED_EDGE ( 'NONE', *, *, #38, .T. ) ;
#111 = ORIENTED_EDGE ( 'NONE', *, *, #67, .F. ) ;
#112 = CYLINDRICAL_SURFACE ( 'NONE', #333, 5.999999999999999112 ) ;
#113 = APPLICATION_CONTEXT ( 'configuration controlled 3d designs of mechanical parts and assemblies' ) ;
#114 = ORIENTED_EDGE ( 'NONE', *, *, #248, .F. ) ;
#115 = ORIENTED_EDGE ( 'NONE', *, *, #271, .T. ) ;
#116 = AXIS2_PLACEMENT_3D ( 'NONE', #327, #195, #330 ) ;
#117 = FACE_OUTER_BOUND ( 'NONE', #213, .T. ) ;
#118 = CC_DESIGN_DATE_AND_TIME_ASSIGNMENT ( #200, #135, ( #187 ) ) ;
#119 = CARTESIAN_POINT ( 'NONE',  ( 0.000000000000000000, -15.00000000000000000, 0.000000000000000000 ) ) ;
#120 = LINE ( 'NONE', #247, #162 ) ;
#121 = AXIS2_PLACEMENT_3D ( 'NONE', #161, #244, #148 ) ;
#122 = CARTESIAN_POINT ( 'NONE',  ( 0.000000000000000000, -13.50000000000000000, 2.099999999999997424 ) ) ;
#123 = MANIFOLD_SOLID_BREP ( 'M5x0.8 ‚Ë‚¶ŒŠ1', #235 ) ;
#124 = FACE_OUTER_BOUND ( 'NONE', #87, .T. ) ;
#125 = DIRECTION ( 'NONE',  ( 0.000000000000000000, 0.000000000000000000, 1.000000000000000000 ) ) ;
#126 = EDGE_CURVE ( 'NONE', #290, #156, #50, .T. ) ;
#127 = DIRECTION ( 'NONE',  ( 0.000000000000000000, 0.000000000000000000, 1.000000000000000000 ) ) ;
#128 = APPROVAL_STATUS ( 'not_yet_approved' ) ;
#129 = ORIENTED_EDGE ( 'NONE', *, *, #51, .F. ) ;
#130 = EDGE_LOOP ( 'NONE', ( #115, #152 ) ) ;
#131 = PERSON_AND_ORGANIZATION ( #320, #287 ) ;
#132 = VERTEX_POINT ( 'NONE', #45 ) ;
#133 = ORIENTED_EDGE ( 'NONE', *, *, #106, .F. ) ;
#134 = LOCAL_TIME ( 11, 20, 32.00000000000000000, #62 ) ;
#135 = DATE_TIME_ROLE ( 'creation_date' ) ;
#136 = ORIENTED_EDGE ( 'NONE', *, *, #153, .T. ) ;
#137 = ORIENTED_EDGE ( 'NONE', *, *, #159, .T. ) ;
#138 = CARTESIAN_POINT ( 'NONE',  ( 0.000000000000000000, -13.50000000000000000, 0.000000000000000000 ) ) ;
#139 = FACE_OUTER_BOUND ( 'NONE', #177, .T. ) ;
#140 = DIRECTION ( 'NONE',  ( -0.000000000000000000, 1.000000000000000000, -0.000000000000000000 ) ) ;
#141 = FACE_OUTER_BOUND ( 'NONE', #255, .T. ) ;
#142 = APPROVAL_PERSON_ORGANIZATION ( #21, #308, #227 ) ;
#143 = DIRECTION ( 'NONE',  ( 0.000000000000000000, -0.000000000000000000, -1.000000000000000000 ) ) ;
#144 = DIRECTION ( 'NONE',  ( -0.000000000000000000, 1.000000000000000000, -0.000000000000000000 ) ) ;
#145 = DIRECTION ( 'NONE',  ( -0.000000000000000000, 1.000000000000000000, -0.000000000000000000 ) ) ;
#146 = CARTESIAN_POINT ( 'NONE',  ( 2.388061258337335685E-16, 4.253003599660558187, -1.949999999999997513 ) ) ;
#147 = APPROVAL ( #230, 'UNSPECIFIED' ) ;
#148 = DIRECTION ( 'NONE',  ( 0.000000000000000000, 0.000000000000000000, 1.000000000000000000 ) ) ;
#149 = CARTESIAN_POINT ( 'NONE',  ( 0.000000000000000000, -15.00000000000000000, 0.000000000000000000 ) ) ;
#150 = DATE_AND_TIME ( #74, #310 ) ;
#151 = CIRCLE ( 'NONE', #174, 6.000000000000000000 ) ;
#152 = ORIENTED_EDGE ( 'NONE', *, *, #212, .T. ) ;
#153 = EDGE_CURVE ( 'NONE', #241, #257, #183, .T. ) ;
#154 = DIRECTION ( 'NONE',  ( 0.000000000000000000, 0.000000000000000000, 1.000000000000000000 ) ) ;
#155 = LOCAL_TIME ( 11, 20, 32.00000000000000000, #27 ) ;
#156 = VERTEX_POINT ( 'NONE', #198 ) ;
#157 = APPLICATION_PROTOCOL_DEFINITION ( 'international standard', 'config_control_design', 1994, #94 ) ;
#158 = CARTESIAN_POINT ( 'NONE',  ( 0.000000000000000000, 0.000000000000000000, 6.000000000000000000 ) ) ;
#159 = EDGE_CURVE ( 'NONE', #194, #257, #120, .T. ) ;
#160 = AXIS2_PLACEMENT_3D ( 'NONE', #170, #17, #301 ) ;
#161 = CARTESIAN_POINT ( 'NONE',  ( 0.000000000000000000, -4.286263797015761401E-18, 0.000000000000000000 ) ) ;
#162 = VECTOR ( 'NONE', #302, 1000.000000000000000 ) ;
#163 = APPROVAL_PERSON_ORGANIZATION ( #306, #147, #228 ) ;
#164 = APPROVAL_ROLE ( '' ) ;
#165 = DIRECTION ( 'NONE',  ( -0.000000000000000000, 1.000000000000000000, -0.000000000000000000 ) ) ;
#166 = LINE ( 'NONE', #265, #220 ) ;
#167 = SECURITY_CLASSIFICATION_LEVEL ( 'unclassified' ) ;
#168 = CARTESIAN_POINT ( 'NONE',  ( 0.000000000000000000, 0.000000000000000000, 0.000000000000000000 ) ) ;
#169 = DIRECTION ( 'NONE',  ( 0.000000000000000000, 0.000000000000000000, 1.000000000000000000 ) ) ;
#170 = CARTESIAN_POINT ( 'NONE',  ( 0.000000000000000000, 4.253003599660558187, 0.000000000000000000 ) ) ;
#171 = ADVANCED_FACE ( 'NONE', ( #328 ), #250, .T. ) ;
#172 = DIRECTION ( 'NONE',  ( 0.000000000000000000, 0.000000000000000000, 1.000000000000000000 ) ) ;
#173 = VECTOR ( 'NONE', #259, 1000.000000000000000 ) ;
#174 = AXIS2_PLACEMENT_3D ( 'NONE', #168, #40, #14 ) ;
#175 = CARTESIAN_POINT ( 'NONE',  ( 2.571758278209440478E-16, -4.286263797015761401E-18, -2.099999999999999201 ) ) ;
#176 = DIRECTION ( 'NONE',  ( 0.000000000000000000, 0.000000000000000000, 1.000000000000000000 ) ) ;
#177 = EDGE_LOOP ( 'NONE', ( #23, #84 ) ) ;
#178 = CIRCLE ( 'NONE', #116, 1.949999999999997735 ) ;
#179 = PERSON_AND_ORGANIZATION_ROLE ( 'design_owner' ) ;
#180 = EDGE_LOOP ( 'NONE', ( #4, #238 ) ) ;
#181 = DIRECTION ( 'NONE',  ( 0.000000000000000000, -1.000000000000000000, 0.000000000000000000 ) ) ;
#182 = DIRECTION ( 'NONE',  ( 0.000000000000000000, 0.000000000000000000, 1.000000000000000000 ) ) ;
#183 = CIRCLE ( 'NONE', #272, 2.099999999999999201 ) ;
#184 = CIRCLE ( 'NONE', #322, 1.949999999999997735 ) ;
#185 = PRODUCT ( 'B-122-25', 'B-122-25', '', ( #102 ) ) ;
#186 = VERTEX_POINT ( 'NONE', #18 ) ;
#187 = PRODUCT_DEFINITION ( 'UNKNOWN', '', #262, #15 ) ;
#188 = CARTESIAN_POINT ( 'NONE',  ( 0.000000000000000000, -17.00000000000000000, 0.000000000000000000 ) ) ;
#189 = DATE_AND_TIME ( #86, #6 ) ;
#190 = ORIENTED_EDGE ( 'NONE', *, *, #51, .T. ) ;
#191 = ADVANCED_FACE ( 'NONE', ( #19, #124 ), #199, .T. ) ;
#192 = PLANE ( 'NONE',  #59 ) ;
#193 = COORDINATED_UNIVERSAL_TIME_OFFSET ( 9, 0, .AHEAD. ) ;
#194 = VERTEX_POINT ( 'NONE', #122 ) ;
#195 = DIRECTION ( 'NONE',  ( -0.000000000000000000, 1.000000000000000000, -0.000000000000000000 ) ) ;
#196 = AXIS2_PLACEMENT_3D ( 'NONE', #43, #93, #70 ) ;
#197 = DIRECTION ( 'NONE',  ( -0.000000000000000000, 1.000000000000000000, -0.000000000000000000 ) ) ;
#198 = CARTESIAN_POINT ( 'NONE',  ( 7.347880794884118750E-16, -15.00000000000000000, -5.999999999999998224 ) ) ;
#199 = PLANE ( 'NONE',  #99 ) ;
#200 = DATE_AND_TIME ( #334, #155 ) ;
#201 = APPROVAL_DATE_TIME ( #150, #147 ) ;
#202 = CARTESIAN_POINT ( 'NONE',  ( 0.000000000000000000, 0.000000000000000000, 0.000000000000000000 ) ) ;
#203 = VERTEX_POINT ( 'NONE', #246 ) ;
#204 = ORIENTED_EDGE ( 'NONE', *, *, #65, .F. ) ;
#205 = LINE ( 'NONE', #237, #173 ) ;
#206 = ADVANCED_FACE ( 'NONE', ( #42 ), #298, .T. ) ;
#207 = PERSON_AND_ORGANIZATION ( #320, #287 ) ;
#208 = AXIS2_PLACEMENT_3D ( 'NONE', #249, #144, #127 ) ;
#209 = AXIS2_PLACEMENT_3D ( 'NONE', #119, #216, #82 ) ;
#210 = DIRECTION ( 'NONE',  ( -0.000000000000000000, 1.000000000000000000, -0.000000000000000000 ) ) ;
#211 = CARTESIAN_POINT ( 'NONE',  ( 0.000000000000000000, -17.00000000000000000, -2.602742283059147518E-15 ) ) ;
#212 = EDGE_CURVE ( 'NONE', #263, #203, #178, .T. ) ;
#213 = EDGE_LOOP ( 'NONE', ( #260, #278, #89, #103 ) ) ;
#214 = CC_DESIGN_APPROVAL ( #308, ( #187 ) ) ;
#215 = ORIENTED_EDGE ( 'NONE', *, *, #271, .F. ) ;
#216 = DIRECTION ( 'NONE',  ( -0.000000000000000000, 1.000000000000000000, -0.000000000000000000 ) ) ;
#217 = CARTESIAN_POINT ( 'NONE',  ( 0.000000000000000000, 4.253003599660558187, 0.000000000000000000 ) ) ;
#218 = EDGE_CURVE ( 'NONE', #186, #30, #71, .T. ) ;
#219 = APPROVAL_PERSON_ORGANIZATION ( #207, #68, #164 ) ;
#220 = VECTOR ( 'NONE', #165, 1000.000000000000000 ) ;
#221 = AXIS2_PLACEMENT_3D ( 'NONE', #138, #239, #83 ) ;
#222 = CARTESIAN_POINT ( 'NONE',  ( 0.000000000000000000, 4.253003599660558187, 5.999999999999999112 ) ) ;
#223 = CARTESIAN_POINT ( 'NONE',  ( 0.000000000000000000, 0.000000000000000000, 6.000000000000000000 ) ) ;
#224 = ADVANCED_FACE ( 'NONE', ( #69 ), #303, .F. ) ;
#225 = DIRECTION ( 'NONE',  ( 0.000000000000000000, 0.000000000000000000, 1.000000000000000000 ) ) ;
#226 = AXIS2_PLACEMENT_3D ( 'NONE', #188, #293, #57 ) ;
#227 = APPROVAL_ROLE ( '' ) ;
#228 = APPROVAL_ROLE ( '' ) ;
#229 = VERTEX_POINT ( 'NONE', #305 ) ;
#230 = APPROVAL_STATUS ( 'not_yet_approved' ) ;
#231 = ORIENTED_EDGE ( 'NONE', *, *, #232, .F. ) ;
#232 = EDGE_CURVE ( 'NONE', #290, #30, #95, .T. ) ;
#233 = ORIENTED_EDGE ( 'NONE', *, *, #283, .T. ) ;
#234 =( LENGTH_UNIT ( ) NAMED_UNIT ( * ) SI_UNIT ( .MILLI., .METRE. ) );
#235 = CLOSED_SHELL ( 'NONE', ( #48, #104, #171, #29, #206, #312, #31, #191, #32, #224 ) ) ;
#236 = ORIENTED_EDGE ( 'NONE', *, *, #2, .T. ) ;
#237 = CARTESIAN_POINT ( 'NONE',  ( 7.347880794884118750E-16, 4.253003599660558187, -5.999999999999999112 ) ) ;
#238 = ORIENTED_EDGE ( 'NONE', *, *, #153, .F. ) ;
#239 = DIRECTION ( 'NONE',  ( -0.000000000000000000, 1.000000000000000000, -0.000000000000000000 ) ) ;
#240 = ORIENTED_EDGE ( 'NONE', *, *, #8, .F. ) ;
#241 = VERTEX_POINT ( 'NONE', #175 ) ;
#242 = DIRECTION ( 'NONE',  ( 0.000000000000000000, 0.000000000000000000, 1.000000000000000000 ) ) ;
#243 = EDGE_LOOP ( 'NONE', ( #105, #313 ) ) ;
#244 = DIRECTION ( 'NONE',  ( -0.000000000000000000, 1.000000000000000000, -0.000000000000000000 ) ) ;
#245 = PRODUCT_RELATED_PRODUCT_CATEGORY ( 'detail', '', ( #185 ) ) ;
#246 = CARTESIAN_POINT ( 'NONE',  ( 0.000000000000000000, -15.00000000000000000, 1.949999999999997735 ) ) ;
#247 = CARTESIAN_POINT ( 'NONE',  ( 0.000000000000000000, 0.000000000000000000, 2.099999999999998312 ) ) ;
#248 = EDGE_CURVE ( 'NONE', #13, #194, #81, .T. ) ;
#249 = CARTESIAN_POINT ( 'NONE',  ( 0.000000000000000000, 4.253003599660558187, 0.000000000000000000 ) ) ;
#250 = CYLINDRICAL_SURFACE ( 'NONE', #208, 1.949999999999997513 ) ;
#251 = SECURITY_CLASSIFICATION ( '', '', #167 ) ;
#252 = DIRECTION ( 'NONE',  ( -0.000000000000000000, 1.000000000000000000, -0.000000000000000000 ) ) ;
#253 = APPROVAL_DATE_TIME ( #46, #308 ) ;
#254 = CC_DESIGN_PERSON_AND_ORGANIZATION_ASSIGNMENT ( #292, #316, ( #251 ) ) ;
#255 = EDGE_LOOP ( 'NONE', ( #114, #236, #136, #286 ) ) ;
#256 = COORDINATED_UNIVERSAL_TIME_OFFSET ( 9, 0, .AHEAD. ) ;
#257 = VERTEX_POINT ( 'NONE', #331 ) ;
#258 = CC_DESIGN_PERSON_AND_ORGANIZATION_ASSIGNMENT ( #131, #79, ( #187 ) ) ;
#259 = DIRECTION ( 'NONE',  ( -0.000000000000000000, 1.000000000000000000, -0.000000000000000000 ) ) ;
#260 = ORIENTED_EDGE ( 'NONE', *, *, #283, .F. ) ;
#261 = DIRECTION ( 'NONE',  ( 0.000000000000000000, 0.000000000000000000, 1.000000000000000000 ) ) ;
#262 = PRODUCT_DEFINITION_FORMATION_WITH_SPECIFIED_SOURCE ( 'ANY', '', #185, .NOT_KNOWN. ) ;
#263 = VERTEX_POINT ( 'NONE', #288 ) ;
#264 = CARTESIAN_POINT ( 'NONE',  ( 0.000000000000000000, -17.00000000000000000, 0.000000000000000000 ) ) ;
#265 = CARTESIAN_POINT ( 'NONE',  ( 0.000000000000000000, 4.253003599660558187, 1.949999999999997513 ) ) ;
#266 = APPROVAL_STATUS ( 'not_yet_approved' ) ;
#267 = DIRECTION ( 'NONE',  ( 0.000000000000000000, -1.000000000000000000, 0.000000000000000000 ) ) ;
#268 = CC_DESIGN_SECURITY_CLASSIFICATION ( #251, ( #262 ) ) ;
#269 = LINE ( 'NONE', #146, #25 ) ;
#270 = DIRECTION ( 'NONE',  ( -0.000000000000000000, 1.000000000000000000, -0.000000000000000000 ) ) ;
#271 = EDGE_CURVE ( 'NONE', #203, #263, #184, .T. ) ;
#272 = AXIS2_PLACEMENT_3D ( 'NONE', #20, #270, #100 ) ;
#273 = AXIS2_PLACEMENT_3D ( 'NONE', #264, #210, #261 ) ;
#274 = CIRCLE ( 'NONE', #121, 2.099999999999999201 ) ;
#275 = FACE_OUTER_BOUND ( 'NONE', #9, .T. ) ;
#276 = CARTESIAN_POINT ( 'NONE',  ( 0.000000000000000000, -13.50000000000000000, 0.000000000000000000 ) ) ;
#277 = APPLICATION_PROTOCOL_DEFINITION ( 'international standard', 'config_control_design', 1994, #113 ) ;
#278 = ORIENTED_EDGE ( 'NONE', *, *, #65, .T. ) ;
#279 =( GEOMETRIC_REPRESENTATION_CONTEXT ( 3 ) GLOBAL_UNCERTAINTY_ASSIGNED_CONTEXT ( ( #318 ) ) GLOBAL_UNIT_ASSIGNED_CONTEXT ( ( #234, #282, #3 ) ) REPRESENTATION_CONTEXT ( 'NONE', 'WORKASPACE' ) );
#280 = CALENDAR_DATE ( 2022, 11, 3 ) ;
#281 = ORIENTED_EDGE ( 'NONE', *, *, #106, .T. ) ;
#282 =( NAMED_UNIT ( * ) PLANE_ANGLE_UNIT ( ) SI_UNIT ( $, .RADIAN. ) );
#283 = EDGE_CURVE ( 'NONE', #156, #186, #205, .T. ) ;
#284 = PRODUCT_DEFINITION_SHAPE ( 'NONE', 'NONE',  #187 ) ;
#285 = CARTESIAN_POINT ( 'NONE',  ( 0.000000000000000000, -15.00000000000000000, 5.999999999999998224 ) ) ;
#286 = ORIENTED_EDGE ( 'NONE', *, *, #159, .F. ) ;
#287 = ORGANIZATION ( 'UNSPECIFIED', 'UNSPECIFIED', '' ) ;
#288 = CARTESIAN_POINT ( 'NONE',  ( 2.388061258337336178E-16, -15.00000000000000000, -1.949999999999997957 ) ) ;
#289 = CIRCLE ( 'NONE', #209, 5.999999999999998224 ) ;
#290 = VERTEX_POINT ( 'NONE', #314 ) ;
#291 = ORIENTED_EDGE ( 'NONE', *, *, #212, .F. ) ;
#292 = PERSON_AND_ORGANIZATION ( #320, #287 ) ;
#293 = DIRECTION ( 'NONE',  ( -0.000000000000000000, 1.000000000000000000, -0.000000000000000000 ) ) ;
#294 = DIRECTION ( 'NONE',  ( -0.000000000000000000, 1.000000000000000000, -0.000000000000000000 ) ) ;
#295 = CIRCLE ( 'NONE', #221, 2.099999999999997424 ) ;
#296 = DIRECTION ( 'NONE',  ( 0.000000000000000000, -0.000000000000000000, -1.000000000000000000 ) ) ;
#297 = CARTESIAN_POINT ( 'NONE',  ( 2.571758278209438999E-16, -13.50000000000000000, -2.099999999999997424 ) ) ;
#298 = CYLINDRICAL_SURFACE ( 'NONE', #304, 1.949999999999997513 ) ;
#299 = VECTOR ( 'NONE', #72, 1000.000000000000000 ) ;
#300 = AXIS2_PLACEMENT_3D ( 'NONE', #33, #140, #242 ) ;
#301 = DIRECTION ( 'NONE',  ( 0.000000000000000000, 0.000000000000000000, 1.000000000000000000 ) ) ;
#302 = DIRECTION ( 'NONE',  ( -0.000000000000000000, 1.000000000000000000, -0.000000000000000000 ) ) ;
#303 = CYLINDRICAL_SURFACE ( 'NONE', #332, 2.099999999999998312 ) ;
#304 = AXIS2_PLACEMENT_3D ( 'NONE', #217, #326, #169 ) ;
#305 = CARTESIAN_POINT ( 'NONE',  ( 0.000000000000000000, -17.00000000000000000, 1.949999999999997291 ) ) ;
#306 = PERSON_AND_ORGANIZATION ( #320, #287 ) ;
#307 = CC_DESIGN_PERSON_AND_ORGANIZATION_ASSIGNMENT ( #309, #47, ( #262 ) ) ;
#308 = APPROVAL ( #128, 'UNSPECIFIED' ) ;
#309 = PERSON_AND_ORGANIZATION ( #320, #287 ) ;
#310 = LOCAL_TIME ( 11, 20, 32.00000000000000000, #78 ) ;
#311 = PLANE ( 'NONE',  #34 ) ;
#312 = ADVANCED_FACE ( 'NONE', ( #109, #1 ), #311, .T. ) ;
#313 = ORIENTED_EDGE ( 'NONE', *, *, #38, .F. ) ;
#314 = CARTESIAN_POINT ( 'NONE',  ( 0.000000000000000000, -15.00000000000000000, 5.999999999999998224 ) ) ;
#315 = LOCAL_TIME ( 11, 20, 32.00000000000000000, #256 ) ;
#316 = PERSON_AND_ORGANIZATION_ROLE ( 'classification_officer' ) ;
#317 = EDGE_LOOP ( 'NONE', ( #335, #111, #137, #80 ) ) ;
#318 = UNCERTAINTY_MEASURE_WITH_UNIT (LENGTH_MEASURE( 1.000000000000000082E-05 ), #234, 'distance_accuracy_value', 'NONE');
#319 = DIRECTION ( 'NONE',  ( 0.000000000000000000, -1.000000000000000000, 0.000000000000000000 ) ) ;
#320 = PERSON ( 'UNSPECIFIED', 'UNSPECIFIED', 'UNSPECIFIED', ('UNSPECIFIED'), ('UNSPECIFIED'), ('UNSPECIFIED') ) ;
#321 = EDGE_LOOP ( 'NONE', ( #133, #110, #5, #291 ) ) ;
#322 = AXIS2_PLACEMENT_3D ( 'NONE', #24, #252, #154 ) ;
#323 = CALENDAR_DATE ( 2022, 11, 3 ) ;
#324 = ORIENTED_EDGE ( 'NONE', *, *, #126, .F. ) ;
#325 = PLANE ( 'NONE',  #76 ) ;
#326 = DIRECTION ( 'NONE',  ( -0.000000000000000000, 1.000000000000000000, -0.000000000000000000 ) ) ;
#327 = CARTESIAN_POINT ( 'NONE',  ( 0.000000000000000000, -15.00000000000000000, 0.000000000000000000 ) ) ;
#328 = FACE_OUTER_BOUND ( 'NONE', #22, .T. ) ;
#329 = CC_DESIGN_PERSON_AND_ORGANIZATION_ASSIGNMENT ( #107, #54, ( #262 ) ) ;
#330 = DIRECTION ( 'NONE',  ( 0.000000000000000000, 0.000000000000000000, 1.000000000000000000 ) ) ;
#331 = CARTESIAN_POINT ( 'NONE',  ( 0.000000000000000000, -4.286263797015761401E-18, 2.099999999999999201 ) ) ;
#332 = AXIS2_PLACEMENT_3D ( 'NONE', #73, #145, #125 ) ;
#333 = AXIS2_PLACEMENT_3D ( 'NONE', #64, #36, #61 ) ;
#334 = CALENDAR_DATE ( 2022, 11, 3 ) ;
#335 = ORIENTED_EDGE ( 'NONE', *, *, #2, .F. ) ;
ENDSEC;
END-ISO-10303-21;
