ISO-10303-21;
HEADER;
FILE_DESCRIPTION (( 'STEP AP203' ),
    '1' );
FILE_NAME ('B-122-24.STEP',
    '2022-03-11T02:19:10',
    ( '' ),
    ( '' ),
    'SwSTEP 2.0',
    'SolidWorks 2021',
    '' );
FILE_SCHEMA (( 'CONFIG_CONTROL_DESIGN' ));
ENDSEC;

DATA;
#1 = APPROVAL ( #130, 'UNSPECIFIED' ) ;
#2 = DIRECTION ( 'NONE',  ( -0.000000000000000000, 1.000000000000000000, -0.000000000000000000 ) ) ;
#3 = LOCAL_TIME ( 11, 19, 10.00000000000000000, #35 ) ;
#4 = MANIFOLD_SOLID_BREP ( 'M6x1.0 ‚Ë‚¶ŒŠ2', #61 ) ;
#5 = DIRECTION ( 'NONE',  ( 0.000000000000000000, 0.000000000000000000, 1.000000000000000000 ) ) ;
#6 = CARTESIAN_POINT ( 'NONE',  ( 0.000000000000000000, -12.00000000000000000, 2.449999999999997513 ) ) ;
#7 = DIRECTION ( 'NONE',  ( 0.000000000000000000, 0.000000000000000000, 1.000000000000000000 ) ) ;
#8 = AXIS2_PLACEMENT_3D ( 'NONE', #80, #316, #108 ) ;
#9 = DIRECTION ( 'NONE',  ( -0.000000000000000000, 1.000000000000000000, -0.000000000000000000 ) ) ;
#10 = LOCAL_TIME ( 11, 19, 10.00000000000000000, #32 ) ;
#11 = PERSON_AND_ORGANIZATION ( #135, #267 ) ;
#12 = CALENDAR_DATE ( 2022, 11, 3 ) ;
#13 = ORIENTED_EDGE ( 'NONE', *, *, #325, .T. ) ;
#14 = UNCERTAINTY_MEASURE_WITH_UNIT (LENGTH_MEASURE( 1.000000000000000082E-05 ), #268, 'distance_accuracy_value', 'NONE');
#15 = CARTESIAN_POINT ( 'NONE',  ( 0.000000000000000000, 0.000000000000000000, 0.000000000000000000 ) ) ;
#16 = ORIENTED_EDGE ( 'NONE', *, *, #265, .F. ) ;
#17 = DATE_AND_TIME ( #123, #219 ) ;
#18 = EDGE_CURVE ( 'NONE', #172, #146, #328, .T. ) ;
#19 = CC_DESIGN_APPROVAL ( #202, ( #120 ) ) ;
#20 = DIRECTION ( 'NONE',  ( 0.000000000000000000, -1.000000000000000000, 0.000000000000000000 ) ) ;
#21 = ORIENTED_EDGE ( 'NONE', *, *, #149, .T. ) ;
#22 = CC_DESIGN_DATE_AND_TIME_ASSIGNMENT ( #319, #326, ( #120 ) ) ;
#23 = ORIENTED_EDGE ( 'NONE', *, *, #50, .F. ) ;
#24 = AXIS2_PLACEMENT_3D ( 'NONE', #258, #20, #127 ) ;
#25 = DIRECTION ( 'NONE',  ( -0.000000000000000000, 1.000000000000000000, -0.000000000000000000 ) ) ;
#26 = CARTESIAN_POINT ( 'NONE',  ( 0.000000000000000000, 4.253003599660558187, 0.000000000000000000 ) ) ;
#27 = CYLINDRICAL_SURFACE ( 'NONE', #74, 2.499999999999998668 ) ;
#28 = DIRECTION ( 'NONE',  ( 0.000000000000000000, 0.000000000000000000, 1.000000000000000000 ) ) ;
#29 = FACE_OUTER_BOUND ( 'NONE', #89, .T. ) ;
#30 = ADVANCED_FACE ( 'NONE', ( #280 ), #234, .T. ) ;
#31 = CARTESIAN_POINT ( 'NONE',  ( 9.184850993605147944E-16, -9.999999999999998224, -7.499999999999998224 ) ) ;
#32 = COORDINATED_UNIVERSAL_TIME_OFFSET ( 9, 0, .AHEAD. ) ;
#33 = APPROVAL_DATE_TIME ( #269, #247 ) ;
#34 = EDGE_LOOP ( 'NONE', ( #77, #131, #106, #197 ) ) ;
#35 = COORDINATED_UNIVERSAL_TIME_OFFSET ( 9, 0, .AHEAD. ) ;
#36 = AXIS2_PLACEMENT_3D ( 'NONE', #128, #43, #230 ) ;
#37 = ORIENTED_EDGE ( 'NONE', *, *, #304, .T. ) ;
#38 = AXIS2_PLACEMENT_3D ( 'NONE', #194, #192, #296 ) ;
#39 = CC_DESIGN_SECURITY_CLASSIFICATION ( #295, ( #209 ) ) ;
#40 = APPROVAL_ROLE ( '' ) ;
#41 = ADVANCED_FACE ( 'NONE', ( #305 ), #152, .F. ) ;
#42 = ORIENTED_EDGE ( 'NONE', *, *, #60, .F. ) ;
#43 = DIRECTION ( 'NONE',  ( -0.000000000000000000, 1.000000000000000000, 0.000000000000000000 ) ) ;
#44 = AXIS2_PLACEMENT_3D ( 'NONE', #158, #191, #138 ) ;
#45 = ADVANCED_FACE ( 'NONE', ( #332 ), #334, .F. ) ;
#46 = CALENDAR_DATE ( 2022, 11, 3 ) ;
#47 = EDGE_LOOP ( 'NONE', ( #200, #21 ) ) ;
#48 = DIRECTION ( 'NONE',  ( -0.000000000000000000, 1.000000000000000000, -0.000000000000000000 ) ) ;
#49 = LINE ( 'NONE', #102, #176 ) ;
#50 = EDGE_CURVE ( 'NONE', #146, #199, #49, .T. ) ;
#51 = AXIS2_PLACEMENT_3D ( 'NONE', #331, #257, #306 ) ;
#52 = FACE_OUTER_BOUND ( 'NONE', #150, .T. ) ;
#53 = DIRECTION ( 'NONE',  ( -0.000000000000000000, 1.000000000000000000, -0.000000000000000000 ) ) ;
#54 = CARTESIAN_POINT ( 'NONE',  ( 0.000000000000000000, 4.253003599660558187, 7.499999999999999112 ) ) ;
#55 = CIRCLE ( 'NONE', #132, 7.500000000000000000 ) ;
#56 = CC_DESIGN_DATE_AND_TIME_ASSIGNMENT ( #329, #253, ( #295 ) ) ;
#57 = CARTESIAN_POINT ( 'NONE',  ( 0.000000000000000000, -12.00000000000000000, 0.000000000000000000 ) ) ;
#58 = LINE ( 'NONE', #161, #114 ) ;
#59 = LINE ( 'NONE', #110, #170 ) ;
#60 = EDGE_CURVE ( 'NONE', #133, #122, #87, .T. ) ;
#61 = CLOSED_SHELL ( 'NONE', ( #145, #30, #297, #233, #105, #272, #321, #84, #45, #41 ) ) ;
#62 = APPROVAL_STATUS ( 'not_yet_approved' ) ;
#63 = ORIENTED_EDGE ( 'NONE', *, *, #125, .T. ) ;
#64 = DESIGN_CONTEXT ( 'detailed design', #107, 'design' ) ;
#65 = VERTEX_POINT ( 'NONE', #255 ) ;
#66 = PERSON_AND_ORGANIZATION ( #135, #267 ) ;
#67 = ORIENTED_EDGE ( 'NONE', *, *, #68, .F. ) ;
#68 = EDGE_CURVE ( 'NONE', #199, #330, #246, .T. ) ;
#69 = ORIENTED_EDGE ( 'NONE', *, *, #178, .T. ) ;
#70 = PERSON_AND_ORGANIZATION ( #135, #267 ) ;
#71 = APPLICATION_CONTEXT ( 'configuration controlled 3d designs of mechanical parts and assemblies' ) ;
#72 = DIRECTION ( 'NONE',  ( -0.000000000000000000, 1.000000000000000000, -0.000000000000000000 ) ) ;
#73 = DIRECTION ( 'NONE',  ( 0.000000000000000000, 0.000000000000000000, 1.000000000000000000 ) ) ;
#74 = AXIS2_PLACEMENT_3D ( 'NONE', #215, #139, #290 ) ;
#75 = DIRECTION ( 'NONE',  ( 0.000000000000000000, 0.000000000000000000, 1.000000000000000000 ) ) ;
#76 = ORIENTED_EDGE ( 'NONE', *, *, #229, .F. ) ;
#77 = ORIENTED_EDGE ( 'NONE', *, *, #325, .F. ) ;
#78 = DIRECTION ( 'NONE',  ( -0.000000000000000000, 1.000000000000000000, -0.000000000000000000 ) ) ;
#79 = CARTESIAN_POINT ( 'NONE',  ( 0.000000000000000000, 0.000000000000000000, 0.000000000000000000 ) ) ;
#80 = CARTESIAN_POINT ( 'NONE',  ( 0.000000000000000000, -10.00000000000000000, 7.499999999999998224 ) ) ;
#81 = AXIS2_PLACEMENT_3D ( 'NONE', #285, #190, #261 ) ;
#82 = CARTESIAN_POINT ( 'NONE',  ( 3.061616997868382155E-16, -4.898587196589386574E-18, -2.499999999999999112 ) ) ;
#83 = CARTESIAN_POINT ( 'NONE',  ( 0.000000000000000000, 4.253003599660558187, 0.000000000000000000 ) ) ;
#84 = ADVANCED_FACE ( 'NONE', ( #177, #52 ), #310, .T. ) ;
#85 = MECHANICAL_CONTEXT ( 'NONE', #71, 'mechanical' ) ;
#86 = ORIENTED_EDGE ( 'NONE', *, *, #260, .F. ) ;
#87 = CIRCLE ( 'NONE', #94, 2.499999999999999112 ) ;
#88 = PERSON_AND_ORGANIZATION ( #135, #267 ) ;
#89 = EDGE_LOOP ( 'NONE', ( #69, #225, #67, #23 ) ) ;
#90 = ORIENTED_EDGE ( 'NONE', *, *, #304, .F. ) ;
#91 = EDGE_CURVE ( 'NONE', #270, #283, #294, .T. ) ;
#92 = ORIENTED_EDGE ( 'NONE', *, *, #178, .F. ) ;
#93 = PERSON_AND_ORGANIZATION ( #135, #267 ) ;
#94 = AXIS2_PLACEMENT_3D ( 'NONE', #207, #228, #100 ) ;
#95 = ORIENTED_EDGE ( 'NONE', *, *, #60, .T. ) ;
#96 = CC_DESIGN_APPROVAL ( #1, ( #295 ) ) ;
#97 = APPROVAL_ROLE ( '' ) ;
#98 = CARTESIAN_POINT ( 'NONE',  ( 0.000000000000000000, -12.00000000000000000, 0.000000000000000000 ) ) ;
#99 = CC_DESIGN_PERSON_AND_ORGANIZATION_ASSIGNMENT ( #70, #173, ( #295 ) ) ;
#100 = DIRECTION ( 'NONE',  ( 0.000000000000000000, 0.000000000000000000, 1.000000000000000000 ) ) ;
#101 = COORDINATED_UNIVERSAL_TIME_OFFSET ( 9, 0, .AHEAD. ) ;
#102 = CARTESIAN_POINT ( 'NONE',  ( 0.000000000000000000, 4.253003599660558187, 2.449999999999997513 ) ) ;
#103 = PERSON_AND_ORGANIZATION ( #135, #267 ) ;
#104 = DIRECTION ( 'NONE',  ( -0.000000000000000000, 1.000000000000000000, -0.000000000000000000 ) ) ;
#105 = ADVANCED_FACE ( 'NONE', ( #284 ), #179, .T. ) ;
#106 = ORIENTED_EDGE ( 'NONE', *, *, #212, .T. ) ;
#107 = APPLICATION_CONTEXT ( 'configuration controlled 3d designs of mechanical parts and assemblies' ) ;
#108 = DIRECTION ( 'NONE',  ( 0.000000000000000000, -0.000000000000000000, -1.000000000000000000 ) ) ;
#109 = APPROVAL_PERSON_ORGANIZATION ( #167, #247, #164 ) ;
#110 = CARTESIAN_POINT ( 'NONE',  ( 3.061616997868381662E-16, 0.000000000000000000, -2.499999999999998668 ) ) ;
#111 = EDGE_CURVE ( 'NONE', #165, #250, #204, .T. ) ;
#112 = CARTESIAN_POINT ( 'NONE',  ( 3.061616997868381169E-16, -9.000000000000001776, -2.499999999999997780 ) ) ;
#113 = DIRECTION ( 'NONE',  ( 0.000000000000000000, -0.000000000000000000, -1.000000000000000000 ) ) ;
#114 = VECTOR ( 'NONE', #53, 1000.000000000000000 ) ;
#115 = EDGE_CURVE ( 'NONE', #250, #165, #300, .T. ) ;
#116 = PLANE ( 'NONE',  #8 ) ;
#117 = DIRECTION ( 'NONE',  ( 1.000000000000000000, 0.000000000000000000, 0.000000000000000000 ) ) ;
#118 = VECTOR ( 'NONE', #196, 1000.000000000000000 ) ;
#119 = PERSON_AND_ORGANIZATION ( #135, #267 ) ;
#120 = PRODUCT_DEFINITION ( 'UNKNOWN', '', #209, #64 ) ;
#121 = PERSON_AND_ORGANIZATION_ROLE ( 'creator' ) ;
#122 = VERTEX_POINT ( 'NONE', #82 ) ;
#123 = CALENDAR_DATE ( 2022, 11, 3 ) ;
#124 = EDGE_LOOP ( 'NONE', ( #276, #232 ) ) ;
#125 = EDGE_CURVE ( 'NONE', #250, #133, #259, .T. ) ;
#126 = AXIS2_PLACEMENT_3D ( 'NONE', #282, #72, #154 ) ;
#127 = DIRECTION ( 'NONE',  ( 0.000000000000000000, -0.000000000000000000, -1.000000000000000000 ) ) ;
#128 = CARTESIAN_POINT ( 'NONE',  ( 0.000000000000000000, 0.000000000000000000, 7.500000000000000000 ) ) ;
#129 = PRODUCT ( 'B-122-24', 'B-122-24', '', ( #85 ) ) ;
#130 = APPROVAL_STATUS ( 'not_yet_approved' ) ;
#131 = ORIENTED_EDGE ( 'NONE', *, *, #91, .T. ) ;
#132 = AXIS2_PLACEMENT_3D ( 'NONE', #79, #235, #28 ) ;
#133 = VERTEX_POINT ( 'NONE', #208 ) ;
#134 = CARTESIAN_POINT ( 'NONE',  ( 0.000000000000000000, -9.999999999999998224, 2.449999999999997513 ) ) ;
#135 = PERSON ( 'UNSPECIFIED', 'UNSPECIFIED', 'UNSPECIFIED', ('UNSPECIFIED'), ('UNSPECIFIED'), ('UNSPECIFIED') ) ;
#136 = CARTESIAN_POINT ( 'NONE',  ( 0.000000000000000000, 0.000000000000000000, 0.000000000000000000 ) ) ;
#137 = AXIS2_PLACEMENT_3D ( 'NONE', #266, #184, #264 ) ;
#138 = DIRECTION ( 'NONE',  ( 0.000000000000000000, 0.000000000000000000, 1.000000000000000000 ) ) ;
#139 = DIRECTION ( 'NONE',  ( -0.000000000000000000, 1.000000000000000000, -0.000000000000000000 ) ) ;
#140 = CC_DESIGN_PERSON_AND_ORGANIZATION_ASSIGNMENT ( #66, #243, ( #120 ) ) ;
#141 = CARTESIAN_POINT ( 'NONE',  ( 3.000384657911012412E-16, -12.00000000000000000, -2.449999999999997513 ) ) ;
#142 = VECTOR ( 'NONE', #213, 1000.000000000000000 ) ;
#143 = COORDINATED_UNIVERSAL_TIME_OFFSET ( 9, 0, .AHEAD. ) ;
#144 =( NAMED_UNIT ( * ) PLANE_ANGLE_UNIT ( ) SI_UNIT ( $, .RADIAN. ) );
#145 = ADVANCED_FACE ( 'NONE', ( #288 ), #27, .F. ) ;
#146 = VERTEX_POINT ( 'NONE', #6 ) ;
#147 = AXIS2_PLACEMENT_3D ( 'NONE', #239, #314, #113 ) ;
#148 = DIRECTION ( 'NONE',  ( 0.000000000000000000, 0.000000000000000000, 1.000000000000000000 ) ) ;
#149 = EDGE_CURVE ( 'NONE', #330, #199, #313, .T. ) ;
#150 = EDGE_LOOP ( 'NONE', ( #168, #174 ) ) ;
#151 = ORIENTED_EDGE ( 'NONE', *, *, #149, .F. ) ;
#152 = CYLINDRICAL_SURFACE ( 'NONE', #279, 2.499999999999998668 ) ;
#153 = APPROVAL_DATE_TIME ( #180, #1 ) ;
#154 = DIRECTION ( 'NONE',  ( 0.000000000000000000, 0.000000000000000000, 1.000000000000000000 ) ) ;
#155 = DIRECTION ( 'NONE',  ( 0.000000000000000000, 0.000000000000000000, 1.000000000000000000 ) ) ;
#156 = CIRCLE ( 'NONE', #81, 2.499999999999999112 ) ;
#157 = ORIENTED_EDGE ( 'NONE', *, *, #91, .F. ) ;
#158 = CARTESIAN_POINT ( 'NONE',  ( 0.000000000000000000, -9.000000000000001776, 0.000000000000000000 ) ) ;
#159 = CARTESIAN_POINT ( 'NONE',  ( 0.000000000000000000, -9.999999999999998224, 0.000000000000000000 ) ) ;
#160 = FACE_OUTER_BOUND ( 'NONE', #254, .T. ) ;
#161 = CARTESIAN_POINT ( 'NONE',  ( 3.000384657911012412E-16, 4.253003599660558187, -2.449999999999997513 ) ) ;
#162 = DIRECTION ( 'NONE',  ( -0.000000000000000000, 1.000000000000000000, -0.000000000000000000 ) ) ;
#163 = APPROVAL_PERSON_ORGANIZATION ( #11, #202, #40 ) ;
#164 = APPROVAL_ROLE ( '' ) ;
#165 = VERTEX_POINT ( 'NONE', #112 ) ;
#166 = PRODUCT_RELATED_PRODUCT_CATEGORY ( 'detail', '', ( #129 ) ) ;
#167 = PERSON_AND_ORGANIZATION ( #135, #267 ) ;
#168 = ORIENTED_EDGE ( 'NONE', *, *, #260, .T. ) ;
#169 = EDGE_LOOP ( 'NONE', ( #76, #157 ) ) ;
#170 = VECTOR ( 'NONE', #162, 1000.000000000000000 ) ;
#171 = LOCAL_TIME ( 11, 19, 10.00000000000000000, #101 ) ;
#172 = VERTEX_POINT ( 'NONE', #141 ) ;
#173 = PERSON_AND_ORGANIZATION_ROLE ( 'classification_officer' ) ;
#174 = ORIENTED_EDGE ( 'NONE', *, *, #286, .T. ) ;
#175 = DIRECTION ( 'NONE',  ( 0.000000000000000000, 0.000000000000000000, 1.000000000000000000 ) ) ;
#176 = VECTOR ( 'NONE', #104, 1000.000000000000000 ) ;
#177 = FACE_BOUND ( 'NONE', #181, .T. ) ;
#178 = EDGE_CURVE ( 'NONE', #146, #172, #231, .T. ) ;
#179 = CYLINDRICAL_SURFACE ( 'NONE', #237, 2.449999999999997513 ) ;
#180 = DATE_AND_TIME ( #203, #171 ) ;
#181 = EDGE_LOOP ( 'NONE', ( #42, #221 ) ) ;
#182 = DIRECTION ( 'NONE',  ( -0.000000000000000000, 1.000000000000000000, -0.000000000000000000 ) ) ;
#183 = AXIS2_PLACEMENT_3D ( 'NONE', #159, #9, #315 ) ;
#184 = DIRECTION ( 'NONE',  ( -0.000000000000000000, 1.000000000000000000, -0.000000000000000000 ) ) ;
#185 = FACE_OUTER_BOUND ( 'NONE', #169, .T. ) ;
#186 = CARTESIAN_POINT ( 'NONE',  ( 0.000000000000000000, -9.999999999999998224, 7.499999999999998224 ) ) ;
#187 = CC_DESIGN_APPROVAL ( #247, ( #209 ) ) ;
#188 = VECTOR ( 'NONE', #2, 1000.000000000000000 ) ;
#189 = CC_DESIGN_PERSON_AND_ORGANIZATION_ASSIGNMENT ( #93, #222, ( #209 ) ) ;
#190 = DIRECTION ( 'NONE',  ( -0.000000000000000000, 1.000000000000000000, -0.000000000000000000 ) ) ;
#191 = DIRECTION ( 'NONE',  ( -0.000000000000000000, 1.000000000000000000, -0.000000000000000000 ) ) ;
#192 = DIRECTION ( 'NONE',  ( -0.000000000000000000, 1.000000000000000000, -0.000000000000000000 ) ) ;
#193 = AXIS2_PLACEMENT_3D ( 'NONE', #206, #201, #73 ) ;
#194 = CARTESIAN_POINT ( 'NONE',  ( 0.000000000000000000, 4.253003599660558187, 0.000000000000000000 ) ) ;
#195 = ORIENTED_EDGE ( 'NONE', *, *, #125, .F. ) ;
#196 = DIRECTION ( 'NONE',  ( -0.000000000000000000, 1.000000000000000000, -0.000000000000000000 ) ) ;
#197 = ORIENTED_EDGE ( 'NONE', *, *, #286, .F. ) ;
#198 = PERSON_AND_ORGANIZATION_ROLE ( 'design_owner' ) ;
#199 = VERTEX_POINT ( 'NONE', #134 ) ;
#200 = ORIENTED_EDGE ( 'NONE', *, *, #68, .T. ) ;
#201 = DIRECTION ( 'NONE',  ( -0.000000000000000000, 1.000000000000000000, -0.000000000000000000 ) ) ;
#202 = APPROVAL ( #271, 'UNSPECIFIED' ) ;
#203 = CALENDAR_DATE ( 2022, 11, 3 ) ;
#204 = CIRCLE ( 'NONE', #126, 2.499999999999997780 ) ;
#205 = ORIENTED_EDGE ( 'NONE', *, *, #111, .F. ) ;
#206 = CARTESIAN_POINT ( 'NONE',  ( 0.000000000000000000, -9.999999999999998224, 0.000000000000000000 ) ) ;
#207 = CARTESIAN_POINT ( 'NONE',  ( 0.000000000000000000, -4.898587196589386574E-18, 0.000000000000000000 ) ) ;
#208 = CARTESIAN_POINT ( 'NONE',  ( 0.000000000000000000, -4.898587196589386574E-18, 2.499999999999999112 ) ) ;
#209 = PRODUCT_DEFINITION_FORMATION_WITH_SPECIFIED_SOURCE ( 'ANY', '', #129, .NOT_KNOWN. ) ;
#210 = PLANE ( 'NONE',  #147 ) ;
#211 = FACE_BOUND ( 'NONE', #47, .T. ) ;
#212 = EDGE_CURVE ( 'NONE', #283, #65, #291, .T. ) ;
#213 = DIRECTION ( 'NONE',  ( -0.000000000000000000, 1.000000000000000000, -0.000000000000000000 ) ) ;
#214 = CIRCLE ( 'NONE', #183, 7.499999999999998224 ) ;
#215 = CARTESIAN_POINT ( 'NONE',  ( 0.000000000000000000, 0.000000000000000000, 0.000000000000000000 ) ) ;
#216 = CALENDAR_DATE ( 2022, 11, 3 ) ;
#217 = CC_DESIGN_PERSON_AND_ORGANIZATION_ASSIGNMENT ( #88, #198, ( #129 ) ) ;
#218 = APPROVAL_DATE_TIME ( #17, #202 ) ;
#219 = LOCAL_TIME ( 11, 19, 10.00000000000000000, #143 ) ;
#220 = CARTESIAN_POINT ( 'NONE',  ( 9.184850993605147944E-16, 4.253003599660558187, -7.499999999999999112 ) ) ;
#221 = ORIENTED_EDGE ( 'NONE', *, *, #242, .F. ) ;
#222 = PERSON_AND_ORGANIZATION_ROLE ( 'design_supplier' ) ;
#223 = ORIENTED_EDGE ( 'NONE', *, *, #115, .F. ) ;
#224 = COORDINATED_UNIVERSAL_TIME_OFFSET ( 9, 0, .AHEAD. ) ;
#225 = ORIENTED_EDGE ( 'NONE', *, *, #265, .T. ) ;
#226 =( GEOMETRIC_REPRESENTATION_CONTEXT ( 3 ) GLOBAL_UNCERTAINTY_ASSIGNED_CONTEXT ( ( #14 ) ) GLOBAL_UNIT_ASSIGNED_CONTEXT ( ( #268, #144, #248 ) ) REPRESENTATION_CONTEXT ( 'NONE', 'WORKASPACE' ) );
#227 = DIRECTION ( 'NONE',  ( 0.000000000000000000, 0.000000000000000000, 1.000000000000000000 ) ) ;
#228 = DIRECTION ( 'NONE',  ( -0.000000000000000000, 1.000000000000000000, -0.000000000000000000 ) ) ;
#229 = EDGE_CURVE ( 'NONE', #283, #270, #214, .T. ) ;
#230 = DIRECTION ( 'NONE',  ( 0.000000000000000000, 0.000000000000000000, 1.000000000000000000 ) ) ;
#231 = CIRCLE ( 'NONE', #320, 2.449999999999997513 ) ;
#232 = ORIENTED_EDGE ( 'NONE', *, *, #111, .T. ) ;
#233 = ADVANCED_FACE ( 'NONE', ( #160 ), #210, .T. ) ;
#234 = CYLINDRICAL_SURFACE ( 'NONE', #51, 7.499999999999999112 ) ;
#235 = DIRECTION ( 'NONE',  ( -0.000000000000000000, 1.000000000000000000, -0.000000000000000000 ) ) ;
#236 = CYLINDRICAL_SURFACE ( 'NONE', #241, 2.449999999999997513 ) ;
#237 = AXIS2_PLACEMENT_3D ( 'NONE', #26, #278, #227 ) ;
#238 = CARTESIAN_POINT ( 'NONE',  ( 0.000000000000000000, -9.000000000000001776, 2.499999999999997780 ) ) ;
#239 = CARTESIAN_POINT ( 'NONE',  ( 0.000000000000000000, -12.00000000000000000, -1.990418883485470988E-15 ) ) ;
#240 = DIRECTION ( 'NONE',  ( -0.000000000000000000, 1.000000000000000000, -0.000000000000000000 ) ) ;
#241 = AXIS2_PLACEMENT_3D ( 'NONE', #83, #240, #5 ) ;
#242 = EDGE_CURVE ( 'NONE', #122, #133, #156, .T. ) ;
#243 = PERSON_AND_ORGANIZATION_ROLE ( 'creator' ) ;
#244 = VERTEX_POINT ( 'NONE', #317 ) ;
#245 = APPLICATION_PROTOCOL_DEFINITION ( 'international standard', 'config_control_design', 1994, #71 ) ;
#246 = CIRCLE ( 'NONE', #193, 2.449999999999997513 ) ;
#247 = APPROVAL ( #62, 'UNSPECIFIED' ) ;
#248 =( NAMED_UNIT ( * ) SI_UNIT ( $, .STERADIAN. ) SOLID_ANGLE_UNIT ( ) );
#249 = ADVANCED_BREP_SHAPE_REPRESENTATION ( 'B-122-24', ( #4, #252 ), #226 ) ;
#250 = VERTEX_POINT ( 'NONE', #238 ) ;
#251 = EDGE_LOOP ( 'NONE', ( #16, #323, #327, #151 ) ) ;
#252 = AXIS2_PLACEMENT_3D ( 'NONE', #15, #148, #117 ) ;
#253 = DATE_TIME_ROLE ( 'classification_date' ) ;
#254 = EDGE_LOOP ( 'NONE', ( #92, #273 ) ) ;
#255 = CARTESIAN_POINT ( 'NONE',  ( 0.000000000000000000, 0.000000000000000000, 7.500000000000000000 ) ) ;
#256 = ORIENTED_EDGE ( 'NONE', *, *, #242, .T. ) ;
#257 = DIRECTION ( 'NONE',  ( -0.000000000000000000, 1.000000000000000000, -0.000000000000000000 ) ) ;
#258 = CARTESIAN_POINT ( 'NONE',  ( -2.602085213965210642E-15, -9.000000000000001776, 0.000000000000000000 ) ) ;
#259 = LINE ( 'NONE', #287, #142 ) ;
#260 = EDGE_CURVE ( 'NONE', #65, #244, #55, .T. ) ;
#261 = DIRECTION ( 'NONE',  ( 0.000000000000000000, 0.000000000000000000, 1.000000000000000000 ) ) ;
#262 = LOCAL_TIME ( 11, 19, 10.00000000000000000, #224 ) ;
#263 = DIRECTION ( 'NONE',  ( 0.000000000000000000, 0.000000000000000000, 1.000000000000000000 ) ) ;
#264 = DIRECTION ( 'NONE',  ( 0.000000000000000000, 0.000000000000000000, 1.000000000000000000 ) ) ;
#265 = EDGE_CURVE ( 'NONE', #172, #330, #58, .T. ) ;
#266 = CARTESIAN_POINT ( 'NONE',  ( 0.000000000000000000, -9.999999999999998224, 0.000000000000000000 ) ) ;
#267 = ORGANIZATION ( 'UNSPECIFIED', 'UNSPECIFIED', '' ) ;
#268 =( LENGTH_UNIT ( ) NAMED_UNIT ( * ) SI_UNIT ( .MILLI., .METRE. ) );
#269 = DATE_AND_TIME ( #12, #3 ) ;
#270 = VERTEX_POINT ( 'NONE', #31 ) ;
#271 = APPROVAL_STATUS ( 'not_yet_approved' ) ;
#272 = ADVANCED_FACE ( 'NONE', ( #211, #185 ), #116, .T. ) ;
#273 = ORIENTED_EDGE ( 'NONE', *, *, #18, .F. ) ;
#274 = CIRCLE ( 'NONE', #333, 7.500000000000000000 ) ;
#275 = CARTESIAN_POINT ( 'NONE',  ( 3.000384657911012412E-16, -9.999999999999998224, -2.449999999999997513 ) ) ;
#276 = ORIENTED_EDGE ( 'NONE', *, *, #115, .T. ) ;
#277 = EDGE_LOOP ( 'NONE', ( #303, #13, #86, #312 ) ) ;
#278 = DIRECTION ( 'NONE',  ( -0.000000000000000000, 1.000000000000000000, -0.000000000000000000 ) ) ;
#279 = AXIS2_PLACEMENT_3D ( 'NONE', #335, #25, #155 ) ;
#280 = FACE_OUTER_BOUND ( 'NONE', #277, .T. ) ;
#281 = SHAPE_DEFINITION_REPRESENTATION ( #311, #249 ) ;
#282 = CARTESIAN_POINT ( 'NONE',  ( 0.000000000000000000, -9.000000000000001776, 0.000000000000000000 ) ) ;
#283 = VERTEX_POINT ( 'NONE', #186 ) ;
#284 = FACE_OUTER_BOUND ( 'NONE', #251, .T. ) ;
#285 = CARTESIAN_POINT ( 'NONE',  ( 0.000000000000000000, -4.898587196589386574E-18, 0.000000000000000000 ) ) ;
#286 = EDGE_CURVE ( 'NONE', #244, #65, #274, .T. ) ;
#287 = CARTESIAN_POINT ( 'NONE',  ( 0.000000000000000000, 0.000000000000000000, 2.499999999999998668 ) ) ;
#288 = FACE_OUTER_BOUND ( 'NONE', #324, .T. ) ;
#289 = AXIS2_PLACEMENT_3D ( 'NONE', #308, #182, #75 ) ;
#290 = DIRECTION ( 'NONE',  ( 0.000000000000000000, 0.000000000000000000, 1.000000000000000000 ) ) ;
#291 = LINE ( 'NONE', #54, #188 ) ;
#292 = CYLINDRICAL_SURFACE ( 'NONE', #38, 7.499999999999999112 ) ;
#293 = EDGE_LOOP ( 'NONE', ( #90, #223, #63, #95 ) ) ;
#294 = CIRCLE ( 'NONE', #289, 7.499999999999998224 ) ;
#295 = SECURITY_CLASSIFICATION ( '', '', #302 ) ;
#296 = DIRECTION ( 'NONE',  ( 0.000000000000000000, 0.000000000000000000, 1.000000000000000000 ) ) ;
#297 = ADVANCED_FACE ( 'NONE', ( #29 ), #236, .T. ) ;
#298 = FACE_OUTER_BOUND ( 'NONE', #34, .T. ) ;
#299 = APPLICATION_PROTOCOL_DEFINITION ( 'international standard', 'config_control_design', 1994, #107 ) ;
#300 = CIRCLE ( 'NONE', #44, 2.499999999999997780 ) ;
#301 = APPROVAL_PERSON_ORGANIZATION ( #103, #1, #97 ) ;
#302 = SECURITY_CLASSIFICATION_LEVEL ( 'unclassified' ) ;
#303 = ORIENTED_EDGE ( 'NONE', *, *, #229, .T. ) ;
#304 = EDGE_CURVE ( 'NONE', #165, #122, #59, .T. ) ;
#305 = FACE_OUTER_BOUND ( 'NONE', #293, .T. ) ;
#306 = DIRECTION ( 'NONE',  ( 0.000000000000000000, 0.000000000000000000, 1.000000000000000000 ) ) ;
#307 = AXIS2_PLACEMENT_3D ( 'NONE', #98, #48, #175 ) ;
#308 = CARTESIAN_POINT ( 'NONE',  ( 0.000000000000000000, -9.999999999999998224, 0.000000000000000000 ) ) ;
#309 = CC_DESIGN_PERSON_AND_ORGANIZATION_ASSIGNMENT ( #119, #121, ( #209 ) ) ;
#310 = PLANE ( 'NONE',  #36 ) ;
#311 = PRODUCT_DEFINITION_SHAPE ( 'NONE', 'NONE',  #120 ) ;
#312 = ORIENTED_EDGE ( 'NONE', *, *, #212, .F. ) ;
#313 = CIRCLE ( 'NONE', #137, 2.449999999999997513 ) ;
#314 = DIRECTION ( 'NONE',  ( 0.000000000000000000, -1.000000000000000000, 0.000000000000000000 ) ) ;
#315 = DIRECTION ( 'NONE',  ( 0.000000000000000000, 0.000000000000000000, 1.000000000000000000 ) ) ;
#316 = DIRECTION ( 'NONE',  ( 0.000000000000000000, -1.000000000000000000, 0.000000000000000000 ) ) ;
#317 = CARTESIAN_POINT ( 'NONE',  ( 9.184850993605149917E-16, 0.000000000000000000, -7.500000000000000888 ) ) ;
#318 = DIRECTION ( 'NONE',  ( -0.000000000000000000, 1.000000000000000000, -0.000000000000000000 ) ) ;
#319 = DATE_AND_TIME ( #216, #262 ) ;
#320 = AXIS2_PLACEMENT_3D ( 'NONE', #57, #78, #7 ) ;
#321 = ADVANCED_FACE ( 'NONE', ( #298 ), #292, .T. ) ;
#322 = LINE ( 'NONE', #220, #118 ) ;
#323 = ORIENTED_EDGE ( 'NONE', *, *, #18, .T. ) ;
#324 = EDGE_LOOP ( 'NONE', ( #205, #37, #256, #195 ) ) ;
#325 = EDGE_CURVE ( 'NONE', #270, #244, #322, .T. ) ;
#326 = DATE_TIME_ROLE ( 'creation_date' ) ;
#327 = ORIENTED_EDGE ( 'NONE', *, *, #50, .T. ) ;
#328 = CIRCLE ( 'NONE', #307, 2.449999999999997513 ) ;
#329 = DATE_AND_TIME ( #46, #10 ) ;
#330 = VERTEX_POINT ( 'NONE', #275 ) ;
#331 = CARTESIAN_POINT ( 'NONE',  ( 0.000000000000000000, 4.253003599660558187, 0.000000000000000000 ) ) ;
#332 = FACE_OUTER_BOUND ( 'NONE', #124, .T. ) ;
#333 = AXIS2_PLACEMENT_3D ( 'NONE', #136, #318, #263 ) ;
#334 = PLANE ( 'NONE',  #24 ) ;
#335 = CARTESIAN_POINT ( 'NONE',  ( 0.000000000000000000, 0.000000000000000000, 0.000000000000000000 ) ) ;
ENDSEC;
END-ISO-10303-21;
