ISO-10303-21;
HEADER;
FILE_DESCRIPTION (( 'STEP AP203' ),
    '1' );
FILE_NAME ('B-122-23.STEP',
    '2022-03-11T02:17:38',
    ( '' ),
    ( '' ),
    'SwSTEP 2.0',
    'SolidWorks 2021',
    '' );
FILE_SCHEMA (( 'CONFIG_CONTROL_DESIGN' ));
ENDSEC;

DATA;
#1 = CARTESIAN_POINT ( 'NONE',  ( 0.000000000000000000, 0.000000000000000000, 7.500000000000000000 ) ) ;
#2 = CARTESIAN_POINT ( 'NONE',  ( 3.000384657911012412E-16, -15.00000000000000000, -2.449999999999997513 ) ) ;
#3 = CIRCLE ( 'NONE', #105, 7.500000000000000000 ) ;
#4 = CARTESIAN_POINT ( 'NONE',  ( 9.184850993605147944E-16, 0.000000000000000000, -7.500000000000000000 ) ) ;
#5 = PERSON_AND_ORGANIZATION ( #310, #274 ) ;
#6 = EDGE_LOOP ( 'NONE', ( #301, #10 ) ) ;
#7 = ORIENTED_EDGE ( 'NONE', *, *, #177, .F. ) ;
#8 = CIRCLE ( 'NONE', #168, 2.499999999999996891 ) ;
#9 = CIRCLE ( 'NONE', #202, 2.449999999999997513 ) ;
#10 = ORIENTED_EDGE ( 'NONE', *, *, #329, .F. ) ;
#11 = PERSON_AND_ORGANIZATION_ROLE ( 'design_owner' ) ;
#12 = EDGE_LOOP ( 'NONE', ( #293, #238 ) ) ;
#13 = CARTESIAN_POINT ( 'NONE',  ( 0.000000000000000000, 0.000000000000000000, 0.000000000000000000 ) ) ;
#14 = ORIENTED_EDGE ( 'NONE', *, *, #211, .T. ) ;
#15 = PRODUCT_DEFINITION_FORMATION_WITH_SPECIFIED_SOURCE ( 'ANY', '', #20, .NOT_KNOWN. ) ;
#16 = EDGE_CURVE ( 'NONE', #193, #195, #66, .T. ) ;
#17 = ORIENTED_EDGE ( 'NONE', *, *, #82, .T. ) ;
#18 = CARTESIAN_POINT ( 'NONE',  ( 0.000000000000000000, 4.253003599660558187, 2.449999999999997513 ) ) ;
#19 = DIRECTION ( 'NONE',  ( -0.000000000000000000, 1.000000000000000000, -0.000000000000000000 ) ) ;
#20 = PRODUCT ( 'B-122-23', 'B-122-23', '', ( #142 ) ) ;
#21 = CIRCLE ( 'NONE', #149, 2.499999999999998668 ) ;
#22 = LINE ( 'NONE', #18, #258 ) ;
#23 = EDGE_CURVE ( 'NONE', #261, #69, #119, .T. ) ;
#24 = DIRECTION ( 'NONE',  ( 0.000000000000000000, 0.000000000000000000, 1.000000000000000000 ) ) ;
#25 = EDGE_CURVE ( 'NONE', #265, #69, #95, .T. ) ;
#26 = DIRECTION ( 'NONE',  ( -0.000000000000000000, 1.000000000000000000, -0.000000000000000000 ) ) ;
#27 = VECTOR ( 'NONE', #330, 1000.000000000000000 ) ;
#28 = APPROVAL_PERSON_ORGANIZATION ( #5, #92, #116 ) ;
#29 = DIRECTION ( 'NONE',  ( -0.000000000000000000, 1.000000000000000000, 0.000000000000000000 ) ) ;
#30 = PLANE ( 'NONE',  #84 ) ;
#31 = CARTESIAN_POINT ( 'NONE',  ( 0.000000000000000000, -15.00000000000000000, 0.000000000000000000 ) ) ;
#32 = AXIS2_PLACEMENT_3D ( 'NONE', #126, #282, #204 ) ;
#33 = PERSON_AND_ORGANIZATION_ROLE ( 'design_supplier' ) ;
#34 = PERSON_AND_ORGANIZATION ( #310, #274 ) ;
#35 = ADVANCED_FACE ( 'NONE', ( #200 ), #323, .T. ) ;
#36 = COORDINATED_UNIVERSAL_TIME_OFFSET ( 9, 0, .AHEAD. ) ;
#37 = ORIENTED_EDGE ( 'NONE', *, *, #45, .F. ) ;
#38 = CC_DESIGN_APPROVAL ( #324, ( #299 ) ) ;
#39 = ORIENTED_EDGE ( 'NONE', *, *, #102, .T. ) ;
#40 = PERSON_AND_ORGANIZATION ( #310, #274 ) ;
#41 = EDGE_LOOP ( 'NONE', ( #263, #71 ) ) ;
#42 = EDGE_LOOP ( 'NONE', ( #65, #39, #14, #316 ) ) ;
#43 = AXIS2_PLACEMENT_3D ( 'NONE', #75, #231, #281 ) ;
#44 = CARTESIAN_POINT ( 'NONE',  ( 0.000000000000000000, -13.50000000000000000, 0.000000000000000000 ) ) ;
#45 = EDGE_CURVE ( 'NONE', #172, #261, #8, .T. ) ;
#46 = DIRECTION ( 'NONE',  ( 0.000000000000000000, 0.000000000000000000, 1.000000000000000000 ) ) ;
#47 = CARTESIAN_POINT ( 'NONE',  ( 0.000000000000000000, -4.898587196589434337E-18, 0.000000000000000000 ) ) ;
#48 = APPROVAL_PERSON_ORGANIZATION ( #137, #121, #242 ) ;
#49 = CARTESIAN_POINT ( 'NONE',  ( 0.000000000000000000, 0.000000000000000000, 0.000000000000000000 ) ) ;
#50 = CARTESIAN_POINT ( 'NONE',  ( 0.000000000000000000, 4.253003599660558187, 7.499999999999998224 ) ) ;
#51 = PLANE ( 'NONE',  #229 ) ;
#52 = AXIS2_PLACEMENT_3D ( 'NONE', #331, #99, #93 ) ;
#53 = DIRECTION ( 'NONE',  ( -0.000000000000000000, 1.000000000000000000, -0.000000000000000000 ) ) ;
#54 = CYLINDRICAL_SURFACE ( 'NONE', #294, 7.499999999999998224 ) ;
#55 = CYLINDRICAL_SURFACE ( 'NONE', #91, 2.449999999999997513 ) ;
#56 = PERSON_AND_ORGANIZATION_ROLE ( 'creator' ) ;
#57 = ORIENTED_EDGE ( 'NONE', *, *, #259, .T. ) ;
#58 = CC_DESIGN_PERSON_AND_ORGANIZATION_ASSIGNMENT ( #59, #134, ( #299 ) ) ;
#59 = PERSON_AND_ORGANIZATION ( #310, #274 ) ;
#60 = ORIENTED_EDGE ( 'NONE', *, *, #25, .T. ) ;
#61 = DESIGN_CONTEXT ( 'detailed design', #174, 'design' ) ;
#62 = PERSON_AND_ORGANIZATION ( #310, #274 ) ;
#63 = DATE_TIME_ROLE ( 'creation_date' ) ;
#64 = ORIENTED_EDGE ( 'NONE', *, *, #171, .F. ) ;
#65 = ORIENTED_EDGE ( 'NONE', *, *, #16, .F. ) ;
#66 = LINE ( 'NONE', #277, #27 ) ;
#67 = LOCAL_TIME ( 11, 17, 38.00000000000000000, #144 ) ;
#68 = ADVANCED_FACE ( 'NONE', ( #122 ), #146, .F. ) ;
#69 = VERTEX_POINT ( 'NONE', #221 ) ;
#70 = CC_DESIGN_PERSON_AND_ORGANIZATION_ASSIGNMENT ( #157, #33, ( #15 ) ) ;
#71 = ORIENTED_EDGE ( 'NONE', *, *, #239, .F. ) ;
#72 = ORIENTED_EDGE ( 'NONE', *, *, #82, .F. ) ;
#73 = VECTOR ( 'NONE', #53, 1000.000000000000000 ) ;
#74 = FACE_OUTER_BOUND ( 'NONE', #41, .T. ) ;
#75 = CARTESIAN_POINT ( 'NONE',  ( 0.000000000000000000, 0.000000000000000000, 0.000000000000000000 ) ) ;
#76 = LINE ( 'NONE', #50, #180 ) ;
#77 = EDGE_CURVE ( 'NONE', #261, #172, #78, .T. ) ;
#78 = CIRCLE ( 'NONE', #162, 2.499999999999996891 ) ;
#79 = DIRECTION ( 'NONE',  ( 0.000000000000000000, -0.000000000000000000, -1.000000000000000000 ) ) ;
#80 = FACE_OUTER_BOUND ( 'NONE', #322, .T. ) ;
#81 = DATE_AND_TIME ( #311, #196 ) ;
#82 = EDGE_CURVE ( 'NONE', #296, #241, #22, .T. ) ;
#83 = CLOSED_SHELL ( 'NONE', ( #141, #292, #317, #269, #35, #197, #113, #273, #232, #68 ) ) ;
#84 = AXIS2_PLACEMENT_3D ( 'NONE', #285, #255, #257 ) ;
#85 = ORIENTED_EDGE ( 'NONE', *, *, #177, .T. ) ;
#86 = APPROVAL_STATUS ( 'not_yet_approved' ) ;
#87 = EDGE_LOOP ( 'NONE', ( #114, #138, #321, #159 ) ) ;
#88 = PERSON_AND_ORGANIZATION ( #310, #274 ) ;
#89 = ORIENTED_EDGE ( 'NONE', *, *, #23, .F. ) ;
#90 = DIRECTION ( 'NONE',  ( 1.000000000000000000, 0.000000000000000000, 0.000000000000000000 ) ) ;
#91 = AXIS2_PLACEMENT_3D ( 'NONE', #228, #26, #203 ) ;
#92 = APPROVAL ( #86, 'UNSPECIFIED' ) ;
#93 = DIRECTION ( 'NONE',  ( 0.000000000000000000, 0.000000000000000000, 1.000000000000000000 ) ) ;
#94 = FACE_OUTER_BOUND ( 'NONE', #87, .T. ) ;
#95 = CIRCLE ( 'NONE', #326, 2.499999999999998668 ) ;
#96 = AXIS2_PLACEMENT_3D ( 'NONE', #1, #29, #131 ) ;
#97 = DIRECTION ( 'NONE',  ( -0.000000000000000000, 1.000000000000000000, -0.000000000000000000 ) ) ;
#98 = CARTESIAN_POINT ( 'NONE',  ( 3.061616997868380676E-16, 0.000000000000000000, -2.499999999999997780 ) ) ;
#99 = DIRECTION ( 'NONE',  ( -0.000000000000000000, 1.000000000000000000, -0.000000000000000000 ) ) ;
#100 = FACE_OUTER_BOUND ( 'NONE', #218, .T. ) ;
#101 = FACE_OUTER_BOUND ( 'NONE', #216, .T. ) ;
#102 = EDGE_CURVE ( 'NONE', #193, #117, #118, .T. ) ;
#103 = DIRECTION ( 'NONE',  ( 0.000000000000000000, 0.000000000000000000, 1.000000000000000000 ) ) ;
#104 = AXIS2_PLACEMENT_3D ( 'NONE', #302, #303, #173 ) ;
#105 = AXIS2_PLACEMENT_3D ( 'NONE', #325, #19, #223 ) ;
#106 = CARTESIAN_POINT ( 'NONE',  ( 0.000000000000000000, 4.253003599660558187, 0.000000000000000000 ) ) ;
#107 = APPLICATION_CONTEXT ( 'configuration controlled 3d designs of mechanical parts and assemblies' ) ;
#108 = FACE_OUTER_BOUND ( 'NONE', #240, .T. ) ;
#109 = COORDINATED_UNIVERSAL_TIME_OFFSET ( 9, 0, .AHEAD. ) ;
#110 = EDGE_LOOP ( 'NONE', ( #89, #37, #319, #60 ) ) ;
#111 = DATE_AND_TIME ( #158, #132 ) ;
#112 = ORIENTED_EDGE ( 'NONE', *, *, #207, .T. ) ;
#113 = ADVANCED_FACE ( 'NONE', ( #225 ), #226, .T. ) ;
#114 = ORIENTED_EDGE ( 'NONE', *, *, #77, .F. ) ;
#115 = CC_DESIGN_DATE_AND_TIME_ASSIGNMENT ( #312, #63, ( #280 ) ) ;
#116 = APPROVAL_ROLE ( '' ) ;
#117 = VERTEX_POINT ( 'NONE', #166 ) ;
#118 = CIRCLE ( 'NONE', #287, 7.499999999999997335 ) ;
#119 = LINE ( 'NONE', #98, #212 ) ;
#120 = DIRECTION ( 'NONE',  ( 0.000000000000000000, 0.000000000000000000, 1.000000000000000000 ) ) ;
#121 = APPROVAL ( #289, 'UNSPECIFIED' ) ;
#122 = FACE_OUTER_BOUND ( 'NONE', #110, .T. ) ;
#123 = CIRCLE ( 'NONE', #304, 2.449999999999997513 ) ;
#124 = DIRECTION ( 'NONE',  ( -0.000000000000000000, 1.000000000000000000, -0.000000000000000000 ) ) ;
#125 = ORIENTED_EDGE ( 'NONE', *, *, #171, .T. ) ;
#126 = CARTESIAN_POINT ( 'NONE',  ( 0.000000000000000000, -15.00000000000000000, 0.000000000000000000 ) ) ;
#127 = AXIS2_PLACEMENT_3D ( 'NONE', #13, #192, #90 ) ;
#128 = DIRECTION ( 'NONE',  ( -0.000000000000000000, 1.000000000000000000, -0.000000000000000000 ) ) ;
#129 = EDGE_CURVE ( 'NONE', #296, #165, #185, .T. ) ;
#130 = CARTESIAN_POINT ( 'NONE',  ( 0.000000000000000000, -17.00000000000000000, 2.449999999999997513 ) ) ;
#131 = DIRECTION ( 'NONE',  ( 0.000000000000000000, 0.000000000000000000, 1.000000000000000000 ) ) ;
#132 = LOCAL_TIME ( 11, 17, 38.00000000000000000, #109 ) ;
#133 = DIRECTION ( 'NONE',  ( -0.000000000000000000, 1.000000000000000000, -0.000000000000000000 ) ) ;
#134 = PERSON_AND_ORGANIZATION_ROLE ( 'classification_officer' ) ;
#135 = ORIENTED_EDGE ( 'NONE', *, *, #16, .T. ) ;
#136 = UNCERTAINTY_MEASURE_WITH_UNIT (LENGTH_MEASURE( 1.000000000000000082E-05 ), #315, 'distance_accuracy_value', 'NONE');
#137 = PERSON_AND_ORGANIZATION ( #310, #274 ) ;
#138 = ORIENTED_EDGE ( 'NONE', *, *, #23, .T. ) ;
#139 = PERSON_AND_ORGANIZATION_ROLE ( 'creator' ) ;
#140 = APPROVAL_PERSON_ORGANIZATION ( #34, #324, #264 ) ;
#141 = ADVANCED_FACE ( 'NONE', ( #94 ), #272, .F. ) ;
#142 = MECHANICAL_CONTEXT ( 'NONE', #107, 'mechanical' ) ;
#143 = ORIENTED_EDGE ( 'NONE', *, *, #259, .F. ) ;
#144 = COORDINATED_UNIVERSAL_TIME_OFFSET ( 9, 0, .AHEAD. ) ;
#145 = DIRECTION ( 'NONE',  ( 0.000000000000000000, 0.000000000000000000, 1.000000000000000000 ) ) ;
#146 = CYLINDRICAL_SURFACE ( 'NONE', #224, 2.499999999999997780 ) ;
#147 = CARTESIAN_POINT ( 'NONE',  ( 0.000000000000000000, -15.00000000000000000, 0.000000000000000000 ) ) ;
#148 = DIRECTION ( 'NONE',  ( -0.000000000000000000, 1.000000000000000000, -0.000000000000000000 ) ) ;
#149 = AXIS2_PLACEMENT_3D ( 'NONE', #152, #253, #103 ) ;
#150 = DIRECTION ( 'NONE',  ( -0.000000000000000000, 1.000000000000000000, -0.000000000000000000 ) ) ;
#151 = CARTESIAN_POINT ( 'NONE',  ( 0.000000000000000000, -17.00000000000000000, 0.000000000000000000 ) ) ;
#152 = CARTESIAN_POINT ( 'NONE',  ( 0.000000000000000000, -4.898587196589434337E-18, 0.000000000000000000 ) ) ;
#153 = CIRCLE ( 'NONE', #219, 7.499999999999997335 ) ;
#154 = DIRECTION ( 'NONE',  ( -0.000000000000000000, 1.000000000000000000, -0.000000000000000000 ) ) ;
#155 = FACE_BOUND ( 'NONE', #163, .T. ) ;
#156 = CARTESIAN_POINT ( 'NONE',  ( 9.184850993605144000E-16, -15.00000000000000000, -7.499999999999997335 ) ) ;
#157 = PERSON_AND_ORGANIZATION ( #310, #274 ) ;
#158 = CALENDAR_DATE ( 2022, 11, 3 ) ;
#159 = ORIENTED_EDGE ( 'NONE', *, *, #187, .F. ) ;
#160 = APPROVAL_STATUS ( 'not_yet_approved' ) ;
#161 = DATE_AND_TIME ( #164, #67 ) ;
#162 = AXIS2_PLACEMENT_3D ( 'NONE', #198, #170, #249 ) ;
#163 = EDGE_LOOP ( 'NONE', ( #57, #112 ) ) ;
#164 = CALENDAR_DATE ( 2022, 11, 3 ) ;
#165 = VERTEX_POINT ( 'NONE', #275 ) ;
#166 = CARTESIAN_POINT ( 'NONE',  ( 0.000000000000000000, -15.00000000000000000, 7.499999999999997335 ) ) ;
#167 = DIRECTION ( 'NONE',  ( -0.000000000000000000, 1.000000000000000000, -0.000000000000000000 ) ) ;
#168 = AXIS2_PLACEMENT_3D ( 'NONE', #44, #246, #278 ) ;
#169 = SHAPE_DEFINITION_REPRESENTATION ( #244, #236 ) ;
#170 = DIRECTION ( 'NONE',  ( -0.000000000000000000, 1.000000000000000000, -0.000000000000000000 ) ) ;
#171 = EDGE_CURVE ( 'NONE', #117, #193, #153, .T. ) ;
#172 = VERTEX_POINT ( 'NONE', #222 ) ;
#173 = DIRECTION ( 'NONE',  ( 0.000000000000000000, 0.000000000000000000, 1.000000000000000000 ) ) ;
#174 = APPLICATION_CONTEXT ( 'configuration controlled 3d designs of mechanical parts and assemblies' ) ;
#175 = CC_DESIGN_SECURITY_CLASSIFICATION ( #299, ( #15 ) ) ;
#176 = CARTESIAN_POINT ( 'NONE',  ( 3.061616997868380183E-16, -13.50000000000000000, -2.499999999999996891 ) ) ;
#177 = EDGE_CURVE ( 'NONE', #186, #195, #3, .T. ) ;
#178 = CARTESIAN_POINT ( 'NONE',  ( 0.000000000000000000, 0.000000000000000000, 2.499999999999997780 ) ) ;
#179 = DIRECTION ( 'NONE',  ( 0.000000000000000000, -1.000000000000000000, 0.000000000000000000 ) ) ;
#180 = VECTOR ( 'NONE', #205, 1000.000000000000000 ) ;
#181 = LINE ( 'NONE', #178, #184 ) ;
#182 = DIRECTION ( 'NONE',  ( 0.000000000000000000, 0.000000000000000000, 1.000000000000000000 ) ) ;
#183 =( NAMED_UNIT ( * ) PLANE_ANGLE_UNIT ( ) SI_UNIT ( $, .RADIAN. ) );
#184 = VECTOR ( 'NONE', #133, 1000.000000000000000 ) ;
#185 = CIRCLE ( 'NONE', #266, 2.449999999999997513 ) ;
#186 = VERTEX_POINT ( 'NONE', #328 ) ;
#187 = EDGE_CURVE ( 'NONE', #172, #265, #181, .T. ) ;
#188 = COORDINATED_UNIVERSAL_TIME_OFFSET ( 9, 0, .AHEAD. ) ;
#189 = CC_DESIGN_PERSON_AND_ORGANIZATION_ASSIGNMENT ( #40, #11, ( #20 ) ) ;
#190 = SECURITY_CLASSIFICATION_LEVEL ( 'unclassified' ) ;
#191 = EDGE_LOOP ( 'NONE', ( #297, #243, #17, #313 ) ) ;
#192 = DIRECTION ( 'NONE',  ( 0.000000000000000000, 0.000000000000000000, 1.000000000000000000 ) ) ;
#193 = VERTEX_POINT ( 'NONE', #156 ) ;
#194 = CARTESIAN_POINT ( 'NONE',  ( 0.000000000000000000, -17.00000000000000000, 0.000000000000000000 ) ) ;
#195 = VERTEX_POINT ( 'NONE', #4 ) ;
#196 = LOCAL_TIME ( 11, 17, 38.00000000000000000, #188 ) ;
#197 = ADVANCED_FACE ( 'NONE', ( #155, #108 ), #235, .T. ) ;
#198 = CARTESIAN_POINT ( 'NONE',  ( 0.000000000000000000, -13.50000000000000000, 0.000000000000000000 ) ) ;
#199 = CC_DESIGN_PERSON_AND_ORGANIZATION_ASSIGNMENT ( #62, #139, ( #15 ) ) ;
#200 = FACE_OUTER_BOUND ( 'NONE', #191, .T. ) ;
#201 = DIRECTION ( 'NONE',  ( 0.000000000000000000, 0.000000000000000000, 1.000000000000000000 ) ) ;
#202 = AXIS2_PLACEMENT_3D ( 'NONE', #31, #154, #209 ) ;
#203 = DIRECTION ( 'NONE',  ( 0.000000000000000000, 0.000000000000000000, 1.000000000000000000 ) ) ;
#204 = DIRECTION ( 'NONE',  ( 0.000000000000000000, 0.000000000000000000, 1.000000000000000000 ) ) ;
#205 = DIRECTION ( 'NONE',  ( -0.000000000000000000, 1.000000000000000000, -0.000000000000000000 ) ) ;
#206 = CIRCLE ( 'NONE', #32, 2.449999999999997513 ) ;
#207 = EDGE_CURVE ( 'NONE', #268, #241, #206, .T. ) ;
#208 = CARTESIAN_POINT ( 'NONE',  ( 3.000384657911012412E-16, 4.253003599660558187, -2.449999999999997513 ) ) ;
#209 = DIRECTION ( 'NONE',  ( 0.000000000000000000, 0.000000000000000000, 1.000000000000000000 ) ) ;
#210 = APPROVAL_DATE_TIME ( #81, #92 ) ;
#211 = EDGE_CURVE ( 'NONE', #117, #186, #76, .T. ) ;
#212 = VECTOR ( 'NONE', #97, 1000.000000000000000 ) ;
#213 = CC_DESIGN_APPROVAL ( #92, ( #280 ) ) ;
#214 = ORIENTED_EDGE ( 'NONE', *, *, #211, .F. ) ;
#215 = CALENDAR_DATE ( 2022, 11, 3 ) ;
#216 = EDGE_LOOP ( 'NONE', ( #125, #135, #7, #214 ) ) ;
#217 =( NAMED_UNIT ( * ) SI_UNIT ( $, .STERADIAN. ) SOLID_ANGLE_UNIT ( ) );
#218 = EDGE_LOOP ( 'NONE', ( #288, #290, #143, #72 ) ) ;
#219 = AXIS2_PLACEMENT_3D ( 'NONE', #147, #247, #120 ) ;
#220 = ORIENTED_EDGE ( 'NONE', *, *, #320, .T. ) ;
#221 = CARTESIAN_POINT ( 'NONE',  ( 3.061616997868382155E-16, -4.898587196589434337E-18, -2.499999999999999112 ) ) ;
#222 = CARTESIAN_POINT ( 'NONE',  ( 0.000000000000000000, -13.50000000000000000, 2.499999999999996891 ) ) ;
#223 = DIRECTION ( 'NONE',  ( 0.000000000000000000, 0.000000000000000000, 1.000000000000000000 ) ) ;
#224 = AXIS2_PLACEMENT_3D ( 'NONE', #49, #300, #145 ) ;
#225 = FACE_OUTER_BOUND ( 'NONE', #42, .T. ) ;
#226 = CYLINDRICAL_SURFACE ( 'NONE', #52, 7.499999999999998224 ) ;
#227 = CC_DESIGN_PERSON_AND_ORGANIZATION_ASSIGNMENT ( #88, #56, ( #280 ) ) ;
#228 = CARTESIAN_POINT ( 'NONE',  ( 0.000000000000000000, 4.253003599660558187, 0.000000000000000000 ) ) ;
#229 = AXIS2_PLACEMENT_3D ( 'NONE', #279, #179, #79 ) ;
#230 = DIRECTION ( 'NONE',  ( -0.000000000000000000, 1.000000000000000000, -0.000000000000000000 ) ) ;
#231 = DIRECTION ( 'NONE',  ( -0.000000000000000000, 1.000000000000000000, -0.000000000000000000 ) ) ;
#232 = ADVANCED_FACE ( 'NONE', ( #308 ), #51, .F. ) ;
#233 = CARTESIAN_POINT ( 'NONE',  ( 0.000000000000000000, -15.00000000000000000, 2.449999999999997513 ) ) ;
#234 =( GEOMETRIC_REPRESENTATION_CONTEXT ( 3 ) GLOBAL_UNCERTAINTY_ASSIGNED_CONTEXT ( ( #136 ) ) GLOBAL_UNIT_ASSIGNED_CONTEXT ( ( #315, #183, #217 ) ) REPRESENTATION_CONTEXT ( 'NONE', 'WORKASPACE' ) );
#235 = PLANE ( 'NONE',  #333 ) ;
#236 = ADVANCED_BREP_SHAPE_REPRESENTATION ( 'B-122-23', ( #334, #127 ), #234 ) ;
#237 = EDGE_CURVE ( 'NONE', #165, #268, #284, .T. ) ;
#238 = ORIENTED_EDGE ( 'NONE', *, *, #77, .T. ) ;
#239 = EDGE_CURVE ( 'NONE', #165, #296, #123, .T. ) ;
#240 = EDGE_LOOP ( 'NONE', ( #64, #271 ) ) ;
#241 = VERTEX_POINT ( 'NONE', #233 ) ;
#242 = APPROVAL_ROLE ( '' ) ;
#243 = ORIENTED_EDGE ( 'NONE', *, *, #239, .T. ) ;
#244 = PRODUCT_DEFINITION_SHAPE ( 'NONE', 'NONE',  #280 ) ;
#245 = CIRCLE ( 'NONE', #43, 7.500000000000000000 ) ;
#246 = DIRECTION ( 'NONE',  ( -0.000000000000000000, 1.000000000000000000, -0.000000000000000000 ) ) ;
#247 = DIRECTION ( 'NONE',  ( -0.000000000000000000, 1.000000000000000000, -0.000000000000000000 ) ) ;
#248 = DIRECTION ( 'NONE',  ( 0.000000000000000000, 0.000000000000000000, 1.000000000000000000 ) ) ;
#249 = DIRECTION ( 'NONE',  ( 0.000000000000000000, 0.000000000000000000, 1.000000000000000000 ) ) ;
#250 = AXIS2_PLACEMENT_3D ( 'NONE', #298, #167, #46 ) ;
#251 = CARTESIAN_POINT ( 'NONE',  ( 0.000000000000000000, -15.00000000000000000, 0.000000000000000000 ) ) ;
#252 = FACE_BOUND ( 'NONE', #6, .T. ) ;
#253 = DIRECTION ( 'NONE',  ( -0.000000000000000000, 1.000000000000000000, -0.000000000000000000 ) ) ;
#254 = CC_DESIGN_APPROVAL ( #121, ( #15 ) ) ;
#255 = DIRECTION ( 'NONE',  ( 0.000000000000000000, -1.000000000000000000, 0.000000000000000000 ) ) ;
#256 = DIRECTION ( 'NONE',  ( 0.000000000000000000, -1.000000000000000000, 0.000000000000000000 ) ) ;
#257 = DIRECTION ( 'NONE',  ( 0.000000000000000000, -0.000000000000000000, -1.000000000000000000 ) ) ;
#258 = VECTOR ( 'NONE', #150, 1000.000000000000000 ) ;
#259 = EDGE_CURVE ( 'NONE', #241, #268, #9, .T. ) ;
#260 = APPLICATION_PROTOCOL_DEFINITION ( 'international standard', 'config_control_design', 1994, #174 ) ;
#261 = VERTEX_POINT ( 'NONE', #176 ) ;
#262 = DATE_TIME_ROLE ( 'classification_date' ) ;
#263 = ORIENTED_EDGE ( 'NONE', *, *, #129, .F. ) ;
#264 = APPROVAL_ROLE ( '' ) ;
#265 = VERTEX_POINT ( 'NONE', #305 ) ;
#266 = AXIS2_PLACEMENT_3D ( 'NONE', #194, #276, #248 ) ;
#267 = COORDINATED_UNIVERSAL_TIME_OFFSET ( 9, 0, .AHEAD. ) ;
#268 = VERTEX_POINT ( 'NONE', #2 ) ;
#269 = ADVANCED_FACE ( 'NONE', ( #74 ), #30, .T. ) ;
#270 = APPLICATION_PROTOCOL_DEFINITION ( 'international standard', 'config_control_design', 1994, #107 ) ;
#271 = ORIENTED_EDGE ( 'NONE', *, *, #102, .F. ) ;
#272 = CYLINDRICAL_SURFACE ( 'NONE', #250, 2.499999999999997780 ) ;
#273 = ADVANCED_FACE ( 'NONE', ( #252, #80 ), #335, .T. ) ;
#274 = ORGANIZATION ( 'UNSPECIFIED', 'UNSPECIFIED', '' ) ;
#275 = CARTESIAN_POINT ( 'NONE',  ( 3.000384657911012412E-16, -17.00000000000000000, -2.449999999999997513 ) ) ;
#276 = DIRECTION ( 'NONE',  ( -0.000000000000000000, 1.000000000000000000, -0.000000000000000000 ) ) ;
#277 = CARTESIAN_POINT ( 'NONE',  ( 9.184850993605145972E-16, 4.253003599660558187, -7.499999999999998224 ) ) ;
#278 = DIRECTION ( 'NONE',  ( 0.000000000000000000, 0.000000000000000000, 1.000000000000000000 ) ) ;
#279 = CARTESIAN_POINT ( 'NONE',  ( -3.469446951953614189E-15, -13.49999999999999822, 0.000000000000000000 ) ) ;
#280 = PRODUCT_DEFINITION ( 'UNKNOWN', '', #15, #61 ) ;
#281 = DIRECTION ( 'NONE',  ( 0.000000000000000000, 0.000000000000000000, 1.000000000000000000 ) ) ;
#282 = DIRECTION ( 'NONE',  ( -0.000000000000000000, 1.000000000000000000, -0.000000000000000000 ) ) ;
#283 = LOCAL_TIME ( 11, 17, 38.00000000000000000, #267 ) ;
#284 = LINE ( 'NONE', #208, #73 ) ;
#285 = CARTESIAN_POINT ( 'NONE',  ( 0.000000000000000000, -17.00000000000000000, -2.602742283059147123E-15 ) ) ;
#286 = APPROVAL_DATE_TIME ( #161, #121 ) ;
#287 = AXIS2_PLACEMENT_3D ( 'NONE', #251, #124, #24 ) ;
#288 = ORIENTED_EDGE ( 'NONE', *, *, #129, .T. ) ;
#289 = APPROVAL_STATUS ( 'not_yet_approved' ) ;
#290 = ORIENTED_EDGE ( 'NONE', *, *, #237, .T. ) ;
#291 = APPROVAL_DATE_TIME ( #318, #324 ) ;
#292 = ADVANCED_FACE ( 'NONE', ( #101 ), #54, .T. ) ;
#293 = ORIENTED_EDGE ( 'NONE', *, *, #45, .T. ) ;
#294 = AXIS2_PLACEMENT_3D ( 'NONE', #106, #230, #182 ) ;
#295 = CALENDAR_DATE ( 2022, 11, 3 ) ;
#296 = VERTEX_POINT ( 'NONE', #130 ) ;
#297 = ORIENTED_EDGE ( 'NONE', *, *, #237, .F. ) ;
#298 = CARTESIAN_POINT ( 'NONE',  ( 0.000000000000000000, 0.000000000000000000, 0.000000000000000000 ) ) ;
#299 = SECURITY_CLASSIFICATION ( '', '', #190 ) ;
#300 = DIRECTION ( 'NONE',  ( -0.000000000000000000, 1.000000000000000000, -0.000000000000000000 ) ) ;
#301 = ORIENTED_EDGE ( 'NONE', *, *, #25, .F. ) ;
#302 = CARTESIAN_POINT ( 'NONE',  ( 0.000000000000000000, 4.253003599660558187, 0.000000000000000000 ) ) ;
#303 = DIRECTION ( 'NONE',  ( -0.000000000000000000, 1.000000000000000000, -0.000000000000000000 ) ) ;
#304 = AXIS2_PLACEMENT_3D ( 'NONE', #151, #128, #309 ) ;
#305 = CARTESIAN_POINT ( 'NONE',  ( 0.000000000000000000, -4.898587196589434337E-18, 2.499999999999998668 ) ) ;
#306 = DIRECTION ( 'NONE',  ( 0.000000000000000000, -0.000000000000000000, -1.000000000000000000 ) ) ;
#307 = PRODUCT_RELATED_PRODUCT_CATEGORY ( 'detail', '', ( #20 ) ) ;
#308 = FACE_OUTER_BOUND ( 'NONE', #12, .T. ) ;
#309 = DIRECTION ( 'NONE',  ( 0.000000000000000000, 0.000000000000000000, 1.000000000000000000 ) ) ;
#310 = PERSON ( 'UNSPECIFIED', 'UNSPECIFIED', 'UNSPECIFIED', ('UNSPECIFIED'), ('UNSPECIFIED'), ('UNSPECIFIED') ) ;
#311 = CALENDAR_DATE ( 2022, 11, 3 ) ;
#312 = DATE_AND_TIME ( #295, #283 ) ;
#313 = ORIENTED_EDGE ( 'NONE', *, *, #207, .F. ) ;
#314 = CC_DESIGN_DATE_AND_TIME_ASSIGNMENT ( #111, #262, ( #299 ) ) ;
#315 =( LENGTH_UNIT ( ) NAMED_UNIT ( * ) SI_UNIT ( .MILLI., .METRE. ) );
#316 = ORIENTED_EDGE ( 'NONE', *, *, #320, .F. ) ;
#317 = ADVANCED_FACE ( 'NONE', ( #100 ), #55, .T. ) ;
#318 = DATE_AND_TIME ( #215, #327 ) ;
#319 = ORIENTED_EDGE ( 'NONE', *, *, #187, .T. ) ;
#320 = EDGE_CURVE ( 'NONE', #195, #186, #245, .T. ) ;
#321 = ORIENTED_EDGE ( 'NONE', *, *, #329, .T. ) ;
#322 = EDGE_LOOP ( 'NONE', ( #85, #220 ) ) ;
#323 = CYLINDRICAL_SURFACE ( 'NONE', #104, 2.449999999999997513 ) ;
#324 = APPROVAL ( #160, 'UNSPECIFIED' ) ;
#325 = CARTESIAN_POINT ( 'NONE',  ( 0.000000000000000000, 0.000000000000000000, 0.000000000000000000 ) ) ;
#326 = AXIS2_PLACEMENT_3D ( 'NONE', #47, #148, #201 ) ;
#327 = LOCAL_TIME ( 11, 17, 38.00000000000000000, #36 ) ;
#328 = CARTESIAN_POINT ( 'NONE',  ( 0.000000000000000000, 0.000000000000000000, 7.500000000000000000 ) ) ;
#329 = EDGE_CURVE ( 'NONE', #69, #265, #21, .T. ) ;
#330 = DIRECTION ( 'NONE',  ( -0.000000000000000000, 1.000000000000000000, -0.000000000000000000 ) ) ;
#331 = CARTESIAN_POINT ( 'NONE',  ( 0.000000000000000000, 4.253003599660558187, 0.000000000000000000 ) ) ;
#332 = CARTESIAN_POINT ( 'NONE',  ( 0.000000000000000000, -15.00000000000000000, 7.499999999999997335 ) ) ;
#333 = AXIS2_PLACEMENT_3D ( 'NONE', #332, #256, #306 ) ;
#334 = MANIFOLD_SOLID_BREP ( 'M6x1.0 ‚Ë‚¶ŒŠ1', #83 ) ;
#335 = PLANE ( 'NONE',  #96 ) ;
ENDSEC;
END-ISO-10303-21;
