ISO-10303-21;
HEADER;
FILE_DESCRIPTION (( 'STEP AP203' ),
    '1' );
FILE_NAME ('B-122-22.STEP',
    '2022-03-11T02:16:01',
    ( '' ),
    ( '' ),
    'SwSTEP 2.0',
    'SolidWorks 2021',
    '' );
FILE_SCHEMA (( 'CONFIG_CONTROL_DESIGN' ));
ENDSEC;

DATA;
#1 = ORIENTED_EDGE ( 'NONE', *, *, #299, .T. ) ;
#2 = ADVANCED_FACE ( 'NONE', ( #287 ), #244, .T. ) ;
#3 = APPROVAL_STATUS ( 'not_yet_approved' ) ;
#4 = EDGE_LOOP ( 'NONE', ( #37, #284 ) ) ;
#5 = ORIENTED_EDGE ( 'NONE', *, *, #299, .F. ) ;
#6 = CARTESIAN_POINT ( 'NONE',  ( 9.184850993605147944E-16, 0.000000000000000000, -7.500000000000000000 ) ) ;
#7 = CARTESIAN_POINT ( 'NONE',  ( 4.163799117100997601E-16, -13.50000000000000000, -3.399999999999996803 ) ) ;
#8 = APPROVAL_PERSON_ORGANIZATION ( #129, #142, #282 ) ;
#9 = DIRECTION ( 'NONE',  ( 0.000000000000000000, -1.000000000000000000, 0.000000000000000000 ) ) ;
#10 = ORIENTED_EDGE ( 'NONE', *, *, #164, .T. ) ;
#11 = CARTESIAN_POINT ( 'NONE',  ( 0.000000000000000000, 4.253003599660558187, 0.000000000000000000 ) ) ;
#12 = LINE ( 'NONE', #131, #13 ) ;
#13 = VECTOR ( 'NONE', #237, 1000.000000000000000 ) ;
#14 = CIRCLE ( 'NONE', #318, 7.500000000000000000 ) ;
#15 = DIRECTION ( 'NONE',  ( -0.000000000000000000, 1.000000000000000000, -0.000000000000000000 ) ) ;
#16 = EDGE_CURVE ( 'NONE', #293, #50, #326, .T. ) ;
#17 = DIRECTION ( 'NONE',  ( -0.000000000000000000, 1.000000000000000000, -0.000000000000000000 ) ) ;
#18 = DIRECTION ( 'NONE',  ( -0.000000000000000000, 1.000000000000000000, -0.000000000000000000 ) ) ;
#19 = AXIS2_PLACEMENT_3D ( 'NONE', #57, #216, #262 ) ;
#20 = PRODUCT_DEFINITION_FORMATION_WITH_SPECIFIED_SOURCE ( 'ANY', '', #26, .NOT_KNOWN. ) ;
#21 = ADVANCED_FACE ( 'NONE', ( #59 ), #286, .F. ) ;
#22 = APPLICATION_PROTOCOL_DEFINITION ( 'international standard', 'config_control_design', 1994, #40 ) ;
#23 = CARTESIAN_POINT ( 'NONE',  ( 0.000000000000000000, 0.000000000000000000, 0.000000000000000000 ) ) ;
#24 = CYLINDRICAL_SURFACE ( 'NONE', #223, 3.399999999999997691 ) ;
#25 = CALENDAR_DATE ( 2022, 11, 3 ) ;
#26 = PRODUCT ( 'B-122-22', 'B-122-22', '', ( #171 ) ) ;
#27 = PERSON_AND_ORGANIZATION ( #311, #285 ) ;
#28 = APPROVAL_PERSON_ORGANIZATION ( #173, #124, #206 ) ;
#29 = CC_DESIGN_PERSON_AND_ORGANIZATION_ASSIGNMENT ( #332, #100, ( #130 ) ) ;
#30 = ORIENTED_EDGE ( 'NONE', *, *, #53, .F. ) ;
#31 = DIRECTION ( 'NONE',  ( 0.000000000000000000, -0.000000000000000000, -1.000000000000000000 ) ) ;
#32 = VERTEX_POINT ( 'NONE', #157 ) ;
#33 = AXIS2_PLACEMENT_3D ( 'NONE', #11, #217, #160 ) ;
#34 = EDGE_LOOP ( 'NONE', ( #161, #280 ) ) ;
#35 = CARTESIAN_POINT ( 'NONE',  ( 0.000000000000000000, 0.000000000000000000, 7.500000000000000000 ) ) ;
#36 = APPLICATION_CONTEXT ( 'configuration controlled 3d designs of mechanical parts and assemblies' ) ;
#37 = ORIENTED_EDGE ( 'NONE', *, *, #72, .T. ) ;
#38 = ORIENTED_EDGE ( 'NONE', *, *, #16, .F. ) ;
#39 = CARTESIAN_POINT ( 'NONE',  ( 3.000384657911012412E-16, 4.253003599660558187, -2.449999999999997513 ) ) ;
#40 = APPLICATION_CONTEXT ( 'configuration controlled 3d designs of mechanical parts and assemblies' ) ;
#41 = DIRECTION ( 'NONE',  ( -0.000000000000000000, 1.000000000000000000, -0.000000000000000000 ) ) ;
#42 = DIRECTION ( 'NONE',  ( -0.000000000000000000, 1.000000000000000000, -0.000000000000000000 ) ) ;
#43 = DIRECTION ( 'NONE',  ( 0.000000000000000000, 0.000000000000000000, 1.000000000000000000 ) ) ;
#44 = VECTOR ( 'NONE', #51, 1000.000000000000000 ) ;
#45 = DIRECTION ( 'NONE',  ( 0.000000000000000000, 0.000000000000000000, 1.000000000000000000 ) ) ;
#46 = COORDINATED_UNIVERSAL_TIME_OFFSET ( 9, 0, .AHEAD. ) ;
#47 = ADVANCED_FACE ( 'NONE', ( #88 ), #188, .F. ) ;
#48 = CC_DESIGN_APPROVAL ( #142, ( #156 ) ) ;
#49 = COORDINATED_UNIVERSAL_TIME_OFFSET ( 9, 0, .AHEAD. ) ;
#50 = VERTEX_POINT ( 'NONE', #214 ) ;
#51 = DIRECTION ( 'NONE',  ( -0.000000000000000000, 1.000000000000000000, -0.000000000000000000 ) ) ;
#52 = ORIENTED_EDGE ( 'NONE', *, *, #240, .T. ) ;
#53 = EDGE_CURVE ( 'NONE', #50, #241, #12, .T. ) ;
#54 = VERTEX_POINT ( 'NONE', #115 ) ;
#55 = AXIS2_PLACEMENT_3D ( 'NONE', #167, #304, #116 ) ;
#56 = AXIS2_PLACEMENT_3D ( 'NONE', #186, #62, #289 ) ;
#57 = CARTESIAN_POINT ( 'NONE',  ( 0.000000000000000000, 0.000000000000000000, 0.000000000000000000 ) ) ;
#58 = EDGE_LOOP ( 'NONE', ( #159, #231 ) ) ;
#59 = FACE_OUTER_BOUND ( 'NONE', #81, .T. ) ;
#60 = CARTESIAN_POINT ( 'NONE',  ( 9.184850993605145972E-16, 4.253003599660558187, -7.499999999999998224 ) ) ;
#61 = VERTEX_POINT ( 'NONE', #7 ) ;
#62 = DIRECTION ( 'NONE',  ( -0.000000000000000000, 1.000000000000000000, 0.000000000000000000 ) ) ;
#63 = CC_DESIGN_DATE_AND_TIME_ASSIGNMENT ( #261, #179, ( #156 ) ) ;
#64 = VERTEX_POINT ( 'NONE', #319 ) ;
#65 = CARTESIAN_POINT ( 'NONE',  ( 0.000000000000000000, -15.00000000000000000, 7.499999999999997335 ) ) ;
#66 = CYLINDRICAL_SURFACE ( 'NONE', #150, 2.449999999999997513 ) ;
#67 =( LENGTH_UNIT ( ) NAMED_UNIT ( * ) SI_UNIT ( .MILLI., .METRE. ) );
#68 = DIRECTION ( 'NONE',  ( 0.000000000000000000, 0.000000000000000000, 1.000000000000000000 ) ) ;
#69 = DIRECTION ( 'NONE',  ( 0.000000000000000000, 0.000000000000000000, 1.000000000000000000 ) ) ;
#70 = CARTESIAN_POINT ( 'NONE',  ( 3.000384657911012412E-16, -17.00000000000000000, -2.449999999999997513 ) ) ;
#71 = DIRECTION ( 'NONE',  ( -0.000000000000000000, 1.000000000000000000, -0.000000000000000000 ) ) ;
#72 = EDGE_CURVE ( 'NONE', #180, #61, #238, .T. ) ;
#73 = PERSON_AND_ORGANIZATION ( #311, #285 ) ;
#74 = APPROVAL_STATUS ( 'not_yet_approved' ) ;
#75 = DIRECTION ( 'NONE',  ( 0.000000000000000000, 0.000000000000000000, 1.000000000000000000 ) ) ;
#76 = CARTESIAN_POINT ( 'NONE',  ( 0.000000000000000000, -15.00000000000000000, 0.000000000000000000 ) ) ;
#77 = LOCAL_TIME ( 11, 16, 1.000000000000000000, #229 ) ;
#78 = APPROVAL_DATE_TIME ( #234, #142 ) ;
#79 = ORIENTED_EDGE ( 'NONE', *, *, #312, .F. ) ;
#80 = PERSON_AND_ORGANIZATION_ROLE ( 'design_supplier' ) ;
#81 = EDGE_LOOP ( 'NONE', ( #208, #257, #108, #155 ) ) ;
#82 = EDGE_LOOP ( 'NONE', ( #135, #174, #10, #260 ) ) ;
#83 = PRODUCT_RELATED_PRODUCT_CATEGORY ( 'detail', '', ( #26 ) ) ;
#84 = CARTESIAN_POINT ( 'NONE',  ( 0.000000000000000000, -13.50000000000000000, 0.000000000000000000 ) ) ;
#85 = CARTESIAN_POINT ( 'NONE',  ( 0.000000000000000000, -15.00000000000000000, 0.000000000000000000 ) ) ;
#86 = FACE_BOUND ( 'NONE', #92, .T. ) ;
#87 = AXIS2_PLACEMENT_3D ( 'NONE', #76, #198, #68 ) ;
#88 = FACE_OUTER_BOUND ( 'NONE', #4, .T. ) ;
#89 = AXIS2_PLACEMENT_3D ( 'NONE', #65, #140, #221 ) ;
#90 = AXIS2_PLACEMENT_3D ( 'NONE', #224, #71, #252 ) ;
#91 = ADVANCED_FACE ( 'NONE', ( #99 ), #274, .T. ) ;
#92 = EDGE_LOOP ( 'NONE', ( #5, #233 ) ) ;
#93 = LINE ( 'NONE', #177, #212 ) ;
#94 = DIRECTION ( 'NONE',  ( -0.000000000000000000, 1.000000000000000000, -0.000000000000000000 ) ) ;
#95 = AXIS2_PLACEMENT_3D ( 'NONE', #306, #298, #302 ) ;
#96 = CC_DESIGN_PERSON_AND_ORGANIZATION_ASSIGNMENT ( #27, #277, ( #20 ) ) ;
#97 = CARTESIAN_POINT ( 'NONE',  ( 0.000000000000000000, 4.253003599660558187, 2.449999999999997513 ) ) ;
#98 = CARTESIAN_POINT ( 'NONE',  ( 0.000000000000000000, 0.000000000000000000, 0.000000000000000000 ) ) ;
#99 = FACE_OUTER_BOUND ( 'NONE', #314, .T. ) ;
#100 = PERSON_AND_ORGANIZATION_ROLE ( 'creator' ) ;
#101 = AXIS2_PLACEMENT_3D ( 'NONE', #248, #15, #220 ) ;
#102 = EDGE_CURVE ( 'NONE', #321, #189, #187, .T. ) ;
#103 = CALENDAR_DATE ( 2022, 11, 3 ) ;
#104 = ORIENTED_EDGE ( 'NONE', *, *, #118, .F. ) ;
#105 = ADVANCED_BREP_SHAPE_REPRESENTATION ( 'B-122-22', ( #253, #106 ), #128 ) ;
#106 = AXIS2_PLACEMENT_3D ( 'NONE', #300, #69, #168 ) ;
#107 = COORDINATED_UNIVERSAL_TIME_OFFSET ( 9, 0, .AHEAD. ) ;
#108 = ORIENTED_EDGE ( 'NONE', *, *, #134, .T. ) ;
#109 = CLOSED_SHELL ( 'NONE', ( #21, #169, #191, #2, #256, #175, #91, #227, #47, #273 ) ) ;
#110 = AXIS2_PLACEMENT_3D ( 'NONE', #152, #295, #325 ) ;
#111 = ORIENTED_EDGE ( 'NONE', *, *, #53, .T. ) ;
#112 = ORIENTED_EDGE ( 'NONE', *, *, #290, .T. ) ;
#113 = ORIENTED_EDGE ( 'NONE', *, *, #72, .F. ) ;
#114 = EDGE_CURVE ( 'NONE', #316, #189, #270, .T. ) ;
#115 = CARTESIAN_POINT ( 'NONE',  ( 0.000000000000000000, -9.184850993605099442E-18, 3.399999999999998579 ) ) ;
#116 = DIRECTION ( 'NONE',  ( 0.000000000000000000, 0.000000000000000000, 1.000000000000000000 ) ) ;
#117 = LINE ( 'NONE', #97, #279 ) ;
#118 = EDGE_CURVE ( 'NONE', #215, #241, #246, .T. ) ;
#119 = CYLINDRICAL_SURFACE ( 'NONE', #110, 7.499999999999998224 ) ;
#120 = CARTESIAN_POINT ( 'NONE',  ( 9.184850993605144000E-16, -15.00000000000000000, -7.499999999999997335 ) ) ;
#121 = AXIS2_PLACEMENT_3D ( 'NONE', #85, #242, #288 ) ;
#122 = APPROVAL_DATE_TIME ( #125, #181 ) ;
#123 = DIRECTION ( 'NONE',  ( -0.000000000000000000, 1.000000000000000000, -0.000000000000000000 ) ) ;
#124 = APPROVAL ( #3, 'UNSPECIFIED' ) ;
#125 = DATE_AND_TIME ( #255, #170 ) ;
#126 = CIRCLE ( 'NONE', #194, 7.499999999999997335 ) ;
#127 = CALENDAR_DATE ( 2022, 11, 3 ) ;
#128 =( GEOMETRIC_REPRESENTATION_CONTEXT ( 3 ) GLOBAL_UNCERTAINTY_ASSIGNED_CONTEXT ( ( #258 ) ) GLOBAL_UNIT_ASSIGNED_CONTEXT ( ( #67, #195, #163 ) ) REPRESENTATION_CONTEXT ( 'NONE', 'WORKASPACE' ) );
#129 = PERSON_AND_ORGANIZATION ( #311, #285 ) ;
#130 = PRODUCT_DEFINITION ( 'UNKNOWN', '', #20, #196 ) ;
#131 = CARTESIAN_POINT ( 'NONE',  ( 0.000000000000000000, 4.253003599660558187, 7.499999999999998224 ) ) ;
#132 = CIRCLE ( 'NONE', #182, 3.399999999999998579 ) ;
#133 = EDGE_LOOP ( 'NONE', ( #283, #308, #247, #207 ) ) ;
#134 = EDGE_CURVE ( 'NONE', #64, #54, #269, .T. ) ;
#135 = ORIENTED_EDGE ( 'NONE', *, *, #114, .F. ) ;
#136 = FACE_OUTER_BOUND ( 'NONE', #82, .T. ) ;
#137 = DIRECTION ( 'NONE',  ( 0.000000000000000000, -1.000000000000000000, 0.000000000000000000 ) ) ;
#138 = ORIENTED_EDGE ( 'NONE', *, *, #263, .F. ) ;
#139 = CIRCLE ( 'NONE', #90, 2.449999999999997513 ) ;
#140 = DIRECTION ( 'NONE',  ( 0.000000000000000000, -1.000000000000000000, 0.000000000000000000 ) ) ;
#141 = COORDINATED_UNIVERSAL_TIME_OFFSET ( 9, 0, .AHEAD. ) ;
#142 = APPROVAL ( #74, 'UNSPECIFIED' ) ;
#143 = DIRECTION ( 'NONE',  ( 0.000000000000000000, 0.000000000000000000, 1.000000000000000000 ) ) ;
#144 = DIRECTION ( 'NONE',  ( -0.000000000000000000, 1.000000000000000000, -0.000000000000000000 ) ) ;
#145 = CARTESIAN_POINT ( 'NONE',  ( 4.163799117100997601E-16, 0.000000000000000000, -3.399999999999997691 ) ) ;
#146 = PERSON_AND_ORGANIZATION_ROLE ( 'design_owner' ) ;
#147 = EDGE_CURVE ( 'NONE', #61, #64, #148, .T. ) ;
#148 = LINE ( 'NONE', #145, #44 ) ;
#149 = PERSON_AND_ORGANIZATION ( #311, #285 ) ;
#150 = AXIS2_PLACEMENT_3D ( 'NONE', #272, #41, #143 ) ;
#151 = EDGE_CURVE ( 'NONE', #180, #54, #93, .T. ) ;
#152 = CARTESIAN_POINT ( 'NONE',  ( 0.000000000000000000, 4.253003599660558187, 0.000000000000000000 ) ) ;
#153 = AXIS2_PLACEMENT_3D ( 'NONE', #265, #9, #320 ) ;
#154 = EDGE_LOOP ( 'NONE', ( #183, #113, #236, #1 ) ) ;
#155 = ORIENTED_EDGE ( 'NONE', *, *, #151, .F. ) ;
#156 = SECURITY_CLASSIFICATION ( '', '', #172 ) ;
#157 = CARTESIAN_POINT ( 'NONE',  ( 0.000000000000000000, -17.00000000000000000, 2.449999999999997513 ) ) ;
#158 = LINE ( 'NONE', #60, #251 ) ;
#159 = ORIENTED_EDGE ( 'NONE', *, *, #102, .T. ) ;
#160 = DIRECTION ( 'NONE',  ( 0.000000000000000000, 0.000000000000000000, 1.000000000000000000 ) ) ;
#161 = ORIENTED_EDGE ( 'NONE', *, *, #263, .T. ) ;
#162 = VECTOR ( 'NONE', #225, 1000.000000000000000 ) ;
#163 =( NAMED_UNIT ( * ) SI_UNIT ( $, .STERADIAN. ) SOLID_ANGLE_UNIT ( ) );
#164 = EDGE_CURVE ( 'NONE', #32, #321, #117, .T. ) ;
#165 = CARTESIAN_POINT ( 'NONE',  ( 3.000384657911012412E-16, -15.00000000000000000, -2.449999999999997513 ) ) ;
#166 = FACE_OUTER_BOUND ( 'NONE', #154, .T. ) ;
#167 = CARTESIAN_POINT ( 'NONE',  ( 0.000000000000000000, 4.253003599660558187, 0.000000000000000000 ) ) ;
#168 = DIRECTION ( 'NONE',  ( 1.000000000000000000, 0.000000000000000000, 0.000000000000000000 ) ) ;
#169 = ADVANCED_FACE ( 'NONE', ( #301 ), #119, .T. ) ;
#170 = LOCAL_TIME ( 11, 16, 1.000000000000000000, #141 ) ;
#171 = MECHANICAL_CONTEXT ( 'NONE', #36, 'mechanical' ) ;
#172 = SECURITY_CLASSIFICATION_LEVEL ( 'unclassified' ) ;
#173 = PERSON_AND_ORGANIZATION ( #311, #285 ) ;
#174 = ORIENTED_EDGE ( 'NONE', *, *, #312, .T. ) ;
#175 = ADVANCED_FACE ( 'NONE', ( #281, #324 ), #192, .T. ) ;
#176 = LOCAL_TIME ( 11, 16, 1.000000000000000000, #107 ) ;
#177 = CARTESIAN_POINT ( 'NONE',  ( 0.000000000000000000, 0.000000000000000000, 3.399999999999997691 ) ) ;
#178 = APPROVAL_DATE_TIME ( #210, #124 ) ;
#179 = DATE_TIME_ROLE ( 'classification_date' ) ;
#180 = VERTEX_POINT ( 'NONE', #193 ) ;
#181 = APPROVAL ( #334, 'UNSPECIFIED' ) ;
#182 = AXIS2_PLACEMENT_3D ( 'NONE', #226, #250, #271 ) ;
#183 = ORIENTED_EDGE ( 'NONE', *, *, #147, .F. ) ;
#184 = DIRECTION ( 'NONE',  ( -0.000000000000000000, 1.000000000000000000, -0.000000000000000000 ) ) ;
#185 = ORIENTED_EDGE ( 'NONE', *, *, #315, .F. ) ;
#186 = CARTESIAN_POINT ( 'NONE',  ( 0.000000000000000000, 0.000000000000000000, 7.500000000000000000 ) ) ;
#187 = CIRCLE ( 'NONE', #87, 2.449999999999997513 ) ;
#188 = PLANE ( 'NONE',  #317 ) ;
#189 = VERTEX_POINT ( 'NONE', #165 ) ;
#190 = FACE_OUTER_BOUND ( 'NONE', #34, .T. ) ;
#191 = ADVANCED_FACE ( 'NONE', ( #297 ), #66, .T. ) ;
#192 = PLANE ( 'NONE',  #89 ) ;
#193 = CARTESIAN_POINT ( 'NONE',  ( 0.000000000000000000, -13.50000000000000000, 3.399999999999996803 ) ) ;
#194 = AXIS2_PLACEMENT_3D ( 'NONE', #204, #328, #199 ) ;
#195 =( NAMED_UNIT ( * ) PLANE_ANGLE_UNIT ( ) SI_UNIT ( $, .RADIAN. ) );
#196 = DESIGN_CONTEXT ( 'detailed design', #40, 'design' ) ;
#197 = APPLICATION_PROTOCOL_DEFINITION ( 'international standard', 'config_control_design', 1994, #36 ) ;
#198 = DIRECTION ( 'NONE',  ( -0.000000000000000000, 1.000000000000000000, -0.000000000000000000 ) ) ;
#199 = DIRECTION ( 'NONE',  ( 0.000000000000000000, 0.000000000000000000, 1.000000000000000000 ) ) ;
#200 = DIRECTION ( 'NONE',  ( 0.000000000000000000, 0.000000000000000000, 1.000000000000000000 ) ) ;
#201 = CARTESIAN_POINT ( 'NONE',  ( 0.000000000000000000, -13.50000000000000000, 0.000000000000000000 ) ) ;
#202 = AXIS2_PLACEMENT_3D ( 'NONE', #84, #184, #200 ) ;
#203 = CIRCLE ( 'NONE', #95, 2.449999999999997513 ) ;
#204 = CARTESIAN_POINT ( 'NONE',  ( 0.000000000000000000, -15.00000000000000000, 0.000000000000000000 ) ) ;
#205 = CC_DESIGN_PERSON_AND_ORGANIZATION_ASSIGNMENT ( #73, #80, ( #20 ) ) ;
#206 = APPROVAL_ROLE ( '' ) ;
#207 = ORIENTED_EDGE ( 'NONE', *, *, #164, .F. ) ;
#208 = ORIENTED_EDGE ( 'NONE', *, *, #259, .F. ) ;
#209 = EDGE_CURVE ( 'NONE', #189, #321, #333, .T. ) ;
#210 = DATE_AND_TIME ( #232, #176 ) ;
#211 = EDGE_LOOP ( 'NONE', ( #185, #79 ) ) ;
#212 = VECTOR ( 'NONE', #17, 1000.000000000000000 ) ;
#213 = CIRCLE ( 'NONE', #276, 3.399999999999996803 ) ;
#214 = CARTESIAN_POINT ( 'NONE',  ( 0.000000000000000000, -15.00000000000000000, 7.499999999999997335 ) ) ;
#215 = VERTEX_POINT ( 'NONE', #6 ) ;
#216 = DIRECTION ( 'NONE',  ( -0.000000000000000000, 1.000000000000000000, -0.000000000000000000 ) ) ;
#217 = DIRECTION ( 'NONE',  ( -0.000000000000000000, 1.000000000000000000, -0.000000000000000000 ) ) ;
#218 = CC_DESIGN_SECURITY_CLASSIFICATION ( #156, ( #20 ) ) ;
#219 = ORIENTED_EDGE ( 'NONE', *, *, #16, .T. ) ;
#220 = DIRECTION ( 'NONE',  ( 0.000000000000000000, 0.000000000000000000, 1.000000000000000000 ) ) ;
#221 = DIRECTION ( 'NONE',  ( 0.000000000000000000, -0.000000000000000000, -1.000000000000000000 ) ) ;
#222 = CARTESIAN_POINT ( 'NONE',  ( 0.000000000000000000, -15.00000000000000000, 2.449999999999997513 ) ) ;
#223 = AXIS2_PLACEMENT_3D ( 'NONE', #98, #144, #305 ) ;
#224 = CARTESIAN_POINT ( 'NONE',  ( 0.000000000000000000, -17.00000000000000000, 0.000000000000000000 ) ) ;
#225 = DIRECTION ( 'NONE',  ( -0.000000000000000000, 1.000000000000000000, -0.000000000000000000 ) ) ;
#226 = CARTESIAN_POINT ( 'NONE',  ( 0.000000000000000000, -9.184850993605099442E-18, 0.000000000000000000 ) ) ;
#227 = ADVANCED_FACE ( 'NONE', ( #86, #190 ), #294, .T. ) ;
#228 = APPROVAL_ROLE ( '' ) ;
#229 = COORDINATED_UNIVERSAL_TIME_OFFSET ( 9, 0, .AHEAD. ) ;
#230 = CC_DESIGN_APPROVAL ( #124, ( #20 ) ) ;
#231 = ORIENTED_EDGE ( 'NONE', *, *, #209, .T. ) ;
#232 = CALENDAR_DATE ( 2022, 11, 3 ) ;
#233 = ORIENTED_EDGE ( 'NONE', *, *, #134, .F. ) ;
#234 = DATE_AND_TIME ( #127, #291 ) ;
#235 = AXIS2_PLACEMENT_3D ( 'NONE', #329, #123, #45 ) ;
#236 = ORIENTED_EDGE ( 'NONE', *, *, #151, .T. ) ;
#237 = DIRECTION ( 'NONE',  ( -0.000000000000000000, 1.000000000000000000, -0.000000000000000000 ) ) ;
#238 = CIRCLE ( 'NONE', #202, 3.399999999999996803 ) ;
#239 = AXIS2_PLACEMENT_3D ( 'NONE', #249, #18, #75 ) ;
#240 = EDGE_CURVE ( 'NONE', #293, #215, #158, .T. ) ;
#241 = VERTEX_POINT ( 'NONE', #35 ) ;
#242 = DIRECTION ( 'NONE',  ( -0.000000000000000000, 1.000000000000000000, -0.000000000000000000 ) ) ;
#243 = CYLINDRICAL_SURFACE ( 'NONE', #33, 2.449999999999997513 ) ;
#244 = PLANE ( 'NONE',  #153 ) ;
#245 = CC_DESIGN_PERSON_AND_ORGANIZATION_ASSIGNMENT ( #278, #335, ( #156 ) ) ;
#246 = CIRCLE ( 'NONE', #101, 7.500000000000000000 ) ;
#247 = ORIENTED_EDGE ( 'NONE', *, *, #102, .F. ) ;
#248 = CARTESIAN_POINT ( 'NONE',  ( 0.000000000000000000, 0.000000000000000000, 0.000000000000000000 ) ) ;
#249 = CARTESIAN_POINT ( 'NONE',  ( 0.000000000000000000, -15.00000000000000000, 0.000000000000000000 ) ) ;
#250 = DIRECTION ( 'NONE',  ( -0.000000000000000000, 1.000000000000000000, -0.000000000000000000 ) ) ;
#251 = VECTOR ( 'NONE', #266, 1000.000000000000000 ) ;
#252 = DIRECTION ( 'NONE',  ( 0.000000000000000000, 0.000000000000000000, 1.000000000000000000 ) ) ;
#253 = MANIFOLD_SOLID_BREP ( 'M8x1.25 ‚Ë‚¶ŒŠ2', #109 ) ;
#254 = DIRECTION ( 'NONE',  ( -0.000000000000000000, 1.000000000000000000, -0.000000000000000000 ) ) ;
#255 = CALENDAR_DATE ( 2022, 11, 3 ) ;
#256 = ADVANCED_FACE ( 'NONE', ( #136 ), #243, .T. ) ;
#257 = ORIENTED_EDGE ( 'NONE', *, *, #147, .T. ) ;
#258 = UNCERTAINTY_MEASURE_WITH_UNIT (LENGTH_MEASURE( 1.000000000000000082E-05 ), #67, 'distance_accuracy_value', 'NONE');
#259 = EDGE_CURVE ( 'NONE', #61, #180, #213, .T. ) ;
#260 = ORIENTED_EDGE ( 'NONE', *, *, #209, .F. ) ;
#261 = DATE_AND_TIME ( #25, #296 ) ;
#262 = DIRECTION ( 'NONE',  ( 0.000000000000000000, 0.000000000000000000, 1.000000000000000000 ) ) ;
#263 = EDGE_CURVE ( 'NONE', #241, #215, #14, .T. ) ;
#264 = EDGE_LOOP ( 'NONE', ( #112, #52, #138, #30 ) ) ;
#265 = CARTESIAN_POINT ( 'NONE',  ( 0.000000000000000000, -17.00000000000000000, -2.602742283059147123E-15 ) ) ;
#266 = DIRECTION ( 'NONE',  ( -0.000000000000000000, 1.000000000000000000, -0.000000000000000000 ) ) ;
#267 = ORIENTED_EDGE ( 'NONE', *, *, #290, .F. ) ;
#268 = ORIENTED_EDGE ( 'NONE', *, *, #240, .F. ) ;
#269 = CIRCLE ( 'NONE', #235, 3.399999999999998579 ) ;
#270 = LINE ( 'NONE', #39, #162 ) ;
#271 = DIRECTION ( 'NONE',  ( 0.000000000000000000, 0.000000000000000000, 1.000000000000000000 ) ) ;
#272 = CARTESIAN_POINT ( 'NONE',  ( 0.000000000000000000, 4.253003599660558187, 0.000000000000000000 ) ) ;
#273 = ADVANCED_FACE ( 'NONE', ( #166 ), #24, .F. ) ;
#274 = CYLINDRICAL_SURFACE ( 'NONE', #55, 7.499999999999998224 ) ;
#275 = PERSON_AND_ORGANIZATION ( #311, #285 ) ;
#276 = AXIS2_PLACEMENT_3D ( 'NONE', #201, #94, #330 ) ;
#277 = PERSON_AND_ORGANIZATION_ROLE ( 'creator' ) ;
#278 = PERSON_AND_ORGANIZATION ( #311, #285 ) ;
#279 = VECTOR ( 'NONE', #254, 1000.000000000000000 ) ;
#280 = ORIENTED_EDGE ( 'NONE', *, *, #118, .T. ) ;
#281 = FACE_BOUND ( 'NONE', #58, .T. ) ;
#282 = APPROVAL_ROLE ( '' ) ;
#283 = ORIENTED_EDGE ( 'NONE', *, *, #315, .T. ) ;
#284 = ORIENTED_EDGE ( 'NONE', *, *, #259, .T. ) ;
#285 = ORGANIZATION ( 'UNSPECIFIED', 'UNSPECIFIED', '' ) ;
#286 = CYLINDRICAL_SURFACE ( 'NONE', #19, 3.399999999999997691 ) ;
#287 = FACE_OUTER_BOUND ( 'NONE', #211, .T. ) ;
#288 = DIRECTION ( 'NONE',  ( 0.000000000000000000, 0.000000000000000000, 1.000000000000000000 ) ) ;
#289 = DIRECTION ( 'NONE',  ( 0.000000000000000000, 0.000000000000000000, 1.000000000000000000 ) ) ;
#290 = EDGE_CURVE ( 'NONE', #50, #293, #126, .T. ) ;
#291 = LOCAL_TIME ( 11, 16, 1.000000000000000000, #46 ) ;
#292 = CARTESIAN_POINT ( 'NONE',  ( -3.469446951953614189E-15, -13.50000000000000000, 0.000000000000000000 ) ) ;
#293 = VERTEX_POINT ( 'NONE', #120 ) ;
#294 = PLANE ( 'NONE',  #56 ) ;
#295 = DIRECTION ( 'NONE',  ( -0.000000000000000000, 1.000000000000000000, -0.000000000000000000 ) ) ;
#296 = LOCAL_TIME ( 11, 16, 1.000000000000000000, #49 ) ;
#297 = FACE_OUTER_BOUND ( 'NONE', #133, .T. ) ;
#298 = DIRECTION ( 'NONE',  ( -0.000000000000000000, 1.000000000000000000, -0.000000000000000000 ) ) ;
#299 = EDGE_CURVE ( 'NONE', #54, #64, #132, .T. ) ;
#300 = CARTESIAN_POINT ( 'NONE',  ( 0.000000000000000000, 0.000000000000000000, 0.000000000000000000 ) ) ;
#301 = FACE_OUTER_BOUND ( 'NONE', #264, .T. ) ;
#302 = DIRECTION ( 'NONE',  ( 0.000000000000000000, 0.000000000000000000, 1.000000000000000000 ) ) ;
#303 = CC_DESIGN_DATE_AND_TIME_ASSIGNMENT ( #307, #313, ( #130 ) ) ;
#304 = DIRECTION ( 'NONE',  ( -0.000000000000000000, 1.000000000000000000, -0.000000000000000000 ) ) ;
#305 = DIRECTION ( 'NONE',  ( 0.000000000000000000, 0.000000000000000000, 1.000000000000000000 ) ) ;
#306 = CARTESIAN_POINT ( 'NONE',  ( 0.000000000000000000, -17.00000000000000000, 0.000000000000000000 ) ) ;
#307 = DATE_AND_TIME ( #103, #77 ) ;
#308 = ORIENTED_EDGE ( 'NONE', *, *, #114, .T. ) ;
#309 = PRODUCT_DEFINITION_SHAPE ( 'NONE', 'NONE',  #130 ) ;
#310 = SHAPE_DEFINITION_REPRESENTATION ( #309, #105 ) ;
#311 = PERSON ( 'UNSPECIFIED', 'UNSPECIFIED', 'UNSPECIFIED', ('UNSPECIFIED'), ('UNSPECIFIED'), ('UNSPECIFIED') ) ;
#312 = EDGE_CURVE ( 'NONE', #316, #32, #203, .T. ) ;
#313 = DATE_TIME_ROLE ( 'creation_date' ) ;
#314 = EDGE_LOOP ( 'NONE', ( #268, #219, #111, #104 ) ) ;
#315 = EDGE_CURVE ( 'NONE', #32, #316, #139, .T. ) ;
#316 = VERTEX_POINT ( 'NONE', #70 ) ;
#317 = AXIS2_PLACEMENT_3D ( 'NONE', #292, #137, #31 ) ;
#318 = AXIS2_PLACEMENT_3D ( 'NONE', #23, #42, #43 ) ;
#319 = CARTESIAN_POINT ( 'NONE',  ( 4.163799117100998587E-16, -9.184850993605099442E-18, -3.399999999999998579 ) ) ;
#320 = DIRECTION ( 'NONE',  ( 0.000000000000000000, -0.000000000000000000, -1.000000000000000000 ) ) ;
#321 = VERTEX_POINT ( 'NONE', #222 ) ;
#322 = APPROVAL_PERSON_ORGANIZATION ( #149, #181, #228 ) ;
#323 = EDGE_LOOP ( 'NONE', ( #267, #38 ) ) ;
#324 = FACE_OUTER_BOUND ( 'NONE', #323, .T. ) ;
#325 = DIRECTION ( 'NONE',  ( 0.000000000000000000, 0.000000000000000000, 1.000000000000000000 ) ) ;
#326 = CIRCLE ( 'NONE', #121, 7.499999999999997335 ) ;
#327 = CC_DESIGN_APPROVAL ( #181, ( #130 ) ) ;
#328 = DIRECTION ( 'NONE',  ( -0.000000000000000000, 1.000000000000000000, -0.000000000000000000 ) ) ;
#329 = CARTESIAN_POINT ( 'NONE',  ( 0.000000000000000000, -9.184850993605099442E-18, 0.000000000000000000 ) ) ;
#330 = DIRECTION ( 'NONE',  ( 0.000000000000000000, 0.000000000000000000, 1.000000000000000000 ) ) ;
#331 = CC_DESIGN_PERSON_AND_ORGANIZATION_ASSIGNMENT ( #275, #146, ( #26 ) ) ;
#332 = PERSON_AND_ORGANIZATION ( #311, #285 ) ;
#333 = CIRCLE ( 'NONE', #239, 2.449999999999997513 ) ;
#334 = APPROVAL_STATUS ( 'not_yet_approved' ) ;
#335 = PERSON_AND_ORGANIZATION_ROLE ( 'classification_officer' ) ;
ENDSEC;
END-ISO-10303-21;
