ISO-10303-21;
HEADER;
FILE_DESCRIPTION (( 'STEP AP203' ),
    '1' );
FILE_NAME ('B-122-21.STEP',
    '2022-03-11T02:14:04',
    ( '' ),
    ( '' ),
    'SwSTEP 2.0',
    'SolidWorks 2021',
    '' );
FILE_SCHEMA (( 'CONFIG_CONTROL_DESIGN' ));
ENDSEC;

DATA;
#1 = CALENDAR_DATE ( 2022, 11, 3 ) ;
#2 = DIRECTION ( 'NONE',  ( 0.000000000000000000, -0.000000000000000000, -1.000000000000000000 ) ) ;
#3 = APPROVAL_ROLE ( '' ) ;
#4 = ADVANCED_FACE ( 'NONE', ( #265 ), #138, .T. ) ;
#5 = DIRECTION ( 'NONE',  ( 0.000000000000000000, -0.000000000000000000, -1.000000000000000000 ) ) ;
#6 = CIRCLE ( 'NONE', #169, 2.449999999999998401 ) ;
#7 = DIRECTION ( 'NONE',  ( -0.000000000000000000, 1.000000000000000000, -0.000000000000000000 ) ) ;
#8 = DIRECTION ( 'NONE',  ( -0.000000000000000000, 1.000000000000000000, -0.000000000000000000 ) ) ;
#9 = LOCAL_TIME ( 11, 14, 4.000000000000000000, #328 ) ;
#10 = DIRECTION ( 'NONE',  ( 0.000000000000000000, 0.000000000000000000, 1.000000000000000000 ) ) ;
#11 = CC_DESIGN_DATE_AND_TIME_ASSIGNMENT ( #80, #331, ( #272 ) ) ;
#12 = AXIS2_PLACEMENT_3D ( 'NONE', #131, #180, #214 ) ;
#13 = LOCAL_TIME ( 11, 14, 4.000000000000000000, #183 ) ;
#14 = DIRECTION ( 'NONE',  ( 0.000000000000000000, 0.000000000000000000, 1.000000000000000000 ) ) ;
#15 = ORIENTED_EDGE ( 'NONE', *, *, #48, .F. ) ;
#16 = EDGE_CURVE ( 'NONE', #224, #172, #36, .T. ) ;
#17 = ORIENTED_EDGE ( 'NONE', *, *, #74, .F. ) ;
#18 = PRODUCT_DEFINITION ( 'UNKNOWN', '', #192, #189 ) ;
#19 = CARTESIAN_POINT ( 'NONE',  ( 0.000000000000000000, 4.253003599660558187, 0.000000000000000000 ) ) ;
#20 = ORIENTED_EDGE ( 'NONE', *, *, #141, .F. ) ;
#21 = CIRCLE ( 'NONE', #286, 3.399999999999997691 ) ;
#22 = DIRECTION ( 'NONE',  ( -0.000000000000000000, 1.000000000000000000, -0.000000000000000000 ) ) ;
#23 = DIRECTION ( 'NONE',  ( 0.000000000000000000, 0.000000000000000000, 1.000000000000000000 ) ) ;
#24 = DATE_TIME_ROLE ( 'creation_date' ) ;
#25 = DIRECTION ( 'NONE',  ( -0.000000000000000000, 1.000000000000000000, -0.000000000000000000 ) ) ;
#26 = CIRCLE ( 'NONE', #27, 7.499999999999997335 ) ;
#27 = AXIS2_PLACEMENT_3D ( 'NONE', #90, #110, #215 ) ;
#28 = PLANE ( 'NONE',  #277 ) ;
#29 = CARTESIAN_POINT ( 'NONE',  ( 9.184850993605147944E-16, 0.000000000000000000, -7.500000000000000000 ) ) ;
#30 = COORDINATED_UNIVERSAL_TIME_OFFSET ( 9, 0, .AHEAD. ) ;
#31 = CARTESIAN_POINT ( 'NONE',  ( 0.000000000000000000, -9.184850993605099442E-18, 3.399999999999997691 ) ) ;
#32 = DIRECTION ( 'NONE',  ( 0.000000000000000000, 0.000000000000000000, 1.000000000000000000 ) ) ;
#33 = AXIS2_PLACEMENT_3D ( 'NONE', #289, #157, #162 ) ;
#34 = DIRECTION ( 'NONE',  ( -0.000000000000000000, 1.000000000000000000, -0.000000000000000000 ) ) ;
#35 = ADVANCED_FACE ( 'NONE', ( #60, #156 ), #160, .T. ) ;
#36 = CIRCLE ( 'NONE', #211, 2.449999999999998401 ) ;
#37 = APPROVAL_PERSON_ORGANIZATION ( #177, #64, #133 ) ;
#38 = FACE_OUTER_BOUND ( 'NONE', #208, .T. ) ;
#39 = DIRECTION ( 'NONE',  ( 0.000000000000000000, -0.000000000000000000, -1.000000000000000000 ) ) ;
#40 = PERSON ( 'UNSPECIFIED', 'UNSPECIFIED', 'UNSPECIFIED', ('UNSPECIFIED'), ('UNSPECIFIED'), ('UNSPECIFIED') ) ;
#41 = EDGE_CURVE ( 'NONE', #107, #283, #171, .T. ) ;
#42 = MECHANICAL_CONTEXT ( 'NONE', #305, 'mechanical' ) ;
#43 = EDGE_LOOP ( 'NONE', ( #73, #149, #176, #323 ) ) ;
#44 = CARTESIAN_POINT ( 'NONE',  ( 0.000000000000000000, 0.000000000000000000, 0.000000000000000000 ) ) ;
#45 = EDGE_LOOP ( 'NONE', ( #81, #140 ) ) ;
#46 = DIRECTION ( 'NONE',  ( 0.000000000000000000, 0.000000000000000000, 1.000000000000000000 ) ) ;
#47 = VERTEX_POINT ( 'NONE', #29 ) ;
#48 = EDGE_CURVE ( 'NONE', #154, #120, #112, .T. ) ;
#49 = CIRCLE ( 'NONE', #309, 7.499999999999997335 ) ;
#50 =( NAMED_UNIT ( * ) PLANE_ANGLE_UNIT ( ) SI_UNIT ( $, .RADIAN. ) );
#51 = ORIENTED_EDGE ( 'NONE', *, *, #82, .F. ) ;
#52 = CARTESIAN_POINT ( 'NONE',  ( 0.000000000000000000, -18.00000000000000355, 3.399999999999995470 ) ) ;
#53 = CARTESIAN_POINT ( 'NONE',  ( 4.163799117100997108E-16, 0.000000000000000000, -3.399999999999996803 ) ) ;
#54 = PERSON_AND_ORGANIZATION_ROLE ( 'classification_officer' ) ;
#55 = CIRCLE ( 'NONE', #191, 7.500000000000000000 ) ;
#56 = VECTOR ( 'NONE', #263, 1000.000000000000000 ) ;
#57 = FACE_OUTER_BOUND ( 'NONE', #45, .T. ) ;
#58 = PRODUCT_RELATED_PRODUCT_CATEGORY ( 'detail', '', ( #165 ) ) ;
#59 = PERSON_AND_ORGANIZATION ( #40, #303 ) ;
#60 = FACE_BOUND ( 'NONE', #125, .T. ) ;
#61 = APPROVAL_DATE_TIME ( #113, #330 ) ;
#62 = ADVANCED_BREP_SHAPE_REPRESENTATION ( 'B-122-21', ( #257, #219 ), #143 ) ;
#63 = CARTESIAN_POINT ( 'NONE',  ( 0.000000000000000000, 4.253003599660558187, 7.499999999999998224 ) ) ;
#64 = APPROVAL ( #85, 'UNSPECIFIED' ) ;
#65 = PLANE ( 'NONE',  #79 ) ;
#66 = ORIENTED_EDGE ( 'NONE', *, *, #315, .F. ) ;
#67 = CIRCLE ( 'NONE', #234, 2.449999999999998401 ) ;
#68 = FACE_BOUND ( 'NONE', #202, .T. ) ;
#69 = EDGE_CURVE ( 'NONE', #251, #273, #239, .T. ) ;
#70 = DIRECTION ( 'NONE',  ( -0.000000000000000000, 1.000000000000000000, -0.000000000000000000 ) ) ;
#71 = PERSON_AND_ORGANIZATION ( #40, #303 ) ;
#72 = CARTESIAN_POINT ( 'NONE',  ( 4.163799117100997601E-16, -9.184850993605099442E-18, -3.399999999999997691 ) ) ;
#73 = ORIENTED_EDGE ( 'NONE', *, *, #260, .F. ) ;
#74 = EDGE_CURVE ( 'NONE', #120, #47, #78, .T. ) ;
#75 =( LENGTH_UNIT ( ) NAMED_UNIT ( * ) SI_UNIT ( .MILLI., .METRE. ) );
#76 = EDGE_LOOP ( 'NONE', ( #229, #302 ) ) ;
#77 = CC_DESIGN_PERSON_AND_ORGANIZATION_ASSIGNMENT ( #111, #84, ( #192 ) ) ;
#78 = CIRCLE ( 'NONE', #218, 7.500000000000000000 ) ;
#79 = AXIS2_PLACEMENT_3D ( 'NONE', #168, #139, #39 ) ;
#80 = DATE_AND_TIME ( #1, #9 ) ;
#81 = ORIENTED_EDGE ( 'NONE', *, *, #235, .T. ) ;
#82 = EDGE_CURVE ( 'NONE', #283, #224, #312, .T. ) ;
#83 = CARTESIAN_POINT ( 'NONE',  ( 0.000000000000000000, -20.00000000000000000, 0.000000000000000000 ) ) ;
#84 = PERSON_AND_ORGANIZATION_ROLE ( 'creator' ) ;
#85 = APPROVAL_STATUS ( 'not_yet_approved' ) ;
#86 = AXIS2_PLACEMENT_3D ( 'NONE', #188, #294, #10 ) ;
#87 = VERTEX_POINT ( 'NONE', #31 ) ;
#88 = PRODUCT_DEFINITION_SHAPE ( 'NONE', 'NONE',  #18 ) ;
#89 = CALENDAR_DATE ( 2022, 11, 3 ) ;
#90 = CARTESIAN_POINT ( 'NONE',  ( 0.000000000000000000, -20.00000000000000000, 0.000000000000000000 ) ) ;
#91 = LINE ( 'NONE', #207, #56 ) ;
#92 = DIRECTION ( 'NONE',  ( -0.000000000000000000, 1.000000000000000000, -0.000000000000000000 ) ) ;
#93 = VECTOR ( 'NONE', #174, 1000.000000000000000 ) ;
#94 = VERTEX_POINT ( 'NONE', #128 ) ;
#95 = LOCAL_TIME ( 11, 14, 4.000000000000000000, #179 ) ;
#96 = CARTESIAN_POINT ( 'NONE',  ( 0.000000000000000000, 0.000000000000000000, 0.000000000000000000 ) ) ;
#97 = ORIENTED_EDGE ( 'NONE', *, *, #164, .F. ) ;
#98 = VECTOR ( 'NONE', #290, 1000.000000000000000 ) ;
#99 =( NAMED_UNIT ( * ) SI_UNIT ( $, .STERADIAN. ) SOLID_ANGLE_UNIT ( ) );
#100 = DIRECTION ( 'NONE',  ( -0.000000000000000000, 1.000000000000000000, -0.000000000000000000 ) ) ;
#101 = ORIENTED_EDGE ( 'NONE', *, *, #132, .F. ) ;
#102 = LINE ( 'NONE', #301, #93 ) ;
#103 = VERTEX_POINT ( 'NONE', #52 ) ;
#104 = CIRCLE ( 'NONE', #86, 3.399999999999995470 ) ;
#105 = LINE ( 'NONE', #223, #278 ) ;
#106 = FACE_OUTER_BOUND ( 'NONE', #124, .T. ) ;
#107 = VERTEX_POINT ( 'NONE', #115 ) ;
#108 = APPROVAL_ROLE ( '' ) ;
#109 = APPROVAL_STATUS ( 'not_yet_approved' ) ;
#110 = DIRECTION ( 'NONE',  ( -0.000000000000000000, 1.000000000000000000, -0.000000000000000000 ) ) ;
#111 = PERSON_AND_ORGANIZATION ( #40, #303 ) ;
#112 = LINE ( 'NONE', #63, #253 ) ;
#113 = DATE_AND_TIME ( #203, #95 ) ;
#114 = CARTESIAN_POINT ( 'NONE',  ( 0.000000000000000000, 0.000000000000000000, 0.000000000000000000 ) ) ;
#115 = CARTESIAN_POINT ( 'NONE',  ( 3.000384657911013398E-16, -22.00000000000000000, -2.449999999999998401 ) ) ;
#116 = CC_DESIGN_PERSON_AND_ORGANIZATION_ASSIGNMENT ( #334, #159, ( #18 ) ) ;
#117 = DIRECTION ( 'NONE',  ( 1.000000000000000000, 0.000000000000000000, 0.000000000000000000 ) ) ;
#118 = DIRECTION ( 'NONE',  ( 0.000000000000000000, 0.000000000000000000, 1.000000000000000000 ) ) ;
#119 = CARTESIAN_POINT ( 'NONE',  ( 0.000000000000000000, -20.00000000000000000, 0.000000000000000000 ) ) ;
#120 = VERTEX_POINT ( 'NONE', #232 ) ;
#121 = CLOSED_SHELL ( 'NONE', ( #243, #248, #190, #4, #230, #181, #288, #35, #126, #209 ) ) ;
#122 = LOCAL_TIME ( 11, 14, 4.000000000000000000, #30 ) ;
#123 = DIRECTION ( 'NONE',  ( 0.000000000000000000, 0.000000000000000000, 1.000000000000000000 ) ) ;
#124 = EDGE_LOOP ( 'NONE', ( #66, #167, #327, #250 ) ) ;
#125 = EDGE_LOOP ( 'NONE', ( #276, #287 ) ) ;
#126 = ADVANCED_FACE ( 'NONE', ( #57 ), #28, .F. ) ;
#127 = SECURITY_CLASSIFICATION_LEVEL ( 'unclassified' ) ;
#128 = CARTESIAN_POINT ( 'NONE',  ( 9.184850993605144000E-16, -20.00000000000000000, -7.499999999999997335 ) ) ;
#129 = AXIS2_PLACEMENT_3D ( 'NONE', #19, #22, #46 ) ;
#130 = CALENDAR_DATE ( 2022, 11, 3 ) ;
#131 = CARTESIAN_POINT ( 'NONE',  ( 0.000000000000000000, 0.000000000000000000, 7.500000000000000000 ) ) ;
#132 = EDGE_CURVE ( 'NONE', #47, #120, #55, .T. ) ;
#133 = APPROVAL_ROLE ( '' ) ;
#134 = ORIENTED_EDGE ( 'NONE', *, *, #173, .F. ) ;
#135 = APPLICATION_PROTOCOL_DEFINITION ( 'international standard', 'config_control_design', 1994, #322 ) ;
#136 = ORIENTED_EDGE ( 'NONE', *, *, #267, .T. ) ;
#137 = AXIS2_PLACEMENT_3D ( 'NONE', #184, #292, #2 ) ;
#138 = PLANE ( 'NONE',  #137 ) ;
#139 = DIRECTION ( 'NONE',  ( 0.000000000000000000, -1.000000000000000000, 0.000000000000000000 ) ) ;
#140 = ORIENTED_EDGE ( 'NONE', *, *, #315, .T. ) ;
#141 = EDGE_CURVE ( 'NONE', #154, #94, #26, .T. ) ;
#142 = CYLINDRICAL_SURFACE ( 'NONE', #152, 2.449999999999998401 ) ;
#143 =( GEOMETRIC_REPRESENTATION_CONTEXT ( 3 ) GLOBAL_UNCERTAINTY_ASSIGNED_CONTEXT ( ( #270 ) ) GLOBAL_UNIT_ASSIGNED_CONTEXT ( ( #75, #50, #99 ) ) REPRESENTATION_CONTEXT ( 'NONE', 'WORKASPACE' ) );
#144 = CARTESIAN_POINT ( 'NONE',  ( 0.000000000000000000, 4.253003599660558187, 0.000000000000000000 ) ) ;
#145 = CARTESIAN_POINT ( 'NONE',  ( 0.000000000000000000, 0.000000000000000000, 0.000000000000000000 ) ) ;
#146 = ORIENTED_EDGE ( 'NONE', *, *, #281, .T. ) ;
#147 = AXIS2_PLACEMENT_3D ( 'NONE', #144, #34, #216 ) ;
#148 = DIRECTION ( 'NONE',  ( -0.000000000000000000, 1.000000000000000000, -0.000000000000000000 ) ) ;
#149 = ORIENTED_EDGE ( 'NONE', *, *, #41, .T. ) ;
#150 = DIRECTION ( 'NONE',  ( -0.000000000000000000, 1.000000000000000000, -0.000000000000000000 ) ) ;
#151 = DIRECTION ( 'NONE',  ( -0.000000000000000000, 1.000000000000000000, -0.000000000000000000 ) ) ;
#152 = AXIS2_PLACEMENT_3D ( 'NONE', #245, #8, #220 ) ;
#153 = DIRECTION ( 'NONE',  ( -0.000000000000000000, 1.000000000000000000, -0.000000000000000000 ) ) ;
#154 = VERTEX_POINT ( 'NONE', #237 ) ;
#155 = DATE_AND_TIME ( #130, #227 ) ;
#156 = FACE_OUTER_BOUND ( 'NONE', #317, .T. ) ;
#157 = DIRECTION ( 'NONE',  ( -0.000000000000000000, 1.000000000000000000, -0.000000000000000000 ) ) ;
#158 = DIRECTION ( 'NONE',  ( -0.000000000000000000, 1.000000000000000000, -0.000000000000000000 ) ) ;
#159 = PERSON_AND_ORGANIZATION_ROLE ( 'creator' ) ;
#160 = PLANE ( 'NONE',  #12 ) ;
#161 = DATE_AND_TIME ( #89, #122 ) ;
#162 = DIRECTION ( 'NONE',  ( 0.000000000000000000, 0.000000000000000000, 1.000000000000000000 ) ) ;
#163 = AXIS2_PLACEMENT_3D ( 'NONE', #300, #151, #123 ) ;
#164 = EDGE_CURVE ( 'NONE', #94, #47, #91, .T. ) ;
#165 = PRODUCT ( 'B-122-21', 'B-122-21', '', ( #42 ) ) ;
#166 = FACE_OUTER_BOUND ( 'NONE', #43, .T. ) ;
#167 = ORIENTED_EDGE ( 'NONE', *, *, #69, .T. ) ;
#168 = CARTESIAN_POINT ( 'NONE',  ( 0.000000000000000000, -20.00000000000000000, 7.499999999999997335 ) ) ;
#169 = AXIS2_PLACEMENT_3D ( 'NONE', #119, #228, #193 ) ;
#170 = FACE_OUTER_BOUND ( 'NONE', #200, .T. ) ;
#171 = CIRCLE ( 'NONE', #33, 2.449999999999998401 ) ;
#172 = VERTEX_POINT ( 'NONE', #210 ) ;
#173 = EDGE_CURVE ( 'NONE', #94, #154, #49, .T. ) ;
#174 = DIRECTION ( 'NONE',  ( -0.000000000000000000, 1.000000000000000000, -0.000000000000000000 ) ) ;
#175 = CIRCLE ( 'NONE', #163, 3.399999999999995470 ) ;
#176 = ORIENTED_EDGE ( 'NONE', *, *, #82, .T. ) ;
#177 = PERSON_AND_ORGANIZATION ( #40, #303 ) ;
#178 = DIRECTION ( 'NONE',  ( -0.000000000000000000, 1.000000000000000000, -0.000000000000000000 ) ) ;
#179 = COORDINATED_UNIVERSAL_TIME_OFFSET ( 9, 0, .AHEAD. ) ;
#180 = DIRECTION ( 'NONE',  ( -0.000000000000000000, 1.000000000000000000, 0.000000000000000000 ) ) ;
#181 = ADVANCED_FACE ( 'NONE', ( #68, #296 ), #65, .T. ) ;
#182 = AXIS2_PLACEMENT_3D ( 'NONE', #252, #100, #326 ) ;
#183 = COORDINATED_UNIVERSAL_TIME_OFFSET ( 9, 0, .AHEAD. ) ;
#184 = CARTESIAN_POINT ( 'NONE',  ( 0.000000000000000000, -22.00000000000000000, -3.215065682632823653E-15 ) ) ;
#185 = DIRECTION ( 'NONE',  ( -0.000000000000000000, 1.000000000000000000, -0.000000000000000000 ) ) ;
#186 = CC_DESIGN_PERSON_AND_ORGANIZATION_ASSIGNMENT ( #236, #54, ( #272 ) ) ;
#187 = CARTESIAN_POINT ( 'NONE',  ( 0.000000000000000000, -20.00000000000000000, 2.449999999999998401 ) ) ;
#188 = CARTESIAN_POINT ( 'NONE',  ( 0.000000000000000000, -18.00000000000000355, 0.000000000000000000 ) ) ;
#189 = DESIGN_CONTEXT ( 'detailed design', #322, 'design' ) ;
#190 = ADVANCED_FACE ( 'NONE', ( #38 ), #244, .T. ) ;
#191 = AXIS2_PLACEMENT_3D ( 'NONE', #114, #311, #304 ) ;
#192 = PRODUCT_DEFINITION_FORMATION_WITH_SPECIFIED_SOURCE ( 'ANY', '', #165, .NOT_KNOWN. ) ;
#193 = DIRECTION ( 'NONE',  ( 0.000000000000000000, 0.000000000000000000, 1.000000000000000000 ) ) ;
#194 = ORIENTED_EDGE ( 'NONE', *, *, #235, .F. ) ;
#195 = CARTESIAN_POINT ( 'NONE',  ( 4.163799117100996615E-16, -18.00000000000000355, -3.399999999999995470 ) ) ;
#196 = CC_DESIGN_DATE_AND_TIME_ASSIGNMENT ( #155, #24, ( #18 ) ) ;
#197 = EDGE_LOOP ( 'NONE', ( #20, #134 ) ) ;
#198 = AXIS2_PLACEMENT_3D ( 'NONE', #145, #225, #118 ) ;
#199 = CARTESIAN_POINT ( 'NONE',  ( 0.000000000000000000, -9.184850993605099442E-18, 0.000000000000000000 ) ) ;
#200 = EDGE_LOOP ( 'NONE', ( #226, #325, #17, #15 ) ) ;
#201 = CYLINDRICAL_SURFACE ( 'NONE', #129, 7.499999999999998224 ) ;
#202 = EDGE_LOOP ( 'NONE', ( #249, #256 ) ) ;
#203 = CALENDAR_DATE ( 2022, 11, 3 ) ;
#204 = ORIENTED_EDGE ( 'NONE', *, *, #69, .F. ) ;
#205 = CC_DESIGN_SECURITY_CLASSIFICATION ( #272, ( #192 ) ) ;
#206 = SHAPE_DEFINITION_REPRESENTATION ( #88, #62 ) ;
#207 = CARTESIAN_POINT ( 'NONE',  ( 9.184850993605145972E-16, 4.253003599660558187, -7.499999999999998224 ) ) ;
#208 = EDGE_LOOP ( 'NONE', ( #146, #335, #295, #51 ) ) ;
#209 = ADVANCED_FACE ( 'NONE', ( #313 ), #247, .F. ) ;
#210 = CARTESIAN_POINT ( 'NONE',  ( 3.000384657911013398E-16, -20.00000000000000000, -2.449999999999998401 ) ) ;
#211 = AXIS2_PLACEMENT_3D ( 'NONE', #293, #25, #306 ) ;
#212 = CC_DESIGN_APPROVAL ( #64, ( #18 ) ) ;
#213 = APPROVAL_DATE_TIME ( #161, #275 ) ;
#214 = DIRECTION ( 'NONE',  ( 0.000000000000000000, 0.000000000000000000, 1.000000000000000000 ) ) ;
#215 = DIRECTION ( 'NONE',  ( 0.000000000000000000, 0.000000000000000000, 1.000000000000000000 ) ) ;
#216 = DIRECTION ( 'NONE',  ( 0.000000000000000000, 0.000000000000000000, 1.000000000000000000 ) ) ;
#217 = ORIENTED_EDGE ( 'NONE', *, *, #48, .T. ) ;
#218 = AXIS2_PLACEMENT_3D ( 'NONE', #261, #185, #32 ) ;
#219 = AXIS2_PLACEMENT_3D ( 'NONE', #44, #14, #117 ) ;
#220 = DIRECTION ( 'NONE',  ( 0.000000000000000000, 0.000000000000000000, 1.000000000000000000 ) ) ;
#221 = APPROVAL_PERSON_ORGANIZATION ( #258, #330, #3 ) ;
#222 = EDGE_LOOP ( 'NONE', ( #204, #194, #136, #314 ) ) ;
#223 = CARTESIAN_POINT ( 'NONE',  ( 0.000000000000000000, 0.000000000000000000, 3.399999999999996803 ) ) ;
#224 = VERTEX_POINT ( 'NONE', #187 ) ;
#225 = DIRECTION ( 'NONE',  ( -0.000000000000000000, 1.000000000000000000, -0.000000000000000000 ) ) ;
#226 = ORIENTED_EDGE ( 'NONE', *, *, #141, .T. ) ;
#227 = LOCAL_TIME ( 11, 14, 4.000000000000000000, #264 ) ;
#228 = DIRECTION ( 'NONE',  ( -0.000000000000000000, 1.000000000000000000, -0.000000000000000000 ) ) ;
#229 = ORIENTED_EDGE ( 'NONE', *, *, #281, .F. ) ;
#230 = ADVANCED_FACE ( 'NONE', ( #166 ), #142, .T. ) ;
#231 = PERSON_AND_ORGANIZATION ( #40, #303 ) ;
#232 = CARTESIAN_POINT ( 'NONE',  ( 0.000000000000000000, 0.000000000000000000, 7.500000000000000000 ) ) ;
#233 = CIRCLE ( 'NONE', #182, 3.399999999999997691 ) ;
#234 = AXIS2_PLACEMENT_3D ( 'NONE', #297, #153, #23 ) ;
#235 = EDGE_CURVE ( 'NONE', #103, #251, #104, .T. ) ;
#236 = PERSON_AND_ORGANIZATION ( #40, #303 ) ;
#237 = CARTESIAN_POINT ( 'NONE',  ( 0.000000000000000000, -20.00000000000000000, 7.499999999999997335 ) ) ;
#238 = APPROVAL_DATE_TIME ( #240, #64 ) ;
#239 = LINE ( 'NONE', #53, #98 ) ;
#240 = DATE_AND_TIME ( #291, #13 ) ;
#241 = CARTESIAN_POINT ( 'NONE',  ( 3.399999999999995470, -18.00000000000001421, 0.000000000000000000 ) ) ;
#242 = APPROVAL_PERSON_ORGANIZATION ( #59, #275, #108 ) ;
#243 = ADVANCED_FACE ( 'NONE', ( #106 ), #282, .F. ) ;
#244 = CYLINDRICAL_SURFACE ( 'NONE', #147, 2.449999999999998401 ) ;
#245 = CARTESIAN_POINT ( 'NONE',  ( 0.000000000000000000, 4.253003599660558187, 0.000000000000000000 ) ) ;
#246 = AXIS2_PLACEMENT_3D ( 'NONE', #96, #92, #316 ) ;
#247 = CYLINDRICAL_SURFACE ( 'NONE', #246, 3.399999999999996803 ) ;
#248 = ADVANCED_FACE ( 'NONE', ( #170 ), #324, .T. ) ;
#249 = ORIENTED_EDGE ( 'NONE', *, *, #16, .T. ) ;
#250 = ORIENTED_EDGE ( 'NONE', *, *, #267, .F. ) ;
#251 = VERTEX_POINT ( 'NONE', #195 ) ;
#252 = CARTESIAN_POINT ( 'NONE',  ( 0.000000000000000000, -9.184850993605099442E-18, 0.000000000000000000 ) ) ;
#253 = VECTOR ( 'NONE', #7, 1000.000000000000000 ) ;
#254 = CC_DESIGN_APPROVAL ( #330, ( #192 ) ) ;
#255 = DIRECTION ( 'NONE',  ( 0.000000000000000000, 0.000000000000000000, 1.000000000000000000 ) ) ;
#256 = ORIENTED_EDGE ( 'NONE', *, *, #271, .T. ) ;
#257 = MANIFOLD_SOLID_BREP ( 'M8x1.25 ‚Ë‚¶ŒŠ1', #121 ) ;
#258 = PERSON_AND_ORGANIZATION ( #40, #303 ) ;
#259 = CARTESIAN_POINT ( 'NONE',  ( 0.000000000000000000, 4.253003599660558187, 2.449999999999998401 ) ) ;
#260 = EDGE_CURVE ( 'NONE', #107, #172, #102, .T. ) ;
#261 = CARTESIAN_POINT ( 'NONE',  ( 0.000000000000000000, 0.000000000000000000, 0.000000000000000000 ) ) ;
#262 = CC_DESIGN_PERSON_AND_ORGANIZATION_ASSIGNMENT ( #71, #307, ( #165 ) ) ;
#263 = DIRECTION ( 'NONE',  ( -0.000000000000000000, 1.000000000000000000, -0.000000000000000000 ) ) ;
#264 = COORDINATED_UNIVERSAL_TIME_OFFSET ( 9, 0, .AHEAD. ) ;
#265 = FACE_OUTER_BOUND ( 'NONE', #76, .T. ) ;
#266 = APPROVAL_STATUS ( 'not_yet_approved' ) ;
#267 = EDGE_CURVE ( 'NONE', #103, #87, #105, .T. ) ;
#268 = EDGE_LOOP ( 'NONE', ( #97, #320, #217, #101 ) ) ;
#269 = CC_DESIGN_APPROVAL ( #275, ( #272 ) ) ;
#270 = UNCERTAINTY_MEASURE_WITH_UNIT (LENGTH_MEASURE( 1.000000000000000082E-05 ), #75, 'distance_accuracy_value', 'NONE');
#271 = EDGE_CURVE ( 'NONE', #172, #224, #6, .T. ) ;
#272 = SECURITY_CLASSIFICATION ( '', '', #127 ) ;
#273 = VERTEX_POINT ( 'NONE', #72 ) ;
#274 = EDGE_CURVE ( 'NONE', #87, #273, #233, .T. ) ;
#275 = APPROVAL ( #109, 'UNSPECIFIED' ) ;
#276 = ORIENTED_EDGE ( 'NONE', *, *, #274, .F. ) ;
#277 = AXIS2_PLACEMENT_3D ( 'NONE', #241, #333, #5 ) ;
#278 = VECTOR ( 'NONE', #150, 1000.000000000000000 ) ;
#279 = APPLICATION_PROTOCOL_DEFINITION ( 'international standard', 'config_control_design', 1994, #305 ) ;
#280 = ORIENTED_EDGE ( 'NONE', *, *, #74, .T. ) ;
#281 = EDGE_CURVE ( 'NONE', #283, #107, #67, .T. ) ;
#282 = CYLINDRICAL_SURFACE ( 'NONE', #198, 3.399999999999996803 ) ;
#283 = VERTEX_POINT ( 'NONE', #319 ) ;
#284 = CC_DESIGN_PERSON_AND_ORGANIZATION_ASSIGNMENT ( #231, #310, ( #192 ) ) ;
#285 = FACE_OUTER_BOUND ( 'NONE', #268, .T. ) ;
#286 = AXIS2_PLACEMENT_3D ( 'NONE', #199, #70, #298 ) ;
#287 = ORIENTED_EDGE ( 'NONE', *, *, #299, .F. ) ;
#288 = ADVANCED_FACE ( 'NONE', ( #285 ), #201, .T. ) ;
#289 = CARTESIAN_POINT ( 'NONE',  ( 0.000000000000000000, -22.00000000000000000, 0.000000000000000000 ) ) ;
#290 = DIRECTION ( 'NONE',  ( -0.000000000000000000, 1.000000000000000000, -0.000000000000000000 ) ) ;
#291 = CALENDAR_DATE ( 2022, 11, 3 ) ;
#292 = DIRECTION ( 'NONE',  ( 0.000000000000000000, -1.000000000000000000, 0.000000000000000000 ) ) ;
#293 = CARTESIAN_POINT ( 'NONE',  ( 0.000000000000000000, -20.00000000000000000, 0.000000000000000000 ) ) ;
#294 = DIRECTION ( 'NONE',  ( -0.000000000000000000, 1.000000000000000000, -0.000000000000000000 ) ) ;
#295 = ORIENTED_EDGE ( 'NONE', *, *, #16, .F. ) ;
#296 = FACE_OUTER_BOUND ( 'NONE', #197, .T. ) ;
#297 = CARTESIAN_POINT ( 'NONE',  ( 0.000000000000000000, -22.00000000000000000, 0.000000000000000000 ) ) ;
#298 = DIRECTION ( 'NONE',  ( 0.000000000000000000, 0.000000000000000000, 1.000000000000000000 ) ) ;
#299 = EDGE_CURVE ( 'NONE', #273, #87, #21, .T. ) ;
#300 = CARTESIAN_POINT ( 'NONE',  ( 0.000000000000000000, -18.00000000000000355, 0.000000000000000000 ) ) ;
#301 = CARTESIAN_POINT ( 'NONE',  ( 3.000384657911013398E-16, 4.253003599660558187, -2.449999999999998401 ) ) ;
#302 = ORIENTED_EDGE ( 'NONE', *, *, #41, .F. ) ;
#303 = ORGANIZATION ( 'UNSPECIFIED', 'UNSPECIFIED', '' ) ;
#304 = DIRECTION ( 'NONE',  ( 0.000000000000000000, 0.000000000000000000, 1.000000000000000000 ) ) ;
#305 = APPLICATION_CONTEXT ( 'configuration controlled 3d designs of mechanical parts and assemblies' ) ;
#306 = DIRECTION ( 'NONE',  ( 0.000000000000000000, 0.000000000000000000, 1.000000000000000000 ) ) ;
#307 = PERSON_AND_ORGANIZATION_ROLE ( 'design_owner' ) ;
#308 = DIRECTION ( 'NONE',  ( 0.000000000000000000, 0.000000000000000000, 1.000000000000000000 ) ) ;
#309 = AXIS2_PLACEMENT_3D ( 'NONE', #83, #178, #308 ) ;
#310 = PERSON_AND_ORGANIZATION_ROLE ( 'design_supplier' ) ;
#311 = DIRECTION ( 'NONE',  ( -0.000000000000000000, 1.000000000000000000, -0.000000000000000000 ) ) ;
#312 = LINE ( 'NONE', #259, #332 ) ;
#313 = FACE_OUTER_BOUND ( 'NONE', #222, .T. ) ;
#314 = ORIENTED_EDGE ( 'NONE', *, *, #274, .T. ) ;
#315 = EDGE_CURVE ( 'NONE', #251, #103, #175, .T. ) ;
#316 = DIRECTION ( 'NONE',  ( 0.000000000000000000, 0.000000000000000000, 1.000000000000000000 ) ) ;
#317 = EDGE_LOOP ( 'NONE', ( #280, #329 ) ) ;
#318 = AXIS2_PLACEMENT_3D ( 'NONE', #321, #148, #255 ) ;
#319 = CARTESIAN_POINT ( 'NONE',  ( 0.000000000000000000, -22.00000000000000000, 2.449999999999998401 ) ) ;
#320 = ORIENTED_EDGE ( 'NONE', *, *, #173, .T. ) ;
#321 = CARTESIAN_POINT ( 'NONE',  ( 0.000000000000000000, 4.253003599660558187, 0.000000000000000000 ) ) ;
#322 = APPLICATION_CONTEXT ( 'configuration controlled 3d designs of mechanical parts and assemblies' ) ;
#323 = ORIENTED_EDGE ( 'NONE', *, *, #271, .F. ) ;
#324 = CYLINDRICAL_SURFACE ( 'NONE', #318, 7.499999999999998224 ) ;
#325 = ORIENTED_EDGE ( 'NONE', *, *, #164, .T. ) ;
#326 = DIRECTION ( 'NONE',  ( 0.000000000000000000, 0.000000000000000000, 1.000000000000000000 ) ) ;
#327 = ORIENTED_EDGE ( 'NONE', *, *, #299, .T. ) ;
#328 = COORDINATED_UNIVERSAL_TIME_OFFSET ( 9, 0, .AHEAD. ) ;
#329 = ORIENTED_EDGE ( 'NONE', *, *, #132, .T. ) ;
#330 = APPROVAL ( #266, 'UNSPECIFIED' ) ;
#331 = DATE_TIME_ROLE ( 'classification_date' ) ;
#332 = VECTOR ( 'NONE', #158, 1000.000000000000000 ) ;
#333 = DIRECTION ( 'NONE',  ( 0.000000000000000000, -1.000000000000000000, 0.000000000000000000 ) ) ;
#334 = PERSON_AND_ORGANIZATION ( #40, #303 ) ;
#335 = ORIENTED_EDGE ( 'NONE', *, *, #260, .T. ) ;
ENDSEC;
END-ISO-10303-21;
