ISO-10303-21;
HEADER;
FILE_DESCRIPTION (( 'STEP AP203' ),
    '1' );
FILE_NAME ('B-1123-Ó6.STEP',
    '2011-06-29T06:23:11',
    ( '11sw' ),
    ( '^LQ»¢®ïÐ' ),
    'SwSTEP 2.0',
    'SolidWorks 2011',
    '' );
FILE_SCHEMA (( 'CONFIG_CONTROL_DESIGN' ));
ENDSEC;

DATA;
#1 = VECTOR ( 'NONE', #122, 1000.000000000000000 ) ;
#2 = AXIS2_PLACEMENT_3D ( 'NONE', #117, #116, #114 ) ;
#3 = AXIS2_PLACEMENT_3D ( 'NONE', #131, #130, #128 ) ;
#4 = TOROIDAL_SURFACE ( 'NONE', #3, 7.500000000000000000, 3.000000000000001300 ) ;
#5 = CIRCLE ( 'NONE', #32, 3.000000000000002700 ) ;
#6 = CIRCLE ( 'NONE', #216, 3.000000000000000900 ) ;
#7 = AXIS2_PLACEMENT_3D ( 'NONE', #138, #137, #136 ) ;
#8 = TOROIDAL_SURFACE ( 'NONE', #39, 7.500000000000000000, 3.000000000000001300 ) ;
#9 = CC_DESIGN_PERSON_AND_ORGANIZATION_ASSIGNMENT ( #308, #161, ( #31 ) ) ;
#10 = PRODUCT_DEFINITION ( 'UNKNOWN', '', #15, #27 ) ;
#11 = APPROVAL ( #165, 'UNSPECIFIED' ) ;
#12 = CC_DESIGN_APPROVAL ( #11, ( #10 ) ) ;
#13 = CC_DESIGN_PERSON_AND_ORGANIZATION_ASSIGNMENT ( #315, #167, ( #10 ) ) ;
#14 = CC_DESIGN_DATE_AND_TIME_ASSIGNMENT ( #318, #168, ( #10 ) ) ;
#15 = PRODUCT_DEFINITION_FORMATION_WITH_SPECIFIED_SOURCE ( 'ANY', '', #31, .NOT_KNOWN. ) ;
#16 = APPROVAL ( #169, 'UNSPECIFIED' ) ;
#17 = CC_DESIGN_APPROVAL ( #16, ( #15 ) ) ;
#18 = CC_DESIGN_PERSON_AND_ORGANIZATION_ASSIGNMENT ( #325, #171, ( #15 ) ) ;
#19 = CC_DESIGN_PERSON_AND_ORGANIZATION_ASSIGNMENT ( #326, #172, ( #15 ) ) ;
#20 = SECURITY_CLASSIFICATION ( '', '', #173 ) ;
#21 = CC_DESIGN_PERSON_AND_ORGANIZATION_ASSIGNMENT ( #327, #174, ( #20 ) ) ;
#22 = CC_DESIGN_DATE_AND_TIME_ASSIGNMENT ( #330, #175, ( #20 ) ) ;
#23 = APPROVAL ( #176, 'UNSPECIFIED' ) ;
#24 = CC_DESIGN_APPROVAL ( #23, ( #20 ) ) ;
#25 = CC_DESIGN_SECURITY_CLASSIFICATION ( #20, ( #15 ) ) ;
#26 = PRODUCT_RELATED_PRODUCT_CATEGORY ( 'detail', '', ( #31 ) ) ;
#27 = DESIGN_CONTEXT ( 'detailed design', #163, 'design' ) ;
#28 = PRODUCT_DEFINITION_SHAPE ( 'NONE', 'NONE',  #10 ) ;
#29 = PERSON ( 'UNSPECIFIED', 'UNSPECIFIED', 'UNSPECIFIED', ('UNSPECIFIED'), ('UNSPECIFIED'), ('UNSPECIFIED') ) ;
#30 = UNCERTAINTY_MEASURE_WITH_UNIT (LENGTH_MEASURE( 1.000000000000000100E-005 ), #73, 'distance_accuracy_value', 'NONE');
#31 = PRODUCT ( 'B-1123-Ó6', 'B-1123-Ó6', '', ( #158 ) ) ;
#32 = AXIS2_PLACEMENT_3D ( 'NONE', #89, #87, #86 ) ;
#33 = AXIS2_PLACEMENT_3D ( 'NONE', #108, #107, #106 ) ;
#34 = TOROIDAL_SURFACE ( 'NONE', #37, 7.500000000000000000, 3.000000000000001300 ) ;
#35 = AXIS2_PLACEMENT_3D ( 'NONE', #68, #67, #65 ) ;
#36 = AXIS2_PLACEMENT_3D ( 'NONE', #127, #125, #124 ) ;
#37 = AXIS2_PLACEMENT_3D ( 'NONE', #120, #119, #118 ) ;
#38 = TOROIDAL_SURFACE ( 'NONE', #36, 7.499999999999999100, 3.000000000000001300 ) ;
#39 = AXIS2_PLACEMENT_3D ( 'NONE', #113, #111, #110 ) ;
#40 = MANIFOLD_SOLID_BREP ( '½²°Ìß1', #273 ) ;
#41 = ADVANCED_BREP_SHAPE_REPRESENTATION ( 'B-1123-Ó6', ( #40, #35 ), #211 ) ;
#42 = CIRCLE ( 'NONE', #44, 3.000000000000002700 ) ;
#43 = AXIS2_PLACEMENT_3D ( 'NONE', #109, #112, #154 ) ;
#44 = AXIS2_PLACEMENT_3D ( 'NONE', #63, #64, #66 ) ;
#45 = AXIS2_PLACEMENT_3D ( 'NONE', #69, #71, #75 ) ;
#46 = CIRCLE ( 'NONE', #217, 4.499999999999999100 ) ;
#47 = AXIS2_PLACEMENT_3D ( 'NONE', #92, #95, #96 ) ;
#48 = CIRCLE ( 'NONE', #45, 10.49999999999999800 ) ;
#49 = CIRCLE ( 'NONE', #47, 3.000000000000000900 ) ;
#50 = CIRCLE ( 'NONE', #51, 10.49999999999999800 ) ;
#51 = AXIS2_PLACEMENT_3D ( 'NONE', #82, #90, #91 ) ;
#52 = AXIS2_PLACEMENT_3D ( 'NONE', #162, #58, #152 ) ;
#53 = AXIS2_PLACEMENT_3D ( 'NONE', #105, #104, #100 ) ;
#54 = CIRCLE ( 'NONE', #56, 3.000000000000001800 ) ;
#55 = CIRCLE ( 'NONE', #52, 3.000000000000000900 ) ;
#56 = AXIS2_PLACEMENT_3D ( 'NONE', #60, #61, #62 ) ;
#57 = DIRECTION ( 'NONE',  ( -0.0000000000000000000, 1.000000000000000000, -0.0000000000000000000 ) ) ;
#58 = DIRECTION ( 'NONE',  ( 1.224646799147353200E-016, 0.0000000000000000000, -1.000000000000000000 ) ) ;
#59 = DIRECTION ( 'NONE',  ( 1.000000000000000000, 0.0000000000000000000, -1.387778780781444900E-014 ) ) ;
#60 = CARTESIAN_POINT ( 'NONE',  ( 7.500000000000002700, 0.0000000000000000000, -10.99999999999999600 ) ) ;
#61 = DIRECTION ( 'NONE',  ( 1.224646799147353200E-016, 0.0000000000000000000, -1.000000000000000000 ) ) ;
#62 = DIRECTION ( 'NONE',  ( -1.000000000000000000, 0.0000000000000000000, 0.0000000000000000000 ) ) ;
#63 = CARTESIAN_POINT ( 'NONE',  ( 3.469446951953614200E-015, 0.0000000000000000000, 18.50000000000000000 ) ) ;
#64 = DIRECTION ( 'NONE',  ( -1.000000000000000000, 0.0000000000000000000, 0.0000000000000000000 ) ) ;
#65 = DIRECTION ( 'NONE',  ( 1.000000000000000000, 0.0000000000000000000, 0.0000000000000000000 ) ) ;
#66 = DIRECTION ( 'NONE',  ( 0.0000000000000000000, 0.0000000000000000000, 1.000000000000000000 ) ) ;
#67 = DIRECTION ( 'NONE',  ( 0.0000000000000000000, 0.0000000000000000000, 1.000000000000000000 ) ) ;
#68 = CARTESIAN_POINT ( 'NONE',  ( 0.0000000000000000000, 0.0000000000000000000, 0.0000000000000000000 ) ) ;
#69 = CARTESIAN_POINT ( 'NONE',  ( 3.469446951953614200E-015, 0.0000000000000000000, 11.00000000000000000 ) ) ;
#70 =( NAMED_UNIT ( * ) SI_UNIT ( $, .STERADIAN. ) SOLID_ANGLE_UNIT ( ) );
#71 = DIRECTION ( 'NONE',  ( -0.0000000000000000000, 1.000000000000000000, -0.0000000000000000000 ) ) ;
#72 =( NAMED_UNIT ( * ) PLANE_ANGLE_UNIT ( ) SI_UNIT ( $, .RADIAN. ) );
#73 =( LENGTH_UNIT ( ) NAMED_UNIT ( * ) SI_UNIT ( .MILLI., .METRE. ) );
#74 = CARTESIAN_POINT ( 'NONE',  ( -4.499999999999994700, 3.673940397442061800E-016, 11.00000000000000200 ) ) ;
#75 = DIRECTION ( 'NONE',  ( 0.0000000000000000000, 0.0000000000000000000, 1.000000000000000000 ) ) ;
#76 = CARTESIAN_POINT ( 'NONE',  ( 10.50000000000000400, 3.673940397442060900E-016, -10.99999999999999600 ) ) ;
#77 = CARTESIAN_POINT ( 'NONE',  ( -10.49999999999999800, 0.0000000000000000000, 11.00000000000000200 ) ) ;
#78 = CARTESIAN_POINT ( 'NONE',  ( -10.49999999999999600, 0.0000000000000000000, -10.99999999999985600 ) ) ;
#79 = CARTESIAN_POINT ( 'NONE',  ( -4.499999999999993800, 3.673940397442062300E-016, -10.99999999999993800 ) ) ;
#80 = CARTESIAN_POINT ( 'NONE',  ( 3.469446951953614200E-015, -3.673940397442061800E-016, 15.49999999999999600 ) ) ;
#81 = CARTESIAN_POINT ( 'NONE',  ( 3.469446951953614200E-015, 0.0000000000000000000, 21.50000000000000000 ) ) ;
#82 = CARTESIAN_POINT ( 'NONE',  ( 3.469446951953614200E-015, 0.0000000000000000000, 11.00000000000000000 ) ) ;
#83 = CARTESIAN_POINT ( 'NONE',  ( 10.50000000000000500, 3.673940397442061800E-016, 11.00000000000000000 ) ) ;
#84 = CARTESIAN_POINT ( 'NONE',  ( 4.500000000000002700, 0.0000000000000000000, 11.00000000000000000 ) ) ;
#85 = CARTESIAN_POINT ( 'NONE',  ( 4.500000000000000900, 0.0000000000000000000, -10.99999999999999600 ) ) ;
#86 = DIRECTION ( 'NONE',  ( 0.0000000000000000000, 0.0000000000000000000, 1.000000000000000000 ) ) ;
#87 = DIRECTION ( 'NONE',  ( -1.000000000000000000, 0.0000000000000000000, 0.0000000000000000000 ) ) ;
#88 = CARTESIAN_POINT ( 'NONE',  ( 3.469446951953614200E-015, 0.0000000000000000000, -11.00000000000000000 ) ) ;
#89 = CARTESIAN_POINT ( 'NONE',  ( 3.469446951953614200E-015, 0.0000000000000000000, 18.50000000000000000 ) ) ;
#90 = DIRECTION ( 'NONE',  ( -0.0000000000000000000, 1.000000000000000000, -0.0000000000000000000 ) ) ;
#91 = DIRECTION ( 'NONE',  ( 0.0000000000000000000, 0.0000000000000000000, 1.000000000000000000 ) ) ;
#92 = CARTESIAN_POINT ( 'NONE',  ( -7.499999999999996400, 0.0000000000000000000, 11.00000000000000200 ) ) ;
#93 = DIRECTION ( 'NONE',  ( -1.000000000000000000, 0.0000000000000000000, 0.0000000000000000000 ) ) ;
#94 = DIRECTION ( 'NONE',  ( 1.396592535537253300E-014, 0.0000000000000000000, 1.000000000000000000 ) ) ;
#95 = DIRECTION ( 'NONE',  ( 0.0000000000000000000, 0.0000000000000000000, 1.000000000000000000 ) ) ;
#96 = DIRECTION ( 'NONE',  ( 1.000000000000000000, 0.0000000000000000000, 0.0000000000000000000 ) ) ;
#97 = DIRECTION ( 'NONE',  ( 1.224646799147353200E-016, 0.0000000000000000000, -1.000000000000000000 ) ) ;
#98 = CARTESIAN_POINT ( 'NONE',  ( 7.500000000000003600, 0.0000000000000000000, 11.00000000000000000 ) ) ;
#99 = DIRECTION ( 'NONE',  ( -1.000000000000000000, 0.0000000000000000000, 0.0000000000000000000 ) ) ;
#100 = DIRECTION ( 'NONE',  ( -1.000000000000000000, 0.0000000000000000000, 0.0000000000000000000 ) ) ;
#101 = CARTESIAN_POINT ( 'NONE',  ( -4.499999999999995600, 3.673940397442061300E-016, 4.750000000000000000 ) ) ;
#102 = DIRECTION ( 'NONE',  ( 1.396592535537253300E-014, 0.0000000000000000000, 1.000000000000000000 ) ) ;
#103 = DIRECTION ( 'NONE',  ( -0.0000000000000000000, -0.0000000000000000000, -1.000000000000000000 ) ) ;
#104 = DIRECTION ( 'NONE',  ( -3.942553354492744500E-017, 0.0000000000000000000, -1.000000000000000000 ) ) ;
#105 = CARTESIAN_POINT ( 'NONE',  ( 7.500000000000003600, 0.0000000000000000000, 11.00000000000000000 ) ) ;
#106 = DIRECTION ( 'NONE',  ( -1.000000000000000000, 0.0000000000000000000, 0.0000000000000000000 ) ) ;
#107 = DIRECTION ( 'NONE',  ( -0.0000000000000000000, -0.0000000000000000000, -1.000000000000000000 ) ) ;
#108 = CARTESIAN_POINT ( 'NONE',  ( -7.499999999999996400, 0.0000000000000000000, 4.750000000000000000 ) ) ;
#109 = CARTESIAN_POINT ( 'NONE',  ( 7.500000000000003600, 0.0000000000000000000, 11.00000000000000000 ) ) ;
#110 = DIRECTION ( 'NONE',  ( 0.0000000000000000000, 0.0000000000000000000, 1.000000000000000000 ) ) ;
#111 = DIRECTION ( 'NONE',  ( -0.0000000000000000000, 1.000000000000000000, -0.0000000000000000000 ) ) ;
#112 = DIRECTION ( 'NONE',  ( -3.942553354492744500E-017, 0.0000000000000000000, -1.000000000000000000 ) ) ;
#113 = CARTESIAN_POINT ( 'NONE',  ( 3.469446951953614200E-015, 0.0000000000000000000, 11.00000000000000000 ) ) ;
#114 = DIRECTION ( 'NONE',  ( -1.000000000000000000, 0.0000000000000000000, 0.0000000000000000000 ) ) ;
#115 = CARTESIAN_POINT ( 'NONE',  ( 7.500000000000002700, 0.0000000000000000000, -10.99999999999999600 ) ) ;
#116 = DIRECTION ( 'NONE',  ( -0.0000000000000000000, -0.0000000000000000000, -1.000000000000000000 ) ) ;
#117 = CARTESIAN_POINT ( 'NONE',  ( -7.499999999999996400, 0.0000000000000000000, 4.750000000000000000 ) ) ;
#118 = DIRECTION ( 'NONE',  ( 0.0000000000000000000, 0.0000000000000000000, 1.000000000000000000 ) ) ;
#119 = DIRECTION ( 'NONE',  ( -0.0000000000000000000, 1.000000000000000000, -0.0000000000000000000 ) ) ;
#120 = CARTESIAN_POINT ( 'NONE',  ( 3.469446951953614200E-015, 0.0000000000000000000, 11.00000000000000000 ) ) ;
#121 = DIRECTION ( 'NONE',  ( 0.0000000000000000000, 0.0000000000000000000, 1.000000000000000000 ) ) ;
#122 = DIRECTION ( 'NONE',  ( -0.0000000000000000000, -0.0000000000000000000, -1.000000000000000000 ) ) ;
#123 = CARTESIAN_POINT ( 'NONE',  ( -10.49999999999999600, 0.0000000000000000000, 4.750000000000000000 ) ) ;
#124 = DIRECTION ( 'NONE',  ( 0.0000000000000000000, 0.0000000000000000000, 1.000000000000000000 ) ) ;
#125 = DIRECTION ( 'NONE',  ( -0.0000000000000000000, 1.000000000000000000, -0.0000000000000000000 ) ) ;
#126 = DIRECTION ( 'NONE',  ( 0.0000000000000000000, 0.0000000000000000000, 1.000000000000000000 ) ) ;
#127 = CARTESIAN_POINT ( 'NONE',  ( 3.469446951953614200E-015, 0.0000000000000000000, -11.00000000000000000 ) ) ;
#128 = DIRECTION ( 'NONE',  ( 0.0000000000000000000, 0.0000000000000000000, 1.000000000000000000 ) ) ;
#129 = DIRECTION ( 'NONE',  ( -0.0000000000000000000, 1.000000000000000000, -0.0000000000000000000 ) ) ;
#130 = DIRECTION ( 'NONE',  ( -0.0000000000000000000, 1.000000000000000000, -0.0000000000000000000 ) ) ;
#131 = CARTESIAN_POINT ( 'NONE',  ( 3.469446951953614200E-015, 0.0000000000000000000, 11.00000000000000000 ) ) ;
#132 = CARTESIAN_POINT ( 'NONE',  ( 3.469446951953614200E-015, -3.673940397442061300E-016, -11.00000000000000000 ) ) ;
#133 = DIRECTION ( 'NONE',  ( 0.0000000000000000000, 0.0000000000000000000, 1.000000000000000000 ) ) ;
#134 = DIRECTION ( 'NONE',  ( -0.0000000000000000000, 1.000000000000000000, -0.0000000000000000000 ) ) ;
#135 = CARTESIAN_POINT ( 'NONE',  ( 3.469446951953614200E-015, 0.0000000000000000000, 11.00000000000000000 ) ) ;
#136 = DIRECTION ( 'NONE',  ( 1.000000000000000000, 0.0000000000000000000, 0.0000000000000000000 ) ) ;
#137 = DIRECTION ( 'NONE',  ( 0.0000000000000000000, 0.0000000000000000000, 1.000000000000000000 ) ) ;
#138 = CARTESIAN_POINT ( 'NONE',  ( -7.499999999999996400, 0.0000000000000000000, 11.00000000000000200 ) ) ;
#139 = DIRECTION ( 'NONE',  ( 1.224646799147353200E-016, 0.0000000000000000000, -1.000000000000000000 ) ) ;
#140 = DIRECTION ( 'NONE',  ( -3.942553354492744500E-017, 0.0000000000000000000, -1.000000000000000000 ) ) ;
#141 = CARTESIAN_POINT ( 'NONE',  ( 10.50000000000000400, 3.673940397442061300E-016, 11.00000000000000000 ) ) ;
#142 = DIRECTION ( 'NONE',  ( -0.0000000000000000000, 1.000000000000000000, -0.0000000000000000000 ) ) ;
#143 = DIRECTION ( 'NONE',  ( -3.942553354492744500E-017, 0.0000000000000000000, -1.000000000000000000 ) ) ;
#144 = CARTESIAN_POINT ( 'NONE',  ( 4.500000000000002700, 0.0000000000000000000, 11.00000000000000000 ) ) ;
#145 = CARTESIAN_POINT ( 'NONE',  ( 3.469446951953614200E-015, -3.673940397442061300E-016, 11.00000000000000000 ) ) ;
#146 = DIRECTION ( 'NONE',  ( 0.0000000000000000000, 0.0000000000000000000, 1.000000000000000000 ) ) ;
#147 = DIRECTION ( 'NONE',  ( -0.0000000000000000000, 1.000000000000000000, -0.0000000000000000000 ) ) ;
#148 = CARTESIAN_POINT ( 'NONE',  ( 3.469446951953614200E-015, 0.0000000000000000000, -11.00000000000000000 ) ) ;
#149 = DIRECTION ( 'NONE',  ( 0.0000000000000000000, 0.0000000000000000000, 1.000000000000000000 ) ) ;
#150 = DIRECTION ( 'NONE',  ( -0.0000000000000000000, 1.000000000000000000, -0.0000000000000000000 ) ) ;
#151 = CARTESIAN_POINT ( 'NONE',  ( 3.469446951953614200E-015, -3.673940397442061300E-016, 11.00000000000000000 ) ) ;
#152 = DIRECTION ( 'NONE',  ( -1.000000000000000000, 0.0000000000000000000, 0.0000000000000000000 ) ) ;
#153 = DIRECTION ( 'NONE',  ( 1.000000000000000000, 0.0000000000000000000, -1.387778780781444900E-014 ) ) ;
#154 = DIRECTION ( 'NONE',  ( -1.000000000000000000, 0.0000000000000000000, 0.0000000000000000000 ) ) ;
#155 = CARTESIAN_POINT ( 'NONE',  ( -7.499999999999995600, 0.0000000000000000000, -10.99999999999989700 ) ) ;
#156 = DIRECTION ( 'NONE',  ( 0.0000000000000000000, 0.0000000000000000000, 1.000000000000000000 ) ) ;
#157 = CARTESIAN_POINT ( 'NONE',  ( -7.499999999999995600, 0.0000000000000000000, -10.99999999999989700 ) ) ;
#158 = MECHANICAL_CONTEXT ( 'NONE', #160, 'mechanical' ) ;
#159 = APPLICATION_PROTOCOL_DEFINITION ( 'international standard', 'config_control_design', 1994, #160 ) ;
#160 = APPLICATION_CONTEXT ( 'configuration controlled 3d designs of mechanical parts and assemblies' ) ;
#161 = PERSON_AND_ORGANIZATION_ROLE ( 'design_owner' ) ;
#162 = CARTESIAN_POINT ( 'NONE',  ( 7.500000000000003600, 0.0000000000000000000, 11.00000000000000000 ) ) ;
#163 = APPLICATION_CONTEXT ( 'configuration controlled 3d designs of mechanical parts and assemblies' ) ;
#164 = APPLICATION_PROTOCOL_DEFINITION ( 'international standard', 'config_control_design', 1994, #163 ) ;
#165 = APPROVAL_STATUS ( 'not_yet_approved' ) ;
#166 = APPROVAL_ROLE ( '' ) ;
#167 = PERSON_AND_ORGANIZATION_ROLE ( 'creator' ) ;
#168 = DATE_TIME_ROLE ( 'creation_date' ) ;
#169 = APPROVAL_STATUS ( 'not_yet_approved' ) ;
#170 = APPROVAL_ROLE ( '' ) ;
#171 = PERSON_AND_ORGANIZATION_ROLE ( 'creator' ) ;
#172 = PERSON_AND_ORGANIZATION_ROLE ( 'design_supplier' ) ;
#173 = SECURITY_CLASSIFICATION_LEVEL ( 'unclassified' ) ;
#174 = PERSON_AND_ORGANIZATION_ROLE ( 'classification_officer' ) ;
#175 = DATE_TIME_ROLE ( 'classification_date' ) ;
#176 = APPROVAL_STATUS ( 'not_yet_approved' ) ;
#177 = APPROVAL_ROLE ( '' ) ;
#178 = EDGE_CURVE ( 'NONE', #294, #295, #55, .T. ) ;
#179 = EDGE_CURVE ( 'NONE', #301, #293, #54, .T. ) ;
#180 = EDGE_CURVE ( 'NONE', #296, #297, #42, .T. ) ;
#181 = EDGE_CURVE ( 'NONE', #296, #295, #48, .T. ) ;
#182 = EDGE_CURVE ( 'NONE', #300, #296, #50, .T. ) ;
#183 = EDGE_CURVE ( 'NONE', #302, #300, #49, .T. ) ;
#184 = EDGE_CURVE ( 'NONE', #302, #298, #280, .T. ) ;
#185 = ADVANCED_FACE ( 'NONE', ( #278 ), #274, .T. ) ;
#186 = EDGE_CURVE ( 'NONE', #302, #297, #46, .T. ) ;
#187 = ADVANCED_FACE ( 'NONE', ( #279 ), #221, .T. ) ;
#188 = EDGE_CURVE ( 'NONE', #293, #298, #214, .T. ) ;
#189 = EDGE_CURVE ( 'NONE', #299, #298, #222, .T. ) ;
#190 = EDGE_CURVE ( 'NONE', #293, #301, #226, .T. ) ;
#191 = EDGE_CURVE ( 'NONE', #298, #299, #218, .T. ) ;
#192 = EDGE_CURVE ( 'NONE', #297, #294, #215, .T. ) ;
#193 = EDGE_CURVE ( 'NONE', #301, #299, #342, .T. ) ;
#194 = LOCAL_TIME ( 15, 23, 11.00000000000000000, #316 ) ;
#195 = LOCAL_TIME ( 15, 23, 11.00000000000000000, #321 ) ;
#196 = EDGE_CURVE ( 'NONE', #294, #293, #227, .T. ) ;
#197 = LOCAL_TIME ( 15, 23, 11.00000000000000000, #311 ) ;
#198 = EDGE_CURVE ( 'NONE', #295, #301, #229, .T. ) ;
#199 = EDGE_CURVE ( 'NONE', #300, #302, #340, .T. ) ;
#200 = ADVANCED_FACE ( 'NONE', ( #281 ), #339, .T. ) ;
#201 = ADVANCED_FACE ( 'NONE', ( #283 ), #4, .T. ) ;
#202 = ADVANCED_FACE ( 'NONE', ( #277 ), #38, .T. ) ;
#203 = EDGE_CURVE ( 'NONE', #300, #299, #237, .T. ) ;
#204 = ADVANCED_FACE ( 'NONE', ( #238 ), #34, .T. ) ;
#205 = ADVANCED_FACE ( 'NONE', ( #284 ), #228, .T. ) ;
#206 = ADVANCED_FACE ( 'NONE', ( #267 ), #8, .T. ) ;
#207 = ADVANCED_FACE ( 'NONE', ( #231 ), #230, .T. ) ;
#208 = ADVANCED_FACE ( 'NONE', ( #232 ), #282, .T. ) ;
#209 = EDGE_CURVE ( 'NONE', #295, #294, #6, .T. ) ;
#210 = EDGE_CURVE ( 'NONE', #297, #296, #5, .T. ) ;
#211 =( GEOMETRIC_REPRESENTATION_CONTEXT ( 3 ) GLOBAL_UNCERTAINTY_ASSIGNED_CONTEXT ( ( #30 ) ) GLOBAL_UNIT_ASSIGNED_CONTEXT ( ( #73, #72, #70 ) ) REPRESENTATION_CONTEXT ( 'NONE', 'WORKASPACE' ) );
#212 = LOCAL_TIME ( 15, 23, 11.00000000000000000, #328 ) ;
#213 = LOCAL_TIME ( 15, 23, 11.00000000000000000, #333 ) ;
#214 = CIRCLE ( 'NONE', #223, 4.499999999999997300 ) ;
#215 = CIRCLE ( 'NONE', #338, 4.499999999999999100 ) ;
#216 = AXIS2_PLACEMENT_3D ( 'NONE', #98, #97, #93 ) ;
#217 = AXIS2_PLACEMENT_3D ( 'NONE', #145, #142, #121 ) ;
#218 = CIRCLE ( 'NONE', #343, 3.000000000000001800 ) ;
#219 = AXIS2_PLACEMENT_3D ( 'NONE', #115, #139, #99 ) ;
#220 = AXIS2_PLACEMENT_3D ( 'NONE', #88, #57, #156 ) ;
#221 = TOROIDAL_SURFACE ( 'NONE', #220, 7.499999999999999100, 3.000000000000001300 ) ;
#222 = CIRCLE ( 'NONE', #224, 3.000000000000001800 ) ;
#223 = AXIS2_PLACEMENT_3D ( 'NONE', #132, #129, #126 ) ;
#224 = AXIS2_PLACEMENT_3D ( 'NONE', #157, #102, #153 ) ;
#225 = VECTOR ( 'NONE', #103, 1000.000000000000000 ) ;
#226 = CIRCLE ( 'NONE', #219, 3.000000000000001800 ) ;
#227 = LINE ( 'NONE', #144, #337 ) ;
#228 = CYLINDRICAL_SURFACE ( 'NONE', #2, 3.000000000000000900 ) ;
#229 = LINE ( 'NONE', #141, #345 ) ;
#230 = CYLINDRICAL_SURFACE ( 'NONE', #33, 3.000000000000000900 ) ;
#231 = FACE_OUTER_BOUND ( 'NONE', #271, .T. ) ;
#232 = FACE_OUTER_BOUND ( 'NONE', #268, .T. ) ;
#233 = ORIENTED_EDGE ( 'NONE', *, *, #198, .T. ) ;
#234 = ORIENTED_EDGE ( 'NONE', *, *, #182, .F. ) ;
#235 = ORIENTED_EDGE ( 'NONE', *, *, #199, .T. ) ;
#236 = ORIENTED_EDGE ( 'NONE', *, *, #186, .T. ) ;
#237 = LINE ( 'NONE', #123, #1 ) ;
#238 = FACE_OUTER_BOUND ( 'NONE', #303, .T. ) ;
#239 = ORIENTED_EDGE ( 'NONE', *, *, #182, .T. ) ;
#240 = ORIENTED_EDGE ( 'NONE', *, *, #181, .T. ) ;
#241 = ORIENTED_EDGE ( 'NONE', *, *, #192, .F. ) ;
#242 = ORIENTED_EDGE ( 'NONE', *, *, #180, .F. ) ;
#243 = ORIENTED_EDGE ( 'NONE', *, *, #191, .T. ) ;
#244 = ORIENTED_EDGE ( 'NONE', *, *, #180, .T. ) ;
#245 = ORIENTED_EDGE ( 'NONE', *, *, #203, .F. ) ;
#246 = ORIENTED_EDGE ( 'NONE', *, *, #186, .F. ) ;
#247 = ORIENTED_EDGE ( 'NONE', *, *, #178, .F. ) ;
#248 = ORIENTED_EDGE ( 'NONE', *, *, #184, .T. ) ;
#249 = ORIENTED_EDGE ( 'NONE', *, *, #183, .F. ) ;
#250 = ORIENTED_EDGE ( 'NONE', *, *, #191, .F. ) ;
#251 = ORIENTED_EDGE ( 'NONE', *, *, #188, .F. ) ;
#252 = ORIENTED_EDGE ( 'NONE', *, *, #190, .T. ) ;
#253 = ORIENTED_EDGE ( 'NONE', *, *, #183, .T. ) ;
#254 = ORIENTED_EDGE ( 'NONE', *, *, #193, .T. ) ;
#255 = ORIENTED_EDGE ( 'NONE', *, *, #193, .F. ) ;
#256 = ORIENTED_EDGE ( 'NONE', *, *, #179, .T. ) ;
#257 = ORIENTED_EDGE ( 'NONE', *, *, #189, .F. ) ;
#258 = ORIENTED_EDGE ( 'NONE', *, *, #196, .T. ) ;
#259 = ORIENTED_EDGE ( 'NONE', *, *, #198, .F. ) ;
#260 = ORIENTED_EDGE ( 'NONE', *, *, #209, .T. ) ;
#261 = ORIENTED_EDGE ( 'NONE', *, *, #209, .F. ) ;
#262 = ORIENTED_EDGE ( 'NONE', *, *, #179, .F. ) ;
#263 = ORIENTED_EDGE ( 'NONE', *, *, #181, .F. ) ;
#264 = ORIENTED_EDGE ( 'NONE', *, *, #210, .F. ) ;
#265 = ORIENTED_EDGE ( 'NONE', *, *, #192, .T. ) ;
#266 = ORIENTED_EDGE ( 'NONE', *, *, #189, .T. ) ;
#267 = FACE_OUTER_BOUND ( 'NONE', #270, .T. ) ;
#268 = EDGE_LOOP ( 'NONE', ( #292, #233, #291, #288 ) ) ;
#269 = EDGE_LOOP ( 'NONE', ( #259, #260, #258, #262 ) ) ;
#270 = EDGE_LOOP ( 'NONE', ( #234, #235, #236, #290 ) ) ;
#271 = EDGE_LOOP ( 'NONE', ( #285, #286, #287, #266 ) ) ;
#272 = EDGE_LOOP ( 'NONE', ( #263, #264, #265, #261 ) ) ;
#273 = CLOSED_SHELL ( 'NONE', ( #201, #202, #204, #205, #206, #208, #187, #185, #200, #207 ) ) ;
#274 = CYLINDRICAL_SURFACE ( 'NONE', #43, 3.000000000000000900 ) ;
#275 = EDGE_LOOP ( 'NONE', ( #252, #254, #250, #251 ) ) ;
#276 = ORGANIZATION ( 'UNSPECIFIED', 'UNSPECIFIED', '' ) ;
#277 = FACE_OUTER_BOUND ( 'NONE', #275, .T. ) ;
#278 = FACE_OUTER_BOUND ( 'NONE', #269, .T. ) ;
#279 = FACE_OUTER_BOUND ( 'NONE', #306, .T. ) ;
#280 = LINE ( 'NONE', #101, #225 ) ;
#281 = FACE_OUTER_BOUND ( 'NONE', #272, .T. ) ;
#282 = CYLINDRICAL_SURFACE ( 'NONE', #53, 3.000000000000000900 ) ;
#283 = FACE_OUTER_BOUND ( 'NONE', #305, .T. ) ;
#284 = FACE_OUTER_BOUND ( 'NONE', #304, .T. ) ;
#285 = ORIENTED_EDGE ( 'NONE', *, *, #184, .F. ) ;
#286 = ORIENTED_EDGE ( 'NONE', *, *, #199, .F. ) ;
#287 = ORIENTED_EDGE ( 'NONE', *, *, #203, .T. ) ;
#288 = ORIENTED_EDGE ( 'NONE', *, *, #196, .F. ) ;
#289 = ORIENTED_EDGE ( 'NONE', *, *, #188, .T. ) ;
#290 = ORIENTED_EDGE ( 'NONE', *, *, #210, .T. ) ;
#291 = ORIENTED_EDGE ( 'NONE', *, *, #190, .F. ) ;
#292 = ORIENTED_EDGE ( 'NONE', *, *, #178, .T. ) ;
#293 = VERTEX_POINT ( 'NONE', #85 ) ;
#294 = VERTEX_POINT ( 'NONE', #84 ) ;
#295 = VERTEX_POINT ( 'NONE', #83 ) ;
#296 = VERTEX_POINT ( 'NONE', #81 ) ;
#297 = VERTEX_POINT ( 'NONE', #80 ) ;
#298 = VERTEX_POINT ( 'NONE', #79 ) ;
#299 = VERTEX_POINT ( 'NONE', #78 ) ;
#300 = VERTEX_POINT ( 'NONE', #77 ) ;
#301 = VERTEX_POINT ( 'NONE', #76 ) ;
#302 = VERTEX_POINT ( 'NONE', #74 ) ;
#303 = EDGE_LOOP ( 'NONE', ( #253, #239, #244, #246 ) ) ;
#304 = EDGE_LOOP ( 'NONE', ( #249, #248, #243, #245 ) ) ;
#305 = EDGE_LOOP ( 'NONE', ( #242, #240, #247, #241 ) ) ;
#306 = EDGE_LOOP ( 'NONE', ( #255, #256, #289, #257 ) ) ;
#307 = SHAPE_DEFINITION_REPRESENTATION ( #28, #41 ) ;
#308 = PERSON_AND_ORGANIZATION ( #29, #276 ) ;
#309 = PERSON_AND_ORGANIZATION ( #29, #276 ) ;
#310 = APPROVAL_PERSON_ORGANIZATION ( #309, #11, #166 ) ;
#311 = COORDINATED_UNIVERSAL_TIME_OFFSET ( 9, 0, .AHEAD. ) ;
#312 = CALENDAR_DATE ( 2011, 29, 6 ) ;
#313 = DATE_AND_TIME ( #312, #197 ) ;
#314 = APPROVAL_DATE_TIME ( #313, #11 ) ;
#315 = PERSON_AND_ORGANIZATION ( #29, #276 ) ;
#316 = COORDINATED_UNIVERSAL_TIME_OFFSET ( 9, 0, .AHEAD. ) ;
#317 = CALENDAR_DATE ( 2011, 29, 6 ) ;
#318 = DATE_AND_TIME ( #317, #194 ) ;
#319 = PERSON_AND_ORGANIZATION ( #29, #276 ) ;
#320 = APPROVAL_PERSON_ORGANIZATION ( #319, #16, #170 ) ;
#321 = COORDINATED_UNIVERSAL_TIME_OFFSET ( 9, 0, .AHEAD. ) ;
#322 = CALENDAR_DATE ( 2011, 29, 6 ) ;
#323 = DATE_AND_TIME ( #322, #195 ) ;
#324 = APPROVAL_DATE_TIME ( #323, #16 ) ;
#325 = PERSON_AND_ORGANIZATION ( #29, #276 ) ;
#326 = PERSON_AND_ORGANIZATION ( #29, #276 ) ;
#327 = PERSON_AND_ORGANIZATION ( #29, #276 ) ;
#328 = COORDINATED_UNIVERSAL_TIME_OFFSET ( 9, 0, .AHEAD. ) ;
#329 = CALENDAR_DATE ( 2011, 29, 6 ) ;
#330 = DATE_AND_TIME ( #329, #212 ) ;
#331 = PERSON_AND_ORGANIZATION ( #29, #276 ) ;
#332 = APPROVAL_PERSON_ORGANIZATION ( #331, #23, #177 ) ;
#333 = COORDINATED_UNIVERSAL_TIME_OFFSET ( 9, 0, .AHEAD. ) ;
#334 = CALENDAR_DATE ( 2011, 29, 6 ) ;
#335 = DATE_AND_TIME ( #334, #213 ) ;
#336 = APPROVAL_DATE_TIME ( #335, #23 ) ;
#337 = VECTOR ( 'NONE', #143, 1000.000000000000000 ) ;
#338 = AXIS2_PLACEMENT_3D ( 'NONE', #151, #150, #149 ) ;
#339 = TOROIDAL_SURFACE ( 'NONE', #344, 7.500000000000000000, 3.000000000000001300 ) ;
#340 = CIRCLE ( 'NONE', #7, 3.000000000000000900 ) ;
#341 = AXIS2_PLACEMENT_3D ( 'NONE', #148, #147, #146 ) ;
#342 = CIRCLE ( 'NONE', #341, 10.50000000000000000 ) ;
#343 = AXIS2_PLACEMENT_3D ( 'NONE', #155, #94, #59 ) ;
#344 = AXIS2_PLACEMENT_3D ( 'NONE', #135, #134, #133 ) ;
#345 = VECTOR ( 'NONE', #140, 1000.000000000000000 ) ;
ENDSEC;
END-ISO-10303-21;
