ISO-10303-21;
HEADER;
FILE_DESCRIPTION (( 'STEP AP203' ),
    '1' );
FILE_NAME ('B-1123-Ó5.STEP',
    '2011-06-29T06:16:36',
    ( '11sw' ),
    ( '^LQ»¢®ïÐ' ),
    'SwSTEP 2.0',
    'SolidWorks 2011',
    '' );
FILE_SCHEMA (( 'CONFIG_CONTROL_DESIGN' ));
ENDSEC;

DATA;
#1 = CIRCLE ( 'NONE', #27, 8.999999999999996400 ) ;
#2 = AXIS2_PLACEMENT_3D ( 'NONE', #121, #122, #123 ) ;
#3 = CIRCLE ( 'NONE', #234, 2.500000000000000400 ) ;
#4 = AXIS2_PLACEMENT_3D ( 'NONE', #130, #131, #132 ) ;
#5 = TOROIDAL_SURFACE ( 'NONE', #19, 6.499999999999998200, 2.500000000000000000 ) ;
#6 = AXIS2_PLACEMENT_3D ( 'NONE', #112, #113, #114 ) ;
#7 = AXIS2_PLACEMENT_3D ( 'NONE', #99, #104, #97 ) ;
#8 = TOROIDAL_SURFACE ( 'NONE', #7, 6.499999999999998200, 2.500000000000000000 ) ;
#9 = VECTOR ( 'NONE', #85, 1000.000000000000000 ) ;
#10 = CIRCLE ( 'NONE', #31, 2.499999999999998700 ) ;
#11 = TOROIDAL_SURFACE ( 'NONE', #23, 6.499999999999998200, 2.500000000000000000 ) ;
#12 = AXIS2_PLACEMENT_3D ( 'NONE', #88, #89, #90 ) ;
#13 = AXIS2_PLACEMENT_3D ( 'NONE', #100, #98, #108 ) ;
#14 = AXIS2_PLACEMENT_3D ( 'NONE', #118, #119, #120 ) ;
#15 = AXIS2_PLACEMENT_3D ( 'NONE', #124, #125, #126 ) ;
#16 = CIRCLE ( 'NONE', #4, 3.999999999999996400 ) ;
#17 = CIRCLE ( 'NONE', #33, 2.499999999999999600 ) ;
#18 = AXIS2_PLACEMENT_3D ( 'NONE', #78, #79, #80 ) ;
#19 = AXIS2_PLACEMENT_3D ( 'NONE', #102, #96, #106 ) ;
#20 = CIRCLE ( 'NONE', #2, 8.999999999999996400 ) ;
#21 = TOROIDAL_SURFACE ( 'NONE', #29, 6.499999999999997300, 2.500000000000000000 ) ;
#22 = AXIS2_PLACEMENT_3D ( 'NONE', #127, #128, #129 ) ;
#23 = AXIS2_PLACEMENT_3D ( 'NONE', #91, #92, #93 ) ;
#24 = TOROIDAL_SURFACE ( 'NONE', #37, 6.499999999999997300, 2.500000000000000000 ) ;
#25 = VECTOR ( 'NONE', #87, 1000.000000000000000 ) ;
#26 = AXIS2_PLACEMENT_3D ( 'NONE', #72, #73, #74 ) ;
#27 = AXIS2_PLACEMENT_3D ( 'NONE', #94, #103, #101 ) ;
#28 = AXIS2_PLACEMENT_3D ( 'NONE', #110, #109, #111 ) ;
#29 = AXIS2_PLACEMENT_3D ( 'NONE', #115, #116, #117 ) ;
#30 = CIRCLE ( 'NONE', #15, 3.999999999999998200 ) ;
#31 = AXIS2_PLACEMENT_3D ( 'NONE', #81, #82, #83 ) ;
#32 = CIRCLE ( 'NONE', #26, 2.500000000000000400 ) ;
#33 = AXIS2_PLACEMENT_3D ( 'NONE', #75, #76, #77 ) ;
#34 = AXIS2_PLACEMENT_3D ( 'NONE', #69, #70, #71 ) ;
#35 = CIRCLE ( 'NONE', #226, 2.499999999999998700 ) ;
#36 = CIRCLE ( 'NONE', #34, 8.999999999999998200 ) ;
#37 = AXIS2_PLACEMENT_3D ( 'NONE', #95, #105, #107 ) ;
#38 = TOROIDAL_SURFACE ( 'NONE', #28, 6.499999999999998200, 2.500000000000000000 ) ;
#39 = CIRCLE ( 'NONE', #22, 2.499999999999999600 ) ;
#40 = CIRCLE ( 'NONE', #18, 3.999999999999998200 ) ;
#41 = PRODUCT_RELATED_PRODUCT_CATEGORY ( 'detail', '', ( #44 ) ) ;
#42 = CC_DESIGN_SECURITY_CLASSIFICATION ( #49, ( #59 ) ) ;
#43 = UNCERTAINTY_MEASURE_WITH_UNIT (LENGTH_MEASURE( 1.000000000000000100E-005 ), #165, 'distance_accuracy_value', 'NONE');
#44 = PRODUCT ( 'B-1123-Ó5', 'B-1123-Ó5', '', ( #173 ) ) ;
#45 = PERSON ( 'UNSPECIFIED', 'UNSPECIFIED', 'UNSPECIFIED', ('UNSPECIFIED'), ('UNSPECIFIED'), ('UNSPECIFIED') ) ;
#46 = DESIGN_CONTEXT ( 'detailed design', #175, 'design' ) ;
#47 = PRODUCT_DEFINITION_SHAPE ( 'NONE', 'NONE',  #54 ) ;
#48 = CC_DESIGN_PERSON_AND_ORGANIZATION_ASSIGNMENT ( #336, #186, ( #49 ) ) ;
#49 = SECURITY_CLASSIFICATION ( '', '', #185 ) ;
#50 = CC_DESIGN_DATE_AND_TIME_ASSIGNMENT ( #339, #187, ( #49 ) ) ;
#51 = CC_DESIGN_APPROVAL ( #52, ( #49 ) ) ;
#52 = APPROVAL ( #188, 'UNSPECIFIED' ) ;
#53 = APPROVAL ( #181, 'UNSPECIFIED' ) ;
#54 = PRODUCT_DEFINITION ( 'UNKNOWN', '', #59, #46 ) ;
#55 = APPROVAL ( #177, 'UNSPECIFIED' ) ;
#56 = CC_DESIGN_APPROVAL ( #55, ( #54 ) ) ;
#57 = CC_DESIGN_DATE_AND_TIME_ASSIGNMENT ( #327, #180, ( #54 ) ) ;
#58 = CC_DESIGN_APPROVAL ( #53, ( #59 ) ) ;
#59 = PRODUCT_DEFINITION_FORMATION_WITH_SPECIFIED_SOURCE ( 'ANY', '', #44, .NOT_KNOWN. ) ;
#60 = CC_DESIGN_PERSON_AND_ORGANIZATION_ASSIGNMENT ( #334, #183, ( #59 ) ) ;
#61 = CC_DESIGN_PERSON_AND_ORGANIZATION_ASSIGNMENT ( #335, #184, ( #59 ) ) ;
#62 = CC_DESIGN_PERSON_AND_ORGANIZATION_ASSIGNMENT ( #324, #179, ( #54 ) ) ;
#63 = ADVANCED_BREP_SHAPE_REPRESENTATION ( 'B-1123-Ó5', ( #64, #65 ), #194 ) ;
#64 = MANIFOLD_SOLID_BREP ( '½²°Ìß1', #253 ) ;
#65 = AXIS2_PLACEMENT_3D ( 'NONE', #168, #169, #170 ) ;
#66 = AXIS2_PLACEMENT_3D ( 'NONE', #152, #153, #154 ) ;
#67 = CC_DESIGN_PERSON_AND_ORGANIZATION_ASSIGNMENT ( #317, #174, ( #44 ) ) ;
#68 = AXIS2_PLACEMENT_3D ( 'NONE', #149, #150, #151 ) ;
#69 = CARTESIAN_POINT ( 'NONE',  ( 3.469446951953614200E-015, 0.0000000000000000000, -9.500000000000000000 ) ) ;
#70 = DIRECTION ( 'NONE',  ( -0.0000000000000000000, 1.000000000000000000, -0.0000000000000000000 ) ) ;
#71 = DIRECTION ( 'NONE',  ( 0.0000000000000000000, 0.0000000000000000000, 1.000000000000000000 ) ) ;
#72 = CARTESIAN_POINT ( 'NONE',  ( 6.500000000000000900, 0.0000000000000000000, -9.499999999999998200 ) ) ;
#73 = DIRECTION ( 'NONE',  ( 1.224646799147353200E-016, 0.0000000000000000000, -1.000000000000000000 ) ) ;
#74 = DIRECTION ( 'NONE',  ( -1.000000000000000000, 0.0000000000000000000, 0.0000000000000000000 ) ) ;
#75 = CARTESIAN_POINT ( 'NONE',  ( -6.499999999999994700, 0.0000000000000000000, 9.500000000000001800 ) ) ;
#76 = DIRECTION ( 'NONE',  ( 0.0000000000000000000, 0.0000000000000000000, 1.000000000000000000 ) ) ;
#77 = DIRECTION ( 'NONE',  ( 1.000000000000000000, 0.0000000000000000000, 0.0000000000000000000 ) ) ;
#78 = CARTESIAN_POINT ( 'NONE',  ( 3.469446951953614200E-015, -3.061616997868383100E-016, 9.500000000000000000 ) ) ;
#79 = DIRECTION ( 'NONE',  ( -0.0000000000000000000, 1.000000000000000000, -0.0000000000000000000 ) ) ;
#80 = DIRECTION ( 'NONE',  ( 0.0000000000000000000, 0.0000000000000000000, 1.000000000000000000 ) ) ;
#81 = CARTESIAN_POINT ( 'NONE',  ( 3.469446951953614200E-015, 0.0000000000000000000, 15.99999999999999600 ) ) ;
#82 = DIRECTION ( 'NONE',  ( -1.000000000000000000, 0.0000000000000000000, 0.0000000000000000000 ) ) ;
#83 = DIRECTION ( 'NONE',  ( 0.0000000000000000000, 0.0000000000000000000, 1.000000000000000000 ) ) ;
#84 = CARTESIAN_POINT ( 'NONE',  ( 9.000000000000001800, 3.061616997868383100E-016, 9.499999999999998200 ) ) ;
#85 = DIRECTION ( 'NONE',  ( -4.565061778886335400E-017, 0.0000000000000000000, -1.000000000000000000 ) ) ;
#86 = CARTESIAN_POINT ( 'NONE',  ( 4.000000000000001800, 0.0000000000000000000, 9.499999999999998200 ) ) ;
#87 = DIRECTION ( 'NONE',  ( -4.565061778886335400E-017, 0.0000000000000000000, -1.000000000000000000 ) ) ;
#88 = CARTESIAN_POINT ( 'NONE',  ( -6.499999999999996400, 0.0000000000000000000, 4.750000000000000000 ) ) ;
#89 = DIRECTION ( 'NONE',  ( 1.826024711554533900E-016, -0.0000000000000000000, -1.000000000000000000 ) ) ;
#90 = DIRECTION ( 'NONE',  ( -1.000000000000000000, 0.0000000000000000000, -3.469446951953614700E-016 ) ) ;
#91 = CARTESIAN_POINT ( 'NONE',  ( 3.469446951953614200E-015, 0.0000000000000000000, 9.500000000000000000 ) ) ;
#92 = DIRECTION ( 'NONE',  ( -0.0000000000000000000, 1.000000000000000000, -0.0000000000000000000 ) ) ;
#93 = DIRECTION ( 'NONE',  ( 0.0000000000000000000, 0.0000000000000000000, 1.000000000000000000 ) ) ;
#94 = CARTESIAN_POINT ( 'NONE',  ( 3.469446951953614200E-015, 0.0000000000000000000, 9.500000000000000000 ) ) ;
#95 = CARTESIAN_POINT ( 'NONE',  ( 3.469446951953614200E-015, 0.0000000000000000000, -9.500000000000000000 ) ) ;
#96 = DIRECTION ( 'NONE',  ( -0.0000000000000000000, 1.000000000000000000, -0.0000000000000000000 ) ) ;
#97 = DIRECTION ( 'NONE',  ( 0.0000000000000000000, 0.0000000000000000000, 1.000000000000000000 ) ) ;
#98 = DIRECTION ( 'NONE',  ( 1.826024711554533900E-016, -0.0000000000000000000, -1.000000000000000000 ) ) ;
#99 = CARTESIAN_POINT ( 'NONE',  ( 3.469446951953614200E-015, 0.0000000000000000000, 9.500000000000000000 ) ) ;
#100 = CARTESIAN_POINT ( 'NONE',  ( -6.499999999999996400, 0.0000000000000000000, 4.750000000000000000 ) ) ;
#101 = DIRECTION ( 'NONE',  ( 0.0000000000000000000, 0.0000000000000000000, 1.000000000000000000 ) ) ;
#102 = CARTESIAN_POINT ( 'NONE',  ( 3.469446951953614200E-015, 0.0000000000000000000, 9.500000000000000000 ) ) ;
#103 = DIRECTION ( 'NONE',  ( -0.0000000000000000000, 1.000000000000000000, -0.0000000000000000000 ) ) ;
#104 = DIRECTION ( 'NONE',  ( -0.0000000000000000000, 1.000000000000000000, -0.0000000000000000000 ) ) ;
#105 = DIRECTION ( 'NONE',  ( -0.0000000000000000000, 1.000000000000000000, -0.0000000000000000000 ) ) ;
#106 = DIRECTION ( 'NONE',  ( 0.0000000000000000000, 0.0000000000000000000, 1.000000000000000000 ) ) ;
#107 = DIRECTION ( 'NONE',  ( 0.0000000000000000000, 0.0000000000000000000, 1.000000000000000000 ) ) ;
#108 = DIRECTION ( 'NONE',  ( -1.000000000000000000, 0.0000000000000000000, -3.469446951953614700E-016 ) ) ;
#109 = DIRECTION ( 'NONE',  ( -0.0000000000000000000, 1.000000000000000000, -0.0000000000000000000 ) ) ;
#110 = CARTESIAN_POINT ( 'NONE',  ( 3.469446951953614200E-015, 0.0000000000000000000, 9.500000000000000000 ) ) ;
#111 = DIRECTION ( 'NONE',  ( 0.0000000000000000000, 0.0000000000000000000, 1.000000000000000000 ) ) ;
#112 = CARTESIAN_POINT ( 'NONE',  ( 6.500000000000001800, 0.0000000000000000000, 9.499999999999998200 ) ) ;
#113 = DIRECTION ( 'NONE',  ( -4.565061778886335400E-017, 0.0000000000000000000, -1.000000000000000000 ) ) ;
#114 = DIRECTION ( 'NONE',  ( -1.000000000000000000, 0.0000000000000000000, 0.0000000000000000000 ) ) ;
#115 = CARTESIAN_POINT ( 'NONE',  ( 3.469446951953614200E-015, 0.0000000000000000000, -9.500000000000000000 ) ) ;
#116 = DIRECTION ( 'NONE',  ( -0.0000000000000000000, 1.000000000000000000, -0.0000000000000000000 ) ) ;
#117 = DIRECTION ( 'NONE',  ( 0.0000000000000000000, 0.0000000000000000000, 1.000000000000000000 ) ) ;
#118 = CARTESIAN_POINT ( 'NONE',  ( 6.500000000000001800, 0.0000000000000000000, 9.499999999999998200 ) ) ;
#119 = DIRECTION ( 'NONE',  ( -4.565061778886335400E-017, 0.0000000000000000000, -1.000000000000000000 ) ) ;
#120 = DIRECTION ( 'NONE',  ( -1.000000000000000000, 0.0000000000000000000, 0.0000000000000000000 ) ) ;
#121 = CARTESIAN_POINT ( 'NONE',  ( 3.469446951953614200E-015, 0.0000000000000000000, 9.500000000000000000 ) ) ;
#122 = DIRECTION ( 'NONE',  ( -0.0000000000000000000, 1.000000000000000000, -0.0000000000000000000 ) ) ;
#123 = DIRECTION ( 'NONE',  ( 0.0000000000000000000, 0.0000000000000000000, 1.000000000000000000 ) ) ;
#124 = CARTESIAN_POINT ( 'NONE',  ( 3.469446951953614200E-015, -3.061616997868383100E-016, 9.500000000000000000 ) ) ;
#125 = DIRECTION ( 'NONE',  ( -0.0000000000000000000, 1.000000000000000000, -0.0000000000000000000 ) ) ;
#126 = DIRECTION ( 'NONE',  ( 0.0000000000000000000, 0.0000000000000000000, 1.000000000000000000 ) ) ;
#127 = CARTESIAN_POINT ( 'NONE',  ( 6.500000000000001800, 0.0000000000000000000, 9.499999999999998200 ) ) ;
#128 = DIRECTION ( 'NONE',  ( 1.224646799147353200E-016, 0.0000000000000000000, -1.000000000000000000 ) ) ;
#129 = DIRECTION ( 'NONE',  ( -1.000000000000000000, 0.0000000000000000000, 0.0000000000000000000 ) ) ;
#130 = CARTESIAN_POINT ( 'NONE',  ( 3.469446951953614200E-015, -3.061616997868383100E-016, -9.500000000000000000 ) ) ;
#131 = DIRECTION ( 'NONE',  ( -0.0000000000000000000, 1.000000000000000000, -0.0000000000000000000 ) ) ;
#132 = DIRECTION ( 'NONE',  ( 0.0000000000000000000, 0.0000000000000000000, 1.000000000000000000 ) ) ;
#133 = CARTESIAN_POINT ( 'NONE',  ( -6.499999999999993800, 0.0000000000000000000, -9.499999999999907600 ) ) ;
#134 = DIRECTION ( 'NONE',  ( 1.441001456522259600E-014, 0.0000000000000000000, 1.000000000000000000 ) ) ;
#135 = DIRECTION ( 'NONE',  ( 1.000000000000000000, 0.0000000000000000000, -1.457167719820517600E-014 ) ) ;
#136 = CARTESIAN_POINT ( 'NONE',  ( -3.999999999999996400, 3.061616997868383100E-016, 4.750000000000000900 ) ) ;
#137 = DIRECTION ( 'NONE',  ( 1.826024711554533900E-016, -0.0000000000000000000, -1.000000000000000000 ) ) ;
#138 = CARTESIAN_POINT ( 'NONE',  ( -8.999999999999996400, 0.0000000000000000000, 4.749999999999999100 ) ) ;
#139 = DIRECTION ( 'NONE',  ( 1.826024711554533900E-016, -0.0000000000000000000, -1.000000000000000000 ) ) ;
#140 = CARTESIAN_POINT ( 'NONE',  ( -6.499999999999994700, 0.0000000000000000000, 9.500000000000001800 ) ) ;
#141 = DIRECTION ( 'NONE',  ( 0.0000000000000000000, 0.0000000000000000000, 1.000000000000000000 ) ) ;
#142 = DIRECTION ( 'NONE',  ( 1.000000000000000000, 0.0000000000000000000, 0.0000000000000000000 ) ) ;
#143 = CARTESIAN_POINT ( 'NONE',  ( 3.469446951953614200E-015, 0.0000000000000000000, 15.99999999999999600 ) ) ;
#144 = DIRECTION ( 'NONE',  ( -1.000000000000000000, 0.0000000000000000000, 0.0000000000000000000 ) ) ;
#145 = DIRECTION ( 'NONE',  ( 0.0000000000000000000, 0.0000000000000000000, 1.000000000000000000 ) ) ;
#146 = CARTESIAN_POINT ( 'NONE',  ( 6.500000000000000900, 0.0000000000000000000, -9.499999999999998200 ) ) ;
#147 = DIRECTION ( 'NONE',  ( 1.224646799147353200E-016, 0.0000000000000000000, -1.000000000000000000 ) ) ;
#148 = DIRECTION ( 'NONE',  ( -1.000000000000000000, 0.0000000000000000000, 0.0000000000000000000 ) ) ;
#149 = CARTESIAN_POINT ( 'NONE',  ( -6.499999999999993800, 0.0000000000000000000, -9.499999999999907600 ) ) ;
#150 = DIRECTION ( 'NONE',  ( 1.441001456522259600E-014, 0.0000000000000000000, 1.000000000000000000 ) ) ;
#151 = DIRECTION ( 'NONE',  ( 1.000000000000000000, 0.0000000000000000000, -1.457167719820517600E-014 ) ) ;
#152 = CARTESIAN_POINT ( 'NONE',  ( 6.500000000000001800, 0.0000000000000000000, 9.499999999999998200 ) ) ;
#153 = DIRECTION ( 'NONE',  ( 1.224646799147353200E-016, 0.0000000000000000000, -1.000000000000000000 ) ) ;
#154 = DIRECTION ( 'NONE',  ( -1.000000000000000000, 0.0000000000000000000, 0.0000000000000000000 ) ) ;
#155 = CARTESIAN_POINT ( 'NONE',  ( 3.469446951953614200E-015, -3.061616997868384600E-016, 13.49999999999999600 ) ) ;
#156 = CARTESIAN_POINT ( 'NONE',  ( 9.000000000000001800, 3.061616997868383600E-016, 9.499999999999998200 ) ) ;
#157 = CARTESIAN_POINT ( 'NONE',  ( -3.999999999999993300, 3.061616997868384600E-016, -9.499999999999944900 ) ) ;
#158 = CARTESIAN_POINT ( 'NONE',  ( -3.999999999999994700, 3.061616997868384600E-016, 9.500000000000001800 ) ) ;
#159 = CARTESIAN_POINT ( 'NONE',  ( 9.000000000000001800, 3.061616997868382600E-016, -9.499999999999998200 ) ) ;
#160 = CARTESIAN_POINT ( 'NONE',  ( -8.999999999999994700, 0.0000000000000000000, 9.500000000000001800 ) ) ;
#161 = CARTESIAN_POINT ( 'NONE',  ( 4.000000000000000000, 0.0000000000000000000, -9.499999999999998200 ) ) ;
#162 = CARTESIAN_POINT ( 'NONE',  ( 4.000000000000001800, 0.0000000000000000000, 9.499999999999998200 ) ) ;
#163 = CARTESIAN_POINT ( 'NONE',  ( 3.469446951953614200E-015, 0.0000000000000000000, 18.49999999999999600 ) ) ;
#164 = CARTESIAN_POINT ( 'NONE',  ( -8.999999999999994700, 0.0000000000000000000, -9.499999999999872100 ) ) ;
#165 =( LENGTH_UNIT ( ) NAMED_UNIT ( * ) SI_UNIT ( .MILLI., .METRE. ) );
#166 =( NAMED_UNIT ( * ) PLANE_ANGLE_UNIT ( ) SI_UNIT ( $, .RADIAN. ) );
#167 =( NAMED_UNIT ( * ) SI_UNIT ( $, .STERADIAN. ) SOLID_ANGLE_UNIT ( ) );
#168 = CARTESIAN_POINT ( 'NONE',  ( 0.0000000000000000000, 0.0000000000000000000, 0.0000000000000000000 ) ) ;
#169 = DIRECTION ( 'NONE',  ( 0.0000000000000000000, 0.0000000000000000000, 1.000000000000000000 ) ) ;
#170 = DIRECTION ( 'NONE',  ( 1.000000000000000000, 0.0000000000000000000, 0.0000000000000000000 ) ) ;
#171 = APPLICATION_CONTEXT ( 'configuration controlled 3d designs of mechanical parts and assemblies' ) ;
#172 = APPLICATION_PROTOCOL_DEFINITION ( 'international standard', 'config_control_design', 1994, #171 ) ;
#173 = MECHANICAL_CONTEXT ( 'NONE', #171, 'mechanical' ) ;
#174 = PERSON_AND_ORGANIZATION_ROLE ( 'design_owner' ) ;
#175 = APPLICATION_CONTEXT ( 'configuration controlled 3d designs of mechanical parts and assemblies' ) ;
#176 = APPLICATION_PROTOCOL_DEFINITION ( 'international standard', 'config_control_design', 1994, #175 ) ;
#177 = APPROVAL_STATUS ( 'not_yet_approved' ) ;
#178 = APPROVAL_ROLE ( '' ) ;
#179 = PERSON_AND_ORGANIZATION_ROLE ( 'creator' ) ;
#180 = DATE_TIME_ROLE ( 'creation_date' ) ;
#181 = APPROVAL_STATUS ( 'not_yet_approved' ) ;
#182 = APPROVAL_ROLE ( '' ) ;
#183 = PERSON_AND_ORGANIZATION_ROLE ( 'creator' ) ;
#184 = PERSON_AND_ORGANIZATION_ROLE ( 'design_supplier' ) ;
#185 = SECURITY_CLASSIFICATION_LEVEL ( 'unclassified' ) ;
#186 = PERSON_AND_ORGANIZATION_ROLE ( 'classification_officer' ) ;
#187 = DATE_TIME_ROLE ( 'classification_date' ) ;
#188 = APPROVAL_STATUS ( 'not_yet_approved' ) ;
#189 = APPROVAL_ROLE ( '' ) ;
#190 = EDGE_CURVE ( 'NONE', #242, #250, #36, .T. ) ;
#191 = EDGE_CURVE ( 'NONE', #247, #242, #32, .T. ) ;
#192 = EDGE_CURVE ( 'NONE', #241, #246, #17, .T. ) ;
#193 = EDGE_CURVE ( 'NONE', #241, #238, #40, .T. ) ;
#194 =( GEOMETRIC_REPRESENTATION_CONTEXT ( 3 ) GLOBAL_UNCERTAINTY_ASSIGNED_CONTEXT ( ( #43 ) ) GLOBAL_UNIT_ASSIGNED_CONTEXT ( ( #165, #166, #167 ) ) REPRESENTATION_CONTEXT ( 'NONE', 'WORKASPACE' ) );
#195 = EDGE_CURVE ( 'NONE', #249, #238, #10, .T. ) ;
#196 = EDGE_CURVE ( 'NONE', #239, #242, #264, .T. ) ;
#197 = EDGE_CURVE ( 'NONE', #248, #247, #265, .T. ) ;
#198 = ADVANCED_FACE ( 'NONE', ( #266 ), #262, .T. ) ;
#199 = ADVANCED_FACE ( 'NONE', ( #267 ), #11, .T. ) ;
#200 = EDGE_CURVE ( 'NONE', #246, #249, #1, .T. ) ;
#201 = ADVANCED_FACE ( 'NONE', ( #268 ), #8, .T. ) ;
#202 = ADVANCED_FACE ( 'NONE', ( #263 ), #24, .T. ) ;
#203 = ADVANCED_FACE ( 'NONE', ( #279 ), #5, .T. ) ;
#204 = ADVANCED_FACE ( 'NONE', ( #278 ), #280, .T. ) ;
#205 = ADVANCED_FACE ( 'NONE', ( #273 ), #38, .T. ) ;
#206 = ADVANCED_FACE ( 'NONE', ( #277 ), #276, .T. ) ;
#207 = ADVANCED_FACE ( 'NONE', ( #270 ), #21, .T. ) ;
#208 = ADVANCED_FACE ( 'NONE', ( #272 ), #271, .T. ) ;
#209 = EDGE_CURVE ( 'NONE', #249, #239, #20, .T. ) ;
#210 = EDGE_CURVE ( 'NONE', #238, #248, #30, .T. ) ;
#211 = EDGE_CURVE ( 'NONE', #248, #239, #39, .T. ) ;
#212 = EDGE_CURVE ( 'NONE', #247, #240, #16, .T. ) ;
#213 = EDGE_CURVE ( 'NONE', #240, #250, #228, .T. ) ;
#214 = EDGE_CURVE ( 'NONE', #241, #240, #281, .T. ) ;
#215 = EDGE_CURVE ( 'NONE', #246, #250, #269, .T. ) ;
#216 = EDGE_CURVE ( 'NONE', #246, #241, #233, .T. ) ;
#217 = EDGE_CURVE ( 'NONE', #238, #249, #35, .T. ) ;
#218 = EDGE_CURVE ( 'NONE', #242, #247, #3, .T. ) ;
#219 = EDGE_CURVE ( 'NONE', #250, #240, #232, .T. ) ;
#220 = EDGE_CURVE ( 'NONE', #239, #248, #229, .T. ) ;
#221 = LOCAL_TIME ( 15, 16, 36.00000000000000000, #320 ) ;
#222 = LOCAL_TIME ( 15, 16, 36.00000000000000000, #325 ) ;
#223 = LOCAL_TIME ( 15, 16, 36.00000000000000000, #330 ) ;
#224 = LOCAL_TIME ( 15, 16, 36.00000000000000000, #337 ) ;
#225 = LOCAL_TIME ( 15, 16, 36.00000000000000000, #342 ) ;
#226 = AXIS2_PLACEMENT_3D ( 'NONE', #143, #144, #145 ) ;
#227 = AXIS2_PLACEMENT_3D ( 'NONE', #133, #134, #135 ) ;
#228 = CIRCLE ( 'NONE', #227, 2.500000000000000400 ) ;
#229 = CIRCLE ( 'NONE', #66, 2.499999999999999600 ) ;
#230 = AXIS2_PLACEMENT_3D ( 'NONE', #140, #141, #142 ) ;
#231 = VECTOR ( 'NONE', #139, 1000.000000000000000 ) ;
#232 = CIRCLE ( 'NONE', #68, 2.500000000000000400 ) ;
#233 = CIRCLE ( 'NONE', #230, 2.499999999999999600 ) ;
#234 = AXIS2_PLACEMENT_3D ( 'NONE', #146, #147, #148 ) ;
#235 = VECTOR ( 'NONE', #137, 1000.000000000000000 ) ;
#236 = ORIENTED_EDGE ( 'NONE', *, *, #190, .F. ) ;
#237 = ORIENTED_EDGE ( 'NONE', *, *, #197, .F. ) ;
#238 = VERTEX_POINT ( 'NONE', #155 ) ;
#239 = VERTEX_POINT ( 'NONE', #156 ) ;
#240 = VERTEX_POINT ( 'NONE', #157 ) ;
#241 = VERTEX_POINT ( 'NONE', #158 ) ;
#242 = VERTEX_POINT ( 'NONE', #159 ) ;
#243 = ORIENTED_EDGE ( 'NONE', *, *, #218, .T. ) ;
#244 = ORIENTED_EDGE ( 'NONE', *, *, #215, .T. ) ;
#245 = ORIENTED_EDGE ( 'NONE', *, *, #216, .F. ) ;
#246 = VERTEX_POINT ( 'NONE', #160 ) ;
#247 = VERTEX_POINT ( 'NONE', #161 ) ;
#248 = VERTEX_POINT ( 'NONE', #162 ) ;
#249 = VERTEX_POINT ( 'NONE', #163 ) ;
#250 = VERTEX_POINT ( 'NONE', #164 ) ;
#251 = EDGE_LOOP ( 'NONE', ( #289, #288, #290, #286 ) ) ;
#252 = EDGE_LOOP ( 'NONE', ( #275, #245, #244, #283 ) ) ;
#253 = CLOSED_SHELL ( 'NONE', ( #201, #202, #203, #204, #205, #206, #207, #208, #199, #198 ) ) ;
#254 = EDGE_LOOP ( 'NONE', ( #236, #243, #311, #291 ) ) ;
#255 = EDGE_LOOP ( 'NONE', ( #314, #315, #313, #237 ) ) ;
#256 = EDGE_LOOP ( 'NONE', ( #285, #284, #282, #287 ) ) ;
#257 = EDGE_LOOP ( 'NONE', ( #293, #292, #294, #312 ) ) ;
#258 = EDGE_LOOP ( 'NONE', ( #302, #303, #304, #300 ) ) ;
#259 = EDGE_LOOP ( 'NONE', ( #305, #308, #306, #309 ) ) ;
#260 = EDGE_LOOP ( 'NONE', ( #310, #301, #299, #307 ) ) ;
#261 = EDGE_LOOP ( 'NONE', ( #297, #296, #298, #295 ) ) ;
#262 = CYLINDRICAL_SURFACE ( 'NONE', #12, 2.499999999999999600 ) ;
#263 = FACE_OUTER_BOUND ( 'NONE', #260, .T. ) ;
#264 = LINE ( 'NONE', #84, #9 ) ;
#265 = LINE ( 'NONE', #86, #25 ) ;
#266 = FACE_OUTER_BOUND ( 'NONE', #252, .T. ) ;
#267 = FACE_OUTER_BOUND ( 'NONE', #256, .T. ) ;
#268 = FACE_OUTER_BOUND ( 'NONE', #259, .T. ) ;
#269 = LINE ( 'NONE', #138, #231 ) ;
#270 = FACE_OUTER_BOUND ( 'NONE', #254, .T. ) ;
#271 = CYLINDRICAL_SURFACE ( 'NONE', #14, 2.499999999999999600 ) ;
#272 = FACE_OUTER_BOUND ( 'NONE', #251, .T. ) ;
#273 = FACE_OUTER_BOUND ( 'NONE', #257, .T. ) ;
#274 = ORGANIZATION ( 'UNSPECIFIED', 'UNSPECIFIED', '' ) ;
#275 = ORIENTED_EDGE ( 'NONE', *, *, #214, .F. ) ;
#276 = CYLINDRICAL_SURFACE ( 'NONE', #6, 2.499999999999999600 ) ;
#277 = FACE_OUTER_BOUND ( 'NONE', #255, .T. ) ;
#278 = FACE_OUTER_BOUND ( 'NONE', #261, .T. ) ;
#279 = FACE_OUTER_BOUND ( 'NONE', #258, .T. ) ;
#280 = CYLINDRICAL_SURFACE ( 'NONE', #13, 2.499999999999999600 ) ;
#281 = LINE ( 'NONE', #136, #235 ) ;
#282 = ORIENTED_EDGE ( 'NONE', *, *, #210, .T. ) ;
#283 = ORIENTED_EDGE ( 'NONE', *, *, #219, .T. ) ;
#284 = ORIENTED_EDGE ( 'NONE', *, *, #217, .F. ) ;
#285 = ORIENTED_EDGE ( 'NONE', *, *, #209, .F. ) ;
#286 = ORIENTED_EDGE ( 'NONE', *, *, #218, .F. ) ;
#287 = ORIENTED_EDGE ( 'NONE', *, *, #220, .F. ) ;
#288 = ORIENTED_EDGE ( 'NONE', *, *, #220, .T. ) ;
#289 = ORIENTED_EDGE ( 'NONE', *, *, #196, .F. ) ;
#290 = ORIENTED_EDGE ( 'NONE', *, *, #197, .T. ) ;
#291 = ORIENTED_EDGE ( 'NONE', *, *, #219, .F. ) ;
#292 = ORIENTED_EDGE ( 'NONE', *, *, #216, .T. ) ;
#293 = ORIENTED_EDGE ( 'NONE', *, *, #200, .F. ) ;
#294 = ORIENTED_EDGE ( 'NONE', *, *, #193, .T. ) ;
#295 = ORIENTED_EDGE ( 'NONE', *, *, #215, .F. ) ;
#296 = ORIENTED_EDGE ( 'NONE', *, *, #214, .T. ) ;
#297 = ORIENTED_EDGE ( 'NONE', *, *, #192, .F. ) ;
#298 = ORIENTED_EDGE ( 'NONE', *, *, #213, .T. ) ;
#299 = ORIENTED_EDGE ( 'NONE', *, *, #213, .F. ) ;
#300 = ORIENTED_EDGE ( 'NONE', *, *, #193, .F. ) ;
#301 = ORIENTED_EDGE ( 'NONE', *, *, #190, .T. ) ;
#302 = ORIENTED_EDGE ( 'NONE', *, *, #192, .T. ) ;
#303 = ORIENTED_EDGE ( 'NONE', *, *, #200, .T. ) ;
#304 = ORIENTED_EDGE ( 'NONE', *, *, #195, .T. ) ;
#305 = ORIENTED_EDGE ( 'NONE', *, *, #195, .F. ) ;
#306 = ORIENTED_EDGE ( 'NONE', *, *, #211, .F. ) ;
#307 = ORIENTED_EDGE ( 'NONE', *, *, #212, .F. ) ;
#308 = ORIENTED_EDGE ( 'NONE', *, *, #209, .T. ) ;
#309 = ORIENTED_EDGE ( 'NONE', *, *, #210, .F. ) ;
#310 = ORIENTED_EDGE ( 'NONE', *, *, #191, .T. ) ;
#311 = ORIENTED_EDGE ( 'NONE', *, *, #212, .T. ) ;
#312 = ORIENTED_EDGE ( 'NONE', *, *, #217, .T. ) ;
#313 = ORIENTED_EDGE ( 'NONE', *, *, #191, .F. ) ;
#314 = ORIENTED_EDGE ( 'NONE', *, *, #211, .T. ) ;
#315 = ORIENTED_EDGE ( 'NONE', *, *, #196, .T. ) ;
#316 = SHAPE_DEFINITION_REPRESENTATION ( #47, #63 ) ;
#317 = PERSON_AND_ORGANIZATION ( #45, #274 ) ;
#318 = PERSON_AND_ORGANIZATION ( #45, #274 ) ;
#319 = APPROVAL_PERSON_ORGANIZATION ( #318, #55, #178 ) ;
#320 = COORDINATED_UNIVERSAL_TIME_OFFSET ( 9, 0, .AHEAD. ) ;
#321 = CALENDAR_DATE ( 2011, 29, 6 ) ;
#322 = DATE_AND_TIME ( #321, #221 ) ;
#323 = APPROVAL_DATE_TIME ( #322, #55 ) ;
#324 = PERSON_AND_ORGANIZATION ( #45, #274 ) ;
#325 = COORDINATED_UNIVERSAL_TIME_OFFSET ( 9, 0, .AHEAD. ) ;
#326 = CALENDAR_DATE ( 2011, 29, 6 ) ;
#327 = DATE_AND_TIME ( #326, #222 ) ;
#328 = PERSON_AND_ORGANIZATION ( #45, #274 ) ;
#329 = APPROVAL_PERSON_ORGANIZATION ( #328, #53, #182 ) ;
#330 = COORDINATED_UNIVERSAL_TIME_OFFSET ( 9, 0, .AHEAD. ) ;
#331 = CALENDAR_DATE ( 2011, 29, 6 ) ;
#332 = DATE_AND_TIME ( #331, #223 ) ;
#333 = APPROVAL_DATE_TIME ( #332, #53 ) ;
#334 = PERSON_AND_ORGANIZATION ( #45, #274 ) ;
#335 = PERSON_AND_ORGANIZATION ( #45, #274 ) ;
#336 = PERSON_AND_ORGANIZATION ( #45, #274 ) ;
#337 = COORDINATED_UNIVERSAL_TIME_OFFSET ( 9, 0, .AHEAD. ) ;
#338 = CALENDAR_DATE ( 2011, 29, 6 ) ;
#339 = DATE_AND_TIME ( #338, #224 ) ;
#340 = PERSON_AND_ORGANIZATION ( #45, #274 ) ;
#341 = APPROVAL_PERSON_ORGANIZATION ( #340, #52, #189 ) ;
#342 = COORDINATED_UNIVERSAL_TIME_OFFSET ( 9, 0, .AHEAD. ) ;
#343 = CALENDAR_DATE ( 2011, 29, 6 ) ;
#344 = DATE_AND_TIME ( #343, #225 ) ;
#345 = APPROVAL_DATE_TIME ( #344, #52 ) ;
ENDSEC;
END-ISO-10303-21;
