ISO-10303-21;
HEADER;
FILE_DESCRIPTION (( 'STEP AP203' ),
    '1' );
FILE_NAME ('B-1123-Ó4.STEP',
    '2011-06-29T06:14:06',
    ( '11sw' ),
    ( '^LQ»¢®ïÐ' ),
    'SwSTEP 2.0',
    'SolidWorks 2011',
    '' );
FILE_SCHEMA (( 'CONFIG_CONTROL_DESIGN' ));
ENDSEC;

DATA;
#1 = AXIS2_PLACEMENT_3D ( 'NONE', #125, #126, #127 ) ;
#2 = TOROIDAL_SURFACE ( 'NONE', #6, 5.249999999999999100, 2.000000000000000400 ) ;
#3 = TOROIDAL_SURFACE ( 'NONE', #19, 5.249999999999998200, 2.000000000000000400 ) ;
#4 = CIRCLE ( 'NONE', #15, 2.000000000000000400 ) ;
#5 = AXIS2_PLACEMENT_3D ( 'NONE', #114, #113, #112 ) ;
#6 = AXIS2_PLACEMENT_3D ( 'NONE', #93, #79, #86 ) ;
#7 = CIRCLE ( 'NONE', #49, 2.000000000000000400 ) ;
#8 = AXIS2_PLACEMENT_3D ( 'NONE', #108, #107, #106 ) ;
#9 = TOROIDAL_SURFACE ( 'NONE', #20, 5.249999999999998200, 2.000000000000000400 ) ;
#10 = AXIS2_PLACEMENT_3D ( 'NONE', #128, #129, #130 ) ;
#11 = CIRCLE ( 'NONE', #8, 7.250000000000000900 ) ;
#12 = AXIS2_PLACEMENT_3D ( 'NONE', #85, #87, #89 ) ;
#13 = CIRCLE ( 'NONE', #40, 2.000000000000000400 ) ;
#14 = AXIS2_PLACEMENT_3D ( 'NONE', #99, #98, #97 ) ;
#15 = AXIS2_PLACEMENT_3D ( 'NONE', #111, #110, #109 ) ;
#16 = AXIS2_PLACEMENT_3D ( 'NONE', #88, #92, #90 ) ;
#17 = CIRCLE ( 'NONE', #10, 2.000000000000000400 ) ;
#18 = CIRCLE ( 'NONE', #23, 3.249999999999997800 ) ;
#19 = AXIS2_PLACEMENT_3D ( 'NONE', #96, #95, #94 ) ;
#20 = AXIS2_PLACEMENT_3D ( 'NONE', #80, #84, #83 ) ;
#21 = CIRCLE ( 'NONE', #25, 3.249999999999999600 ) ;
#22 = TOROIDAL_SURFACE ( 'NONE', #14, 5.249999999999999100, 2.000000000000000400 ) ;
#23 = AXIS2_PLACEMENT_3D ( 'NONE', #105, #104, #103 ) ;
#24 = AXIS2_PLACEMENT_3D ( 'NONE', #81, #91, #82 ) ;
#25 = AXIS2_PLACEMENT_3D ( 'NONE', #131, #132, #133 ) ;
#26 = VECTOR ( 'NONE', #117, 1000.000000000000000 ) ;
#27 = CIRCLE ( 'NONE', #31, 2.000000000000000400 ) ;
#28 = TOROIDAL_SURFACE ( 'NONE', #32, 5.249999999999999100, 2.000000000000000400 ) ;
#29 = CIRCLE ( 'NONE', #33, 7.249999999999999100 ) ;
#30 = CIRCLE ( 'NONE', #5, 3.249999999999999600 ) ;
#31 = AXIS2_PLACEMENT_3D ( 'NONE', #102, #101, #100 ) ;
#32 = AXIS2_PLACEMENT_3D ( 'NONE', #122, #123, #124 ) ;
#33 = AXIS2_PLACEMENT_3D ( 'NONE', #134, #135, #136 ) ;
#34 = VECTOR ( 'NONE', #115, 1000.000000000000000 ) ;
#35 = TOROIDAL_SURFACE ( 'NONE', #16, 5.249999999999999100, 2.000000000000000400 ) ;
#36 = AXIS2_PLACEMENT_3D ( 'NONE', #120, #119, #121 ) ;
#37 = CIRCLE ( 'NONE', #38, 2.000000000000001800 ) ;
#38 = AXIS2_PLACEMENT_3D ( 'NONE', #137, #138, #139 ) ;
#39 = CIRCLE ( 'NONE', #47, 2.000000000000000400 ) ;
#40 = AXIS2_PLACEMENT_3D ( 'NONE', #140, #141, #142 ) ;
#41 = CIRCLE ( 'NONE', #45, 2.000000000000000400 ) ;
#42 = CIRCLE ( 'NONE', #50, 2.000000000000000400 ) ;
#43 = VECTOR ( 'NONE', #144, 1000.000000000000000 ) ;
#44 = VECTOR ( 'NONE', #146, 1000.000000000000000 ) ;
#45 = AXIS2_PLACEMENT_3D ( 'NONE', #147, #148, #149 ) ;
#46 = CIRCLE ( 'NONE', #51, 2.000000000000001800 ) ;
#47 = AXIS2_PLACEMENT_3D ( 'NONE', #150, #151, #152 ) ;
#48 = CIRCLE ( 'NONE', #52, 7.250000000000000900 ) ;
#49 = AXIS2_PLACEMENT_3D ( 'NONE', #153, #154, #155 ) ;
#50 = AXIS2_PLACEMENT_3D ( 'NONE', #156, #157, #158 ) ;
#51 = AXIS2_PLACEMENT_3D ( 'NONE', #159, #160, #161 ) ;
#52 = AXIS2_PLACEMENT_3D ( 'NONE', #162, #163, #164 ) ;
#53 = AXIS2_PLACEMENT_3D ( 'NONE', #178, #179, #180 ) ;
#54 = CC_DESIGN_PERSON_AND_ORGANIZATION_ASSIGNMENT ( #317, #184, ( #75 ) ) ;
#55 = PRODUCT_DEFINITION ( 'UNKNOWN', '', #60, #72 ) ;
#56 = APPROVAL ( #187, 'UNSPECIFIED' ) ;
#57 = CC_DESIGN_APPROVAL ( #56, ( #55 ) ) ;
#58 = CC_DESIGN_PERSON_AND_ORGANIZATION_ASSIGNMENT ( #324, #189, ( #55 ) ) ;
#59 = CC_DESIGN_DATE_AND_TIME_ASSIGNMENT ( #327, #190, ( #55 ) ) ;
#60 = PRODUCT_DEFINITION_FORMATION_WITH_SPECIFIED_SOURCE ( 'ANY', '', #75, .NOT_KNOWN. ) ;
#61 = APPROVAL ( #191, 'UNSPECIFIED' ) ;
#62 = CC_DESIGN_APPROVAL ( #61, ( #60 ) ) ;
#63 = CC_DESIGN_PERSON_AND_ORGANIZATION_ASSIGNMENT ( #334, #193, ( #60 ) ) ;
#64 = CC_DESIGN_PERSON_AND_ORGANIZATION_ASSIGNMENT ( #335, #194, ( #60 ) ) ;
#65 = SECURITY_CLASSIFICATION ( '', '', #195 ) ;
#66 = CC_DESIGN_PERSON_AND_ORGANIZATION_ASSIGNMENT ( #336, #196, ( #65 ) ) ;
#67 = CC_DESIGN_DATE_AND_TIME_ASSIGNMENT ( #339, #197, ( #65 ) ) ;
#68 = APPROVAL ( #198, 'UNSPECIFIED' ) ;
#69 = CC_DESIGN_APPROVAL ( #68, ( #65 ) ) ;
#70 = CC_DESIGN_SECURITY_CLASSIFICATION ( #65, ( #60 ) ) ;
#71 = PRODUCT_RELATED_PRODUCT_CATEGORY ( 'detail', '', ( #75 ) ) ;
#72 = DESIGN_CONTEXT ( 'detailed design', #185, 'design' ) ;
#73 = PRODUCT_DEFINITION_SHAPE ( 'NONE', 'NONE',  #55 ) ;
#74 = PERSON ( 'UNSPECIFIED', 'UNSPECIFIED', 'UNSPECIFIED', ('UNSPECIFIED'), ('UNSPECIFIED'), ('UNSPECIFIED') ) ;
#75 = PRODUCT ( 'B-1123-Ó4', 'B-1123-Ó4', '', ( #183 ) ) ;
#76 = UNCERTAINTY_MEASURE_WITH_UNIT (LENGTH_MEASURE( 1.000000000000000100E-005 ), #175, 'distance_accuracy_value', 'NONE');
#77 = ADVANCED_BREP_SHAPE_REPRESENTATION ( 'B-1123-Ó4', ( #78, #53 ), #220 ) ;
#78 = MANIFOLD_SOLID_BREP ( '½²°Ìß1', #263 ) ;
#79 = DIRECTION ( 'NONE',  ( -0.0000000000000000000, 1.000000000000000000, -0.0000000000000000000 ) ) ;
#80 = CARTESIAN_POINT ( 'NONE',  ( 3.469446951953614200E-015, 0.0000000000000000000, -9.750000000000000000 ) ) ;
#81 = CARTESIAN_POINT ( 'NONE',  ( 5.250000000000002700, 0.0000000000000000000, 9.749999999999998200 ) ) ;
#82 = DIRECTION ( 'NONE',  ( -1.000000000000000000, 0.0000000000000000000, 0.0000000000000000000 ) ) ;
#83 = DIRECTION ( 'NONE',  ( 0.0000000000000000000, 0.0000000000000000000, 1.000000000000000000 ) ) ;
#84 = DIRECTION ( 'NONE',  ( -0.0000000000000000000, 1.000000000000000000, -0.0000000000000000000 ) ) ;
#85 = CARTESIAN_POINT ( 'NONE',  ( -5.249999999999995600, 0.0000000000000000000, 4.750000000000000000 ) ) ;
#86 = DIRECTION ( 'NONE',  ( 0.0000000000000000000, 0.0000000000000000000, 1.000000000000000000 ) ) ;
#87 = DIRECTION ( 'NONE',  ( -0.0000000000000000000, -0.0000000000000000000, -1.000000000000000000 ) ) ;
#88 = CARTESIAN_POINT ( 'NONE',  ( 3.469446951953614200E-015, 0.0000000000000000000, 9.750000000000000000 ) ) ;
#89 = DIRECTION ( 'NONE',  ( -1.000000000000000000, 0.0000000000000000000, 0.0000000000000000000 ) ) ;
#90 = DIRECTION ( 'NONE',  ( 0.0000000000000000000, 0.0000000000000000000, 1.000000000000000000 ) ) ;
#91 = DIRECTION ( 'NONE',  ( -4.448008912761044700E-017, 0.0000000000000000000, -1.000000000000000000 ) ) ;
#92 = DIRECTION ( 'NONE',  ( -0.0000000000000000000, 1.000000000000000000, -0.0000000000000000000 ) ) ;
#93 = CARTESIAN_POINT ( 'NONE',  ( 3.469446951953614200E-015, 0.0000000000000000000, 9.750000000000000000 ) ) ;
#94 = DIRECTION ( 'NONE',  ( 0.0000000000000000000, 0.0000000000000000000, 1.000000000000000000 ) ) ;
#95 = DIRECTION ( 'NONE',  ( -0.0000000000000000000, 1.000000000000000000, -0.0000000000000000000 ) ) ;
#96 = CARTESIAN_POINT ( 'NONE',  ( 3.469446951953614200E-015, 0.0000000000000000000, -9.750000000000000000 ) ) ;
#97 = DIRECTION ( 'NONE',  ( 0.0000000000000000000, 0.0000000000000000000, 1.000000000000000000 ) ) ;
#98 = DIRECTION ( 'NONE',  ( -0.0000000000000000000, 1.000000000000000000, -0.0000000000000000000 ) ) ;
#99 = CARTESIAN_POINT ( 'NONE',  ( 3.469446951953614200E-015, 0.0000000000000000000, 9.750000000000000000 ) ) ;
#100 = DIRECTION ( 'NONE',  ( 1.000000000000000000, 0.0000000000000000000, -1.474514954580285700E-014 ) ) ;
#101 = DIRECTION ( 'NONE',  ( 1.441001456522259600E-014, 0.0000000000000000000, 1.000000000000000000 ) ) ;
#102 = CARTESIAN_POINT ( 'NONE',  ( -5.249999999999995600, 0.0000000000000000000, -9.749999999999925400 ) ) ;
#103 = DIRECTION ( 'NONE',  ( 0.0000000000000000000, 0.0000000000000000000, 1.000000000000000000 ) ) ;
#104 = DIRECTION ( 'NONE',  ( -0.0000000000000000000, 1.000000000000000000, -0.0000000000000000000 ) ) ;
#105 = CARTESIAN_POINT ( 'NONE',  ( 3.469446951953614200E-015, -2.449293598294706900E-016, -9.750000000000000000 ) ) ;
#106 = DIRECTION ( 'NONE',  ( 0.0000000000000000000, 0.0000000000000000000, 1.000000000000000000 ) ) ;
#107 = DIRECTION ( 'NONE',  ( -0.0000000000000000000, 1.000000000000000000, -0.0000000000000000000 ) ) ;
#108 = CARTESIAN_POINT ( 'NONE',  ( 3.469446951953614200E-015, 0.0000000000000000000, 9.750000000000000000 ) ) ;
#109 = DIRECTION ( 'NONE',  ( 1.000000000000000000, 0.0000000000000000000, 0.0000000000000000000 ) ) ;
#110 = DIRECTION ( 'NONE',  ( 0.0000000000000000000, 0.0000000000000000000, 1.000000000000000000 ) ) ;
#111 = CARTESIAN_POINT ( 'NONE',  ( -5.249999999999995600, 0.0000000000000000000, 9.750000000000001800 ) ) ;
#112 = DIRECTION ( 'NONE',  ( 0.0000000000000000000, 0.0000000000000000000, 1.000000000000000000 ) ) ;
#113 = DIRECTION ( 'NONE',  ( -0.0000000000000000000, 1.000000000000000000, -0.0000000000000000000 ) ) ;
#114 = CARTESIAN_POINT ( 'NONE',  ( 3.469446951953614200E-015, -2.449293598294706900E-016, 9.750000000000000000 ) ) ;
#115 = DIRECTION ( 'NONE',  ( -0.0000000000000000000, -0.0000000000000000000, -1.000000000000000000 ) ) ;
#116 = CARTESIAN_POINT ( 'NONE',  ( -3.249999999999995600, 2.449293598294706900E-016, 4.750000000000000000 ) ) ;
#117 = DIRECTION ( 'NONE',  ( -0.0000000000000000000, -0.0000000000000000000, -1.000000000000000000 ) ) ;
#118 = CARTESIAN_POINT ( 'NONE',  ( -7.249999999999996400, 0.0000000000000000000, 4.750000000000000000 ) ) ;
#119 = DIRECTION ( 'NONE',  ( -4.448008912761044700E-017, 0.0000000000000000000, -1.000000000000000000 ) ) ;
#120 = CARTESIAN_POINT ( 'NONE',  ( 5.250000000000002700, 0.0000000000000000000, 9.749999999999998200 ) ) ;
#121 = DIRECTION ( 'NONE',  ( -1.000000000000000000, 0.0000000000000000000, 0.0000000000000000000 ) ) ;
#122 = CARTESIAN_POINT ( 'NONE',  ( 3.469446951953614200E-015, 0.0000000000000000000, 9.750000000000000000 ) ) ;
#123 = DIRECTION ( 'NONE',  ( -0.0000000000000000000, 1.000000000000000000, -0.0000000000000000000 ) ) ;
#124 = DIRECTION ( 'NONE',  ( 0.0000000000000000000, 0.0000000000000000000, 1.000000000000000000 ) ) ;
#125 = CARTESIAN_POINT ( 'NONE',  ( -5.249999999999995600, 0.0000000000000000000, 4.750000000000000000 ) ) ;
#126 = DIRECTION ( 'NONE',  ( -0.0000000000000000000, -0.0000000000000000000, -1.000000000000000000 ) ) ;
#127 = DIRECTION ( 'NONE',  ( -1.000000000000000000, 0.0000000000000000000, 0.0000000000000000000 ) ) ;
#128 = CARTESIAN_POINT ( 'NONE',  ( 5.250000000000002700, 0.0000000000000000000, 9.749999999999998200 ) ) ;
#129 = DIRECTION ( 'NONE',  ( 1.224646799147353200E-016, 0.0000000000000000000, -1.000000000000000000 ) ) ;
#130 = DIRECTION ( 'NONE',  ( -1.000000000000000000, 0.0000000000000000000, 0.0000000000000000000 ) ) ;
#131 = CARTESIAN_POINT ( 'NONE',  ( 3.469446951953614200E-015, -2.449293598294706900E-016, 9.750000000000000000 ) ) ;
#132 = DIRECTION ( 'NONE',  ( -0.0000000000000000000, 1.000000000000000000, -0.0000000000000000000 ) ) ;
#133 = DIRECTION ( 'NONE',  ( 0.0000000000000000000, 0.0000000000000000000, 1.000000000000000000 ) ) ;
#134 = CARTESIAN_POINT ( 'NONE',  ( 3.469446951953614200E-015, 0.0000000000000000000, -9.750000000000000000 ) ) ;
#135 = DIRECTION ( 'NONE',  ( -0.0000000000000000000, 1.000000000000000000, -0.0000000000000000000 ) ) ;
#136 = DIRECTION ( 'NONE',  ( 0.0000000000000000000, 0.0000000000000000000, 1.000000000000000000 ) ) ;
#137 = CARTESIAN_POINT ( 'NONE',  ( 3.469446951953614200E-015, 0.0000000000000000000, 15.00000000000000000 ) ) ;
#138 = DIRECTION ( 'NONE',  ( -1.000000000000000000, 0.0000000000000000000, 0.0000000000000000000 ) ) ;
#139 = DIRECTION ( 'NONE',  ( 0.0000000000000000000, 0.0000000000000000000, 1.000000000000000000 ) ) ;
#140 = CARTESIAN_POINT ( 'NONE',  ( -5.249999999999995600, 0.0000000000000000000, 9.750000000000001800 ) ) ;
#141 = DIRECTION ( 'NONE',  ( 0.0000000000000000000, 0.0000000000000000000, 1.000000000000000000 ) ) ;
#142 = DIRECTION ( 'NONE',  ( 1.000000000000000000, 0.0000000000000000000, 0.0000000000000000000 ) ) ;
#143 = CARTESIAN_POINT ( 'NONE',  ( 3.250000000000002700, 0.0000000000000000000, 9.749999999999998200 ) ) ;
#144 = DIRECTION ( 'NONE',  ( -4.448008912761044700E-017, 0.0000000000000000000, -1.000000000000000000 ) ) ;
#145 = CARTESIAN_POINT ( 'NONE',  ( 7.250000000000002700, 2.449293598294706900E-016, 9.749999999999998200 ) ) ;
#146 = DIRECTION ( 'NONE',  ( -4.448008912761044700E-017, 0.0000000000000000000, -1.000000000000000000 ) ) ;
#147 = CARTESIAN_POINT ( 'NONE',  ( 5.250000000000001800, 0.0000000000000000000, -9.749999999999998200 ) ) ;
#148 = DIRECTION ( 'NONE',  ( 1.224646799147353200E-016, 0.0000000000000000000, -1.000000000000000000 ) ) ;
#149 = DIRECTION ( 'NONE',  ( -1.000000000000000000, 0.0000000000000000000, 0.0000000000000000000 ) ) ;
#150 = CARTESIAN_POINT ( 'NONE',  ( -5.249999999999995600, 0.0000000000000000000, -9.749999999999925400 ) ) ;
#151 = DIRECTION ( 'NONE',  ( 1.441001456522259600E-014, 0.0000000000000000000, 1.000000000000000000 ) ) ;
#152 = DIRECTION ( 'NONE',  ( 1.000000000000000000, 0.0000000000000000000, -1.474514954580285700E-014 ) ) ;
#153 = CARTESIAN_POINT ( 'NONE',  ( 5.250000000000002700, 0.0000000000000000000, 9.749999999999998200 ) ) ;
#154 = DIRECTION ( 'NONE',  ( 1.224646799147353200E-016, 0.0000000000000000000, -1.000000000000000000 ) ) ;
#155 = DIRECTION ( 'NONE',  ( -1.000000000000000000, 0.0000000000000000000, 0.0000000000000000000 ) ) ;
#156 = CARTESIAN_POINT ( 'NONE',  ( 5.250000000000001800, 0.0000000000000000000, -9.749999999999998200 ) ) ;
#157 = DIRECTION ( 'NONE',  ( 1.224646799147353200E-016, 0.0000000000000000000, -1.000000000000000000 ) ) ;
#158 = DIRECTION ( 'NONE',  ( -1.000000000000000000, 0.0000000000000000000, 0.0000000000000000000 ) ) ;
#159 = CARTESIAN_POINT ( 'NONE',  ( 3.469446951953614200E-015, 0.0000000000000000000, 15.00000000000000000 ) ) ;
#160 = DIRECTION ( 'NONE',  ( -1.000000000000000000, 0.0000000000000000000, 0.0000000000000000000 ) ) ;
#161 = DIRECTION ( 'NONE',  ( 0.0000000000000000000, 0.0000000000000000000, 1.000000000000000000 ) ) ;
#162 = CARTESIAN_POINT ( 'NONE',  ( 3.469446951953614200E-015, 0.0000000000000000000, 9.750000000000000000 ) ) ;
#163 = DIRECTION ( 'NONE',  ( -0.0000000000000000000, 1.000000000000000000, -0.0000000000000000000 ) ) ;
#164 = DIRECTION ( 'NONE',  ( 0.0000000000000000000, 0.0000000000000000000, 1.000000000000000000 ) ) ;
#165 = CARTESIAN_POINT ( 'NONE',  ( 3.469446951953614200E-015, -2.449293598294707400E-016, 13.00000000000000000 ) ) ;
#166 = CARTESIAN_POINT ( 'NONE',  ( 3.469446951953614200E-015, 0.0000000000000000000, 17.00000000000000000 ) ) ;
#167 = CARTESIAN_POINT ( 'NONE',  ( 7.250000000000002700, 2.449293598294706400E-016, -9.749999999999998200 ) ) ;
#168 = CARTESIAN_POINT ( 'NONE',  ( -3.249999999999994700, 2.449293598294707900E-016, -9.749999999999955600 ) ) ;
#169 = CARTESIAN_POINT ( 'NONE',  ( -7.249999999999996400, 0.0000000000000000000, 9.750000000000001800 ) ) ;
#170 = CARTESIAN_POINT ( 'NONE',  ( -3.249999999999995600, 2.449293598294706900E-016, 9.750000000000001800 ) ) ;
#171 = CARTESIAN_POINT ( 'NONE',  ( 7.250000000000002700, 2.449293598294707400E-016, 9.749999999999998200 ) ) ;
#172 = CARTESIAN_POINT ( 'NONE',  ( -7.249999999999996400, 0.0000000000000000000, -9.749999999999895200 ) ) ;
#173 = CARTESIAN_POINT ( 'NONE',  ( 3.250000000000001800, 0.0000000000000000000, -9.749999999999998200 ) ) ;
#174 = CARTESIAN_POINT ( 'NONE',  ( 3.250000000000002700, 0.0000000000000000000, 9.749999999999998200 ) ) ;
#175 =( LENGTH_UNIT ( ) NAMED_UNIT ( * ) SI_UNIT ( .MILLI., .METRE. ) );
#176 =( NAMED_UNIT ( * ) PLANE_ANGLE_UNIT ( ) SI_UNIT ( $, .RADIAN. ) );
#177 =( NAMED_UNIT ( * ) SI_UNIT ( $, .STERADIAN. ) SOLID_ANGLE_UNIT ( ) );
#178 = CARTESIAN_POINT ( 'NONE',  ( 0.0000000000000000000, 0.0000000000000000000, 0.0000000000000000000 ) ) ;
#179 = DIRECTION ( 'NONE',  ( 0.0000000000000000000, 0.0000000000000000000, 1.000000000000000000 ) ) ;
#180 = DIRECTION ( 'NONE',  ( 1.000000000000000000, 0.0000000000000000000, 0.0000000000000000000 ) ) ;
#181 = APPLICATION_CONTEXT ( 'configuration controlled 3d designs of mechanical parts and assemblies' ) ;
#182 = APPLICATION_PROTOCOL_DEFINITION ( 'international standard', 'config_control_design', 1994, #181 ) ;
#183 = MECHANICAL_CONTEXT ( 'NONE', #181, 'mechanical' ) ;
#184 = PERSON_AND_ORGANIZATION_ROLE ( 'design_owner' ) ;
#185 = APPLICATION_CONTEXT ( 'configuration controlled 3d designs of mechanical parts and assemblies' ) ;
#186 = APPLICATION_PROTOCOL_DEFINITION ( 'international standard', 'config_control_design', 1994, #185 ) ;
#187 = APPROVAL_STATUS ( 'not_yet_approved' ) ;
#188 = APPROVAL_ROLE ( '' ) ;
#189 = PERSON_AND_ORGANIZATION_ROLE ( 'creator' ) ;
#190 = DATE_TIME_ROLE ( 'creation_date' ) ;
#191 = APPROVAL_STATUS ( 'not_yet_approved' ) ;
#192 = APPROVAL_ROLE ( '' ) ;
#193 = PERSON_AND_ORGANIZATION_ROLE ( 'creator' ) ;
#194 = PERSON_AND_ORGANIZATION_ROLE ( 'design_supplier' ) ;
#195 = SECURITY_CLASSIFICATION_LEVEL ( 'unclassified' ) ;
#196 = PERSON_AND_ORGANIZATION_ROLE ( 'classification_officer' ) ;
#197 = DATE_TIME_ROLE ( 'classification_date' ) ;
#198 = APPROVAL_STATUS ( 'not_yet_approved' ) ;
#199 = APPROVAL_ROLE ( '' ) ;
#200 = EDGE_CURVE ( 'NONE', #267, #270, #250, .T. ) ;
#201 = EDGE_CURVE ( 'NONE', #268, #266, #248, .T. ) ;
#202 = EDGE_CURVE ( 'NONE', #268, #261, #30, .T. ) ;
#203 = EDGE_CURVE ( 'NONE', #268, #267, #4, .T. ) ;
#204 = EDGE_CURVE ( 'NONE', #267, #264, #11, .T. ) ;
#205 = EDGE_CURVE ( 'NONE', #271, #266, #18, .T. ) ;
#206 = EDGE_CURVE ( 'NONE', #266, #270, #27, .T. ) ;
#207 = ADVANCED_FACE ( 'NONE', ( #247 ), #22, .T. ) ;
#208 = ADVANCED_FACE ( 'NONE', ( #249 ), #3, .T. ) ;
#209 = ADVANCED_FACE ( 'NONE', ( #246 ), #2, .T. ) ;
#210 = ADVANCED_FACE ( 'NONE', ( #237 ), #251, .T. ) ;
#211 = ADVANCED_FACE ( 'NONE', ( #245 ), #35, .T. ) ;
#212 = ADVANCED_FACE ( 'NONE', ( #242 ), #281, .T. ) ;
#213 = ADVANCED_FACE ( 'NONE', ( #238 ), #9, .T. ) ;
#214 = ADVANCED_FACE ( 'NONE', ( #236 ), #282, .T. ) ;
#215 = ADVANCED_FACE ( 'NONE', ( #243 ), #28, .T. ) ;
#216 = ADVANCED_FACE ( 'NONE', ( #280 ), #239, .T. ) ;
#217 = EDGE_CURVE ( 'NONE', #272, #269, #17, .T. ) ;
#218 = EDGE_CURVE ( 'NONE', #261, #272, #21, .T. ) ;
#219 = EDGE_CURVE ( 'NONE', #265, #270, #29, .T. ) ;
#220 =( GEOMETRIC_REPRESENTATION_CONTEXT ( 3 ) GLOBAL_UNCERTAINTY_ASSIGNED_CONTEXT ( ( #76 ) ) GLOBAL_UNIT_ASSIGNED_CONTEXT ( ( #175, #176, #177 ) ) REPRESENTATION_CONTEXT ( 'NONE', 'WORKASPACE' ) );
#221 = EDGE_CURVE ( 'NONE', #261, #264, #37, .T. ) ;
#222 = EDGE_CURVE ( 'NONE', #267, #268, #13, .T. ) ;
#223 = EDGE_CURVE ( 'NONE', #272, #271, #240, .T. ) ;
#224 = EDGE_CURVE ( 'NONE', #269, #265, #241, .T. ) ;
#225 = EDGE_CURVE ( 'NONE', #265, #271, #41, .T. ) ;
#226 = EDGE_CURVE ( 'NONE', #270, #266, #39, .T. ) ;
#227 = EDGE_CURVE ( 'NONE', #269, #272, #7, .T. ) ;
#228 = EDGE_CURVE ( 'NONE', #271, #265, #42, .T. ) ;
#229 = EDGE_CURVE ( 'NONE', #264, #261, #46, .T. ) ;
#230 = EDGE_CURVE ( 'NONE', #264, #269, #48, .T. ) ;
#231 = LOCAL_TIME ( 15, 14, 6.000000000000000000, #320 ) ;
#232 = LOCAL_TIME ( 15, 14, 6.000000000000000000, #325 ) ;
#233 = LOCAL_TIME ( 15, 14, 6.000000000000000000, #330 ) ;
#234 = LOCAL_TIME ( 15, 14, 6.000000000000000000, #337 ) ;
#235 = LOCAL_TIME ( 15, 14, 6.000000000000000000, #342 ) ;
#236 = FACE_OUTER_BOUND ( 'NONE', #259, .T. ) ;
#237 = FACE_OUTER_BOUND ( 'NONE', #252, .T. ) ;
#238 = FACE_OUTER_BOUND ( 'NONE', #256, .T. ) ;
#239 = CYLINDRICAL_SURFACE ( 'NONE', #1, 2.000000000000000000 ) ;
#240 = LINE ( 'NONE', #143, #43 ) ;
#241 = LINE ( 'NONE', #145, #44 ) ;
#242 = FACE_OUTER_BOUND ( 'NONE', #253, .T. ) ;
#243 = FACE_OUTER_BOUND ( 'NONE', #260, .T. ) ;
#244 = ORGANIZATION ( 'UNSPECIFIED', 'UNSPECIFIED', '' ) ;
#245 = FACE_OUTER_BOUND ( 'NONE', #254, .T. ) ;
#246 = FACE_OUTER_BOUND ( 'NONE', #255, .T. ) ;
#247 = FACE_OUTER_BOUND ( 'NONE', #257, .T. ) ;
#248 = LINE ( 'NONE', #116, #34 ) ;
#249 = FACE_OUTER_BOUND ( 'NONE', #258, .T. ) ;
#250 = LINE ( 'NONE', #118, #26 ) ;
#251 = CYLINDRICAL_SURFACE ( 'NONE', #12, 2.000000000000000000 ) ;
#252 = EDGE_LOOP ( 'NONE', ( #303, #302, #304, #299 ) ) ;
#253 = EDGE_LOOP ( 'NONE', ( #295, #294, #296, #293 ) ) ;
#254 = EDGE_LOOP ( 'NONE', ( #300, #298, #301, #297 ) ) ;
#255 = EDGE_LOOP ( 'NONE', ( #308, #305, #306, #307 ) ) ;
#256 = EDGE_LOOP ( 'NONE', ( #291, #290, #292, #289 ) ) ;
#257 = EDGE_LOOP ( 'NONE', ( #273, #314, #313, #312 ) ) ;
#258 = EDGE_LOOP ( 'NONE', ( #315, #310, #311, #309 ) ) ;
#259 = EDGE_LOOP ( 'NONE', ( #287, #286, #288, #284 ) ) ;
#260 = EDGE_LOOP ( 'NONE', ( #283, #279, #278, #285 ) ) ;
#261 = VERTEX_POINT ( 'NONE', #165 ) ;
#262 = EDGE_LOOP ( 'NONE', ( #276, #275, #274, #277 ) ) ;
#263 = CLOSED_SHELL ( 'NONE', ( #207, #208, #209, #210, #211, #212, #213, #214, #215, #216 ) ) ;
#264 = VERTEX_POINT ( 'NONE', #166 ) ;
#265 = VERTEX_POINT ( 'NONE', #167 ) ;
#266 = VERTEX_POINT ( 'NONE', #168 ) ;
#267 = VERTEX_POINT ( 'NONE', #169 ) ;
#268 = VERTEX_POINT ( 'NONE', #170 ) ;
#269 = VERTEX_POINT ( 'NONE', #171 ) ;
#270 = VERTEX_POINT ( 'NONE', #172 ) ;
#271 = VERTEX_POINT ( 'NONE', #173 ) ;
#272 = VERTEX_POINT ( 'NONE', #174 ) ;
#273 = ORIENTED_EDGE ( 'NONE', *, *, #229, .F. ) ;
#274 = ORIENTED_EDGE ( 'NONE', *, *, #200, .T. ) ;
#275 = ORIENTED_EDGE ( 'NONE', *, *, #222, .F. ) ;
#276 = ORIENTED_EDGE ( 'NONE', *, *, #201, .F. ) ;
#277 = ORIENTED_EDGE ( 'NONE', *, *, #226, .T. ) ;
#278 = ORIENTED_EDGE ( 'NONE', *, *, #218, .T. ) ;
#279 = ORIENTED_EDGE ( 'NONE', *, *, #221, .F. ) ;
#280 = FACE_OUTER_BOUND ( 'NONE', #262, .T. ) ;
#281 = CYLINDRICAL_SURFACE ( 'NONE', #24, 2.000000000000000400 ) ;
#282 = CYLINDRICAL_SURFACE ( 'NONE', #36, 2.000000000000000400 ) ;
#283 = ORIENTED_EDGE ( 'NONE', *, *, #230, .F. ) ;
#284 = ORIENTED_EDGE ( 'NONE', *, *, #225, .F. ) ;
#285 = ORIENTED_EDGE ( 'NONE', *, *, #227, .F. ) ;
#286 = ORIENTED_EDGE ( 'NONE', *, *, #227, .T. ) ;
#287 = ORIENTED_EDGE ( 'NONE', *, *, #224, .F. ) ;
#288 = ORIENTED_EDGE ( 'NONE', *, *, #223, .T. ) ;
#289 = ORIENTED_EDGE ( 'NONE', *, *, #226, .F. ) ;
#290 = ORIENTED_EDGE ( 'NONE', *, *, #225, .T. ) ;
#291 = ORIENTED_EDGE ( 'NONE', *, *, #219, .F. ) ;
#292 = ORIENTED_EDGE ( 'NONE', *, *, #205, .T. ) ;
#293 = ORIENTED_EDGE ( 'NONE', *, *, #223, .F. ) ;
#294 = ORIENTED_EDGE ( 'NONE', *, *, #224, .T. ) ;
#295 = ORIENTED_EDGE ( 'NONE', *, *, #217, .T. ) ;
#296 = ORIENTED_EDGE ( 'NONE', *, *, #228, .F. ) ;
#297 = ORIENTED_EDGE ( 'NONE', *, *, #221, .T. ) ;
#298 = ORIENTED_EDGE ( 'NONE', *, *, #222, .T. ) ;
#299 = ORIENTED_EDGE ( 'NONE', *, *, #200, .F. ) ;
#300 = ORIENTED_EDGE ( 'NONE', *, *, #204, .F. ) ;
#301 = ORIENTED_EDGE ( 'NONE', *, *, #202, .T. ) ;
#302 = ORIENTED_EDGE ( 'NONE', *, *, #201, .T. ) ;
#303 = ORIENTED_EDGE ( 'NONE', *, *, #203, .F. ) ;
#304 = ORIENTED_EDGE ( 'NONE', *, *, #206, .T. ) ;
#305 = ORIENTED_EDGE ( 'NONE', *, *, #204, .T. ) ;
#306 = ORIENTED_EDGE ( 'NONE', *, *, #229, .T. ) ;
#307 = ORIENTED_EDGE ( 'NONE', *, *, #202, .F. ) ;
#308 = ORIENTED_EDGE ( 'NONE', *, *, #203, .T. ) ;
#309 = ORIENTED_EDGE ( 'NONE', *, *, #205, .F. ) ;
#310 = ORIENTED_EDGE ( 'NONE', *, *, #219, .T. ) ;
#311 = ORIENTED_EDGE ( 'NONE', *, *, #206, .F. ) ;
#312 = ORIENTED_EDGE ( 'NONE', *, *, #218, .F. ) ;
#313 = ORIENTED_EDGE ( 'NONE', *, *, #217, .F. ) ;
#314 = ORIENTED_EDGE ( 'NONE', *, *, #230, .T. ) ;
#315 = ORIENTED_EDGE ( 'NONE', *, *, #228, .T. ) ;
#316 = SHAPE_DEFINITION_REPRESENTATION ( #73, #77 ) ;
#317 = PERSON_AND_ORGANIZATION ( #74, #244 ) ;
#318 = PERSON_AND_ORGANIZATION ( #74, #244 ) ;
#319 = APPROVAL_PERSON_ORGANIZATION ( #318, #56, #188 ) ;
#320 = COORDINATED_UNIVERSAL_TIME_OFFSET ( 9, 0, .AHEAD. ) ;
#321 = CALENDAR_DATE ( 2011, 29, 6 ) ;
#322 = DATE_AND_TIME ( #321, #231 ) ;
#323 = APPROVAL_DATE_TIME ( #322, #56 ) ;
#324 = PERSON_AND_ORGANIZATION ( #74, #244 ) ;
#325 = COORDINATED_UNIVERSAL_TIME_OFFSET ( 9, 0, .AHEAD. ) ;
#326 = CALENDAR_DATE ( 2011, 29, 6 ) ;
#327 = DATE_AND_TIME ( #326, #232 ) ;
#328 = PERSON_AND_ORGANIZATION ( #74, #244 ) ;
#329 = APPROVAL_PERSON_ORGANIZATION ( #328, #61, #192 ) ;
#330 = COORDINATED_UNIVERSAL_TIME_OFFSET ( 9, 0, .AHEAD. ) ;
#331 = CALENDAR_DATE ( 2011, 29, 6 ) ;
#332 = DATE_AND_TIME ( #331, #233 ) ;
#333 = APPROVAL_DATE_TIME ( #332, #61 ) ;
#334 = PERSON_AND_ORGANIZATION ( #74, #244 ) ;
#335 = PERSON_AND_ORGANIZATION ( #74, #244 ) ;
#336 = PERSON_AND_ORGANIZATION ( #74, #244 ) ;
#337 = COORDINATED_UNIVERSAL_TIME_OFFSET ( 9, 0, .AHEAD. ) ;
#338 = CALENDAR_DATE ( 2011, 29, 6 ) ;
#339 = DATE_AND_TIME ( #338, #234 ) ;
#340 = PERSON_AND_ORGANIZATION ( #74, #244 ) ;
#341 = APPROVAL_PERSON_ORGANIZATION ( #340, #68, #199 ) ;
#342 = COORDINATED_UNIVERSAL_TIME_OFFSET ( 9, 0, .AHEAD. ) ;
#343 = CALENDAR_DATE ( 2011, 29, 6 ) ;
#344 = DATE_AND_TIME ( #343, #235 ) ;
#345 = APPROVAL_DATE_TIME ( #344, #68 ) ;
ENDSEC;
END-ISO-10303-21;
