ISO-10303-21;
HEADER;
FILE_DESCRIPTION (( 'STEP AP203' ),
    '1' );
FILE_NAME ('AC-25-W-6.STEP',
    '2008-10-16T07:36:15',
    ( ' ' ),
    ( ' ' ),
    'SwSTEP 2.0',
    'SolidWorks 2007',
    '' );
FILE_SCHEMA (( 'CONFIG_CONTROL_DESIGN' ));
ENDSEC;

DATA;
#1 = DATE_TIME_ROLE ( 'classification_date' ) ;
#2 = DATE_AND_TIME ( #181, #182 ) ;
#3 = PERSON_AND_ORGANIZATION ( #12, #11 ) ;
#4 = PRODUCT_DEFINITION ( 'UNKNOWN', '', #206, #5 ) ;
#5 = DESIGN_CONTEXT ( 'detailed design', #7, 'design' ) ;
#6 = APPLICATION_PROTOCOL_DEFINITION ( 'international standard', 'config_control_design', 1994, #7 ) ;
#7 = APPLICATION_CONTEXT ( 'configuration controlled 3d designs of mechanical parts and assemblies' ) ;
#8 = CC_DESIGN_PERSON_AND_ORGANIZATION_ASSIGNMENT ( #10, #9, ( #13 ) ) ;
#9 = PERSON_AND_ORGANIZATION_ROLE ( 'design_owner' ) ;
#10 = PERSON_AND_ORGANIZATION ( #12, #11 ) ;
#11 = ORGANIZATION ( 'UNSPECIFIED', 'UNSPECIFIED', '' ) ;
#12 = PERSON ( 'UNSPECIFIED', 'UNSPECIFIED', 'UNSPECIFIED', ('UNSPECIFIED'), ('UNSPECIFIED'), ('UNSPECIFIED') ) ;
#13 = PRODUCT ( 'AC-25-W-6', 'AC-25-W-6', '', ( #14 ) ) ;
#14 = MECHANICAL_CONTEXT ( 'NONE', #16, 'mechanical' ) ;
#15 = APPLICATION_PROTOCOL_DEFINITION ( 'international standard', 'config_control_design', 1994, #16 ) ;
#16 = APPLICATION_CONTEXT ( 'configuration controlled 3d designs of mechanical parts and assemblies' ) ;
#17 = DIRECTION ( 'NONE',  ( 1.000000000000000000, 0.0000000000000000000, 0.0000000000000000000 ) ) ;
#18 = CARTESIAN_POINT ( 'NONE',  ( 0.0000000000000000000, 0.0000000000000000000, 0.0000000000000000000 ) ) ;
#19 = AXIS2_PLACEMENT_3D ( 'NONE', #18, #179, #17 ) ;
#20 = ADVANCED_BREP_SHAPE_REPRESENTATION ( 'AC-25-W-6', ( #180, #19 ), #21 ) ;
#21 =( GEOMETRIC_REPRESENTATION_CONTEXT ( 3 ) GLOBAL_UNCERTAINTY_ASSIGNED_CONTEXT ( ( #22 ) ) GLOBAL_UNIT_ASSIGNED_CONTEXT ( ( #178, #24, #23 ) ) REPRESENTATION_CONTEXT ( 'NONE', 'WORKASPACE' ) );
#22 = UNCERTAINTY_MEASURE_WITH_UNIT (LENGTH_MEASURE( 1.000000000000000100E-005 ), #178, 'distance_accuracy_value', 'NONE');
#23 =( NAMED_UNIT ( * ) SI_UNIT ( $, .STERADIAN. ) SOLID_ANGLE_UNIT ( ) );
#24 =( NAMED_UNIT ( * ) PLANE_ANGLE_UNIT ( ) SI_UNIT ( $, .RADIAN. ) );
#25 = DIRECTION ( 'NONE',  ( -0.7071067811865476800, -0.7071067811865474600, 0.0000000000000000000 ) ) ;
#26 = DIRECTION ( 'NONE',  ( -0.7071067811865474600, 0.7071067811865476800, 0.0000000000000000000 ) ) ;
#27 = CARTESIAN_POINT ( 'NONE',  ( 2.110788730906945900E-016, 7.071067811865471100, -0.5000000000000000000 ) ) ;
#28 = AXIS2_PLACEMENT_3D ( 'NONE', #27, #26, #25 ) ;
#29 = PLANE ( 'NONE',  #28 ) ;
#30 = FACE_OUTER_BOUND ( 'NONE', #304, .T. ) ;
#31 = DIRECTION ( 'NONE',  ( 0.0000000000000000000, 0.0000000000000000000, 1.000000000000000000 ) ) ;
#32 = VECTOR ( 'NONE', #31, 1000.000000000000000 ) ;
#33 = CARTESIAN_POINT ( 'NONE',  ( -7.071067811865473700, -9.563419954719456100E-016, -0.5000000000000000000 ) ) ;
#34 = LINE ( 'NONE', #33, #32 ) ;
#35 = DIRECTION ( 'NONE',  ( 0.7071067811865474600, -0.7071067811865476800, 0.0000000000000000000 ) ) ;
#36 = DIRECTION ( 'NONE',  ( -0.7071067811865476800, -0.7071067811865474600, 0.0000000000000000000 ) ) ;
#37 = CARTESIAN_POINT ( 'NONE',  ( -7.071067811865473700, -9.563419954719456100E-016, -0.5000000000000000000 ) ) ;
#38 = AXIS2_PLACEMENT_3D ( 'NONE', #37, #36, #35 ) ;
#39 = PLANE ( 'NONE',  #38 ) ;
#40 = FACE_OUTER_BOUND ( 'NONE', #297, .T. ) ;
#41 = DIRECTION ( 'NONE',  ( 0.0000000000000000000, 0.0000000000000000000, 1.000000000000000000 ) ) ;
#42 = VECTOR ( 'NONE', #41, 1000.000000000000000 ) ;
#43 = CARTESIAN_POINT ( 'NONE',  ( 2.110788730906942400E-016, -7.071067811865476400, -0.5000000000000000000 ) ) ;
#44 = LINE ( 'NONE', #43, #42 ) ;
#45 = DIRECTION ( 'NONE',  ( 0.7071067811865474600, 0.7071067811865474600, 0.0000000000000000000 ) ) ;
#46 = DIRECTION ( 'NONE',  ( 0.7071067811865475700, -0.7071067811865475700, 0.0000000000000000000 ) ) ;
#47 = CARTESIAN_POINT ( 'NONE',  ( 2.110788730906942400E-016, -7.071067811865476400, -0.5000000000000000000 ) ) ;
#48 = AXIS2_PLACEMENT_3D ( 'NONE', #47, #46, #45 ) ;
#49 = PLANE ( 'NONE',  #48 ) ;
#50 = FACE_OUTER_BOUND ( 'NONE', #290, .T. ) ;
#51 = DIRECTION ( 'NONE',  ( 0.0000000000000000000, 0.0000000000000000000, 1.000000000000000000 ) ) ;
#52 = VECTOR ( 'NONE', #51, 1000.000000000000000 ) ;
#53 = CARTESIAN_POINT ( 'NONE',  ( 7.071067811865475500, 0.0000000000000000000, -0.5000000000000000000 ) ) ;
#54 = LINE ( 'NONE', #53, #52 ) ;
#55 = DIRECTION ( 'NONE',  ( 0.0000000000000000000, 0.0000000000000000000, 1.000000000000000000 ) ) ;
#56 = VECTOR ( 'NONE', #55, 1000.000000000000000 ) ;
#57 = CARTESIAN_POINT ( 'NONE',  ( 2.110788730906945900E-016, 7.071067811865471100, -0.5000000000000000000 ) ) ;
#58 = LINE ( 'NONE', #57, #56 ) ;
#59 = CARTESIAN_POINT ( 'NONE',  ( -7.071067811865474600, -4.336808689942017700E-016, -0.5000000000000000000 ) ) ;
#60 = CARTESIAN_POINT ( 'NONE',  ( 7.071067811865475500, 0.0000000000000000000, -0.5000000000000000000 ) ) ;
#61 = DIRECTION ( 'NONE',  ( 1.000000000000000000, 0.0000000000000000000, 0.0000000000000000000 ) ) ;
#62 = DIRECTION ( 'NONE',  ( 0.0000000000000000000, 0.0000000000000000000, 1.000000000000000000 ) ) ;
#63 = CARTESIAN_POINT ( 'NONE',  ( 0.0000000000000000000, 0.0000000000000000000, -0.5000000000000000000 ) ) ;
#64 = AXIS2_PLACEMENT_3D ( 'NONE', #63, #62, #61 ) ;
#65 = PLANE ( 'NONE',  #64 ) ;
#66 = FACE_OUTER_BOUND ( 'NONE', #259, .T. ) ;
#67 = FACE_BOUND ( 'NONE', #281, .T. ) ;
#68 = DIRECTION ( 'NONE',  ( -0.7071067811865476800, -0.7071067811865474600, 0.0000000000000000000 ) ) ;
#69 = VECTOR ( 'NONE', #68, 1000.000000000000000 ) ;
#70 = CARTESIAN_POINT ( 'NONE',  ( 2.110788730906945900E-016, 7.071067811865471100, -0.5000000000000000000 ) ) ;
#71 = LINE ( 'NONE', #70, #69 ) ;
#72 = DIRECTION ( 'NONE',  ( -0.7071067811865477900, 0.7071067811865473500, 0.0000000000000000000 ) ) ;
#73 = VECTOR ( 'NONE', #72, 999.9999999999998900 ) ;
#74 = CARTESIAN_POINT ( 'NONE',  ( 7.071067811865475500, 0.0000000000000000000, -0.5000000000000000000 ) ) ;
#75 = LINE ( 'NONE', #74, #73 ) ;
#76 = DIRECTION ( 'NONE',  ( 1.000000000000000000, 0.0000000000000000000, 0.0000000000000000000 ) ) ;
#77 = DIRECTION ( 'NONE',  ( 0.0000000000000000000, 0.0000000000000000000, 1.000000000000000000 ) ) ;
#78 = CARTESIAN_POINT ( 'NONE',  ( 0.0000000000000000000, 0.0000000000000000000, 0.0000000000000000000 ) ) ;
#79 = AXIS2_PLACEMENT_3D ( 'NONE', #78, #77, #76 ) ;
#80 = CIRCLE ( 'NONE', #79, 11.25000000000000200 ) ;
#81 = DIRECTION ( 'NONE',  ( 1.000000000000000000, 0.0000000000000000000, 0.0000000000000000000 ) ) ;
#82 = DIRECTION ( 'NONE',  ( 0.0000000000000000000, 0.0000000000000000000, 1.000000000000000000 ) ) ;
#83 = CARTESIAN_POINT ( 'NONE',  ( 0.0000000000000000000, 0.0000000000000000000, -0.5000000000000000000 ) ) ;
#84 = AXIS2_PLACEMENT_3D ( 'NONE', #83, #82, #81 ) ;
#85 = CIRCLE ( 'NONE', #84, 11.25000000000000200 ) ;
#86 = CARTESIAN_POINT ( 'NONE',  ( 2.110788730906942400E-016, -7.071067811865476400, -0.5000000000000000000 ) ) ;
#87 = DIRECTION ( 'NONE',  ( 0.7071067811865474600, 0.7071067811865474600, 0.0000000000000000000 ) ) ;
#88 = VECTOR ( 'NONE', #87, 1000.000000000000100 ) ;
#89 = CARTESIAN_POINT ( 'NONE',  ( 2.110788730906942400E-016, -7.071067811865476400, -0.5000000000000000000 ) ) ;
#90 = LINE ( 'NONE', #89, #88 ) ;
#91 = DIRECTION ( 'NONE',  ( 0.7071067811865474600, -0.7071067811865476800, 0.0000000000000000000 ) ) ;
#92 = VECTOR ( 'NONE', #91, 1000.000000000000000 ) ;
#93 = CARTESIAN_POINT ( 'NONE',  ( -7.071067811865473700, -9.563419954719456100E-016, -0.5000000000000000000 ) ) ;
#94 = LINE ( 'NONE', #93, #92 ) ;
#95 = CARTESIAN_POINT ( 'NONE',  ( 2.110788730906945900E-016, 7.071067811865471100, -0.5000000000000000000 ) ) ;
#96 = DIRECTION ( 'NONE',  ( 1.000000000000000000, 0.0000000000000000000, 0.0000000000000000000 ) ) ;
#97 = DIRECTION ( 'NONE',  ( 0.0000000000000000000, 0.0000000000000000000, 1.000000000000000000 ) ) ;
#98 = CARTESIAN_POINT ( 'NONE',  ( 0.0000000000000000000, 0.0000000000000000000, 0.0000000000000000000 ) ) ;
#99 = AXIS2_PLACEMENT_3D ( 'NONE', #98, #97, #96 ) ;
#100 = PLANE ( 'NONE',  #99 ) ;
#101 = FACE_OUTER_BOUND ( 'NONE', #242, .T. ) ;
#102 = FACE_BOUND ( 'NONE', #260, .T. ) ;
#103 = CARTESIAN_POINT ( 'NONE',  ( 2.110788730906942400E-016, -7.071067811865476400, 0.0000000000000000000 ) ) ;
#104 = DIRECTION ( 'NONE',  ( 0.7071067811865474600, 0.7071067811865474600, 0.0000000000000000000 ) ) ;
#105 = VECTOR ( 'NONE', #104, 1000.000000000000100 ) ;
#106 = CARTESIAN_POINT ( 'NONE',  ( 2.110788730906942400E-016, -7.071067811865476400, 0.0000000000000000000 ) ) ;
#107 = LINE ( 'NONE', #106, #105 ) ;
#108 = CARTESIAN_POINT ( 'NONE',  ( 0.0000000000000000000, 7.071067811865471100, 0.0000000000000000000 ) ) ;
#109 = CARTESIAN_POINT ( 'NONE',  ( 7.071067811865475500, 0.0000000000000000000, 0.0000000000000000000 ) ) ;
#110 = DIRECTION ( 'NONE',  ( -0.7071067811865477900, 0.7071067811865473500, 0.0000000000000000000 ) ) ;
#111 = VECTOR ( 'NONE', #110, 999.9999999999998900 ) ;
#112 = CARTESIAN_POINT ( 'NONE',  ( 7.071067811865475500, 0.0000000000000000000, 0.0000000000000000000 ) ) ;
#113 = LINE ( 'NONE', #112, #111 ) ;
#114 = DIRECTION ( 'NONE',  ( -0.7071067811865476800, -0.7071067811865474600, 0.0000000000000000000 ) ) ;
#115 = VECTOR ( 'NONE', #114, 1000.000000000000000 ) ;
#116 = CARTESIAN_POINT ( 'NONE',  ( 2.110788730906945900E-016, 7.071067811865471100, 0.0000000000000000000 ) ) ;
#117 = LINE ( 'NONE', #116, #115 ) ;
#118 = CARTESIAN_POINT ( 'NONE',  ( -7.071067811865473700, -9.563419954719456100E-016, 0.0000000000000000000 ) ) ;
#119 = DIRECTION ( 'NONE',  ( 0.7071067811865474600, -0.7071067811865476800, 0.0000000000000000000 ) ) ;
#120 = VECTOR ( 'NONE', #119, 1000.000000000000000 ) ;
#121 = CARTESIAN_POINT ( 'NONE',  ( -7.071067811865473700, -9.563419954719456100E-016, 0.0000000000000000000 ) ) ;
#122 = DIRECTION ( 'NONE',  ( -0.7071067811865477900, 0.7071067811865473500, 0.0000000000000000000 ) ) ;
#123 = DIRECTION ( 'NONE',  ( 0.7071067811865473500, 0.7071067811865477900, 0.0000000000000000000 ) ) ;
#124 = CARTESIAN_POINT ( 'NONE',  ( 7.071067811865475500, 0.0000000000000000000, -0.5000000000000000000 ) ) ;
#125 = AXIS2_PLACEMENT_3D ( 'NONE', #124, #123, #122 ) ;
#126 = LINE ( 'NONE', #121, #120 ) ;
#127 = PLANE ( 'NONE',  #125 ) ;
#128 = FACE_OUTER_BOUND ( 'NONE', #245, .T. ) ;
#129 = CARTESIAN_POINT ( 'NONE',  ( 11.25000000000000200, 0.0000000000000000000, 0.0000000000000000000 ) ) ;
#130 = DIRECTION ( 'NONE',  ( 1.000000000000000000, 0.0000000000000000000, 0.0000000000000000000 ) ) ;
#131 = DIRECTION ( 'NONE',  ( 0.0000000000000000000, 0.0000000000000000000, 1.000000000000000000 ) ) ;
#132 = CARTESIAN_POINT ( 'NONE',  ( 0.0000000000000000000, 0.0000000000000000000, 0.0000000000000000000 ) ) ;
#133 = AXIS2_PLACEMENT_3D ( 'NONE', #132, #131, #130 ) ;
#134 = DIRECTION ( 'NONE',  ( 1.000000000000000000, 0.0000000000000000000, 0.0000000000000000000 ) ) ;
#135 = DIRECTION ( 'NONE',  ( 0.0000000000000000000, 0.0000000000000000000, 1.000000000000000000 ) ) ;
#136 = CARTESIAN_POINT ( 'NONE',  ( 0.0000000000000000000, 0.0000000000000000000, -0.5000000000000000000 ) ) ;
#137 = AXIS2_PLACEMENT_3D ( 'NONE', #136, #135, #134 ) ;
#138 = CIRCLE ( 'NONE', #133, 11.25000000000000200 ) ;
#139 = CYLINDRICAL_SURFACE ( 'NONE', #137, 11.25000000000000200 ) ;
#140 = FACE_OUTER_BOUND ( 'NONE', #270, .T. ) ;
#141 = DIRECTION ( 'NONE',  ( 0.0000000000000000000, 0.0000000000000000000, 1.000000000000000000 ) ) ;
#142 = VECTOR ( 'NONE', #141, 1000.000000000000000 ) ;
#143 = CARTESIAN_POINT ( 'NONE',  ( 11.25000000000000200, 0.0000000000000000000, -0.5000000000000000000 ) ) ;
#144 = LINE ( 'NONE', #143, #142 ) ;
#145 = CARTESIAN_POINT ( 'NONE',  ( -11.25000000000000200, 1.377727649040772600E-015, 0.0000000000000000000 ) ) ;
#146 = DIRECTION ( 'NONE',  ( 0.0000000000000000000, 0.0000000000000000000, 1.000000000000000000 ) ) ;
#147 = VECTOR ( 'NONE', #146, 1000.000000000000000 ) ;
#148 = CARTESIAN_POINT ( 'NONE',  ( -11.25000000000000200, 1.377727649040772600E-015, -0.5000000000000000000 ) ) ;
#149 = LINE ( 'NONE', #148, #147 ) ;
#150 = CARTESIAN_POINT ( 'NONE',  ( -11.25000000000000200, 1.377727649040772600E-015, -0.5000000000000000000 ) ) ;
#151 = CARTESIAN_POINT ( 'NONE',  ( 11.25000000000000200, 0.0000000000000000000, -0.5000000000000000000 ) ) ;
#152 = DIRECTION ( 'NONE',  ( 1.000000000000000000, 0.0000000000000000000, 0.0000000000000000000 ) ) ;
#153 = DIRECTION ( 'NONE',  ( 0.0000000000000000000, 0.0000000000000000000, 1.000000000000000000 ) ) ;
#154 = CARTESIAN_POINT ( 'NONE',  ( 0.0000000000000000000, 0.0000000000000000000, -0.5000000000000000000 ) ) ;
#155 = ADVANCED_FACE ( 'NONE', ( #177 ), #174, .T. ) ;
#156 = EDGE_LOOP ( 'NONE', ( #157, #161, #166, #169 ) ) ;
#157 = ORIENTED_EDGE ( 'NONE', *, *, #158, .T. ) ;
#158 = EDGE_CURVE ( 'NONE', #159, #160, #170, .T. ) ;
#159 = VERTEX_POINT ( 'NONE', #151 ) ;
#160 = VERTEX_POINT ( 'NONE', #150 ) ;
#161 = ORIENTED_EDGE ( 'NONE', *, *, #162, .T. ) ;
#162 = EDGE_CURVE ( 'NONE', #160, #163, #149, .T. ) ;
#163 = VERTEX_POINT ( 'NONE', #145 ) ;
#164 = EDGE_CURVE ( 'NONE', #159, #168, #144, .T. ) ;
#165 = ADVANCED_FACE ( 'NONE', ( #140 ), #139, .T. ) ;
#166 = ORIENTED_EDGE ( 'NONE', *, *, #167, .F. ) ;
#167 = EDGE_CURVE ( 'NONE', #168, #163, #138, .T. ) ;
#168 = VERTEX_POINT ( 'NONE', #129 ) ;
#169 = ORIENTED_EDGE ( 'NONE', *, *, #164, .F. ) ;
#170 = CIRCLE ( 'NONE', #175, 11.25000000000000200 ) ;
#171 = DIRECTION ( 'NONE',  ( 1.000000000000000000, 0.0000000000000000000, 0.0000000000000000000 ) ) ;
#172 = DIRECTION ( 'NONE',  ( 0.0000000000000000000, 0.0000000000000000000, 1.000000000000000000 ) ) ;
#173 = AXIS2_PLACEMENT_3D ( 'NONE', #176, #172, #171 ) ;
#174 = CYLINDRICAL_SURFACE ( 'NONE', #173, 11.25000000000000200 ) ;
#175 = AXIS2_PLACEMENT_3D ( 'NONE', #154, #153, #152 ) ;
#176 = CARTESIAN_POINT ( 'NONE',  ( 0.0000000000000000000, 0.0000000000000000000, -0.5000000000000000000 ) ) ;
#177 = FACE_OUTER_BOUND ( 'NONE', #156, .T. ) ;
#178 =( LENGTH_UNIT ( ) NAMED_UNIT ( * ) SI_UNIT ( .MILLI., .METRE. ) );
#179 = DIRECTION ( 'NONE',  ( 0.0000000000000000000, 0.0000000000000000000, 1.000000000000000000 ) ) ;
#180 = MANIFOLD_SOLID_BREP ( 'NONE', #309 ) ;
#181 = CALENDAR_DATE ( 2008, 16, 10 ) ;
#182 = LOCAL_TIME ( 16, 36, 15.00000000000000000, #183 ) ;
#183 = COORDINATED_UNIVERSAL_TIME_OFFSET ( 9, 0, .AHEAD. ) ;
#184 = CC_DESIGN_PERSON_AND_ORGANIZATION_ASSIGNMENT ( #186, #185, ( #187 ) ) ;
#185 = PERSON_AND_ORGANIZATION_ROLE ( 'classification_officer' ) ;
#186 = PERSON_AND_ORGANIZATION ( #12, #11 ) ;
#187 = SECURITY_CLASSIFICATION ( '', '', #188 ) ;
#188 = SECURITY_CLASSIFICATION_LEVEL ( 'unclassified' ) ;
#189 = CC_DESIGN_PERSON_AND_ORGANIZATION_ASSIGNMENT ( #191, #190, ( #206 ) ) ;
#190 = PERSON_AND_ORGANIZATION_ROLE ( 'design_supplier' ) ;
#191 = PERSON_AND_ORGANIZATION ( #12, #11 ) ;
#192 = CC_DESIGN_PERSON_AND_ORGANIZATION_ASSIGNMENT ( #194, #193, ( #206 ) ) ;
#193 = PERSON_AND_ORGANIZATION_ROLE ( 'creator' ) ;
#194 = PERSON_AND_ORGANIZATION ( #12, #11 ) ;
#195 = CC_DESIGN_APPROVAL ( #203, ( #206 ) ) ;
#196 = APPROVAL_DATE_TIME ( #197, #203 ) ;
#197 = DATE_AND_TIME ( #198, #199 ) ;
#198 = CALENDAR_DATE ( 2008, 16, 10 ) ;
#199 = LOCAL_TIME ( 16, 36, 15.00000000000000000, #200 ) ;
#200 = COORDINATED_UNIVERSAL_TIME_OFFSET ( 9, 0, .AHEAD. ) ;
#201 = APPROVAL_PERSON_ORGANIZATION ( #205, #203, #202 ) ;
#202 = APPROVAL_ROLE ( '' ) ;
#203 = APPROVAL ( #204, 'UNSPECIFIED' ) ;
#204 = APPROVAL_STATUS ( 'not_yet_approved' ) ;
#205 = PERSON_AND_ORGANIZATION ( #12, #11 ) ;
#206 = PRODUCT_DEFINITION_FORMATION_WITH_SPECIFIED_SOURCE ( 'ANY', '', #13, .NOT_KNOWN. ) ;
#207 = CC_DESIGN_DATE_AND_TIME_ASSIGNMENT ( #209, #208, ( #4 ) ) ;
#208 = DATE_TIME_ROLE ( 'creation_date' ) ;
#209 = DATE_AND_TIME ( #210, #211 ) ;
#210 = CALENDAR_DATE ( 2008, 16, 10 ) ;
#211 = LOCAL_TIME ( 16, 36, 15.00000000000000000, #212 ) ;
#212 = COORDINATED_UNIVERSAL_TIME_OFFSET ( 9, 0, .AHEAD. ) ;
#213 = CC_DESIGN_PERSON_AND_ORGANIZATION_ASSIGNMENT ( #215, #214, ( #4 ) ) ;
#214 = PERSON_AND_ORGANIZATION_ROLE ( 'creator' ) ;
#215 = PERSON_AND_ORGANIZATION ( #12, #11 ) ;
#216 = CC_DESIGN_APPROVAL ( #224, ( #4 ) ) ;
#217 = APPROVAL_DATE_TIME ( #218, #224 ) ;
#218 = DATE_AND_TIME ( #219, #220 ) ;
#219 = CALENDAR_DATE ( 2008, 16, 10 ) ;
#220 = LOCAL_TIME ( 16, 36, 15.00000000000000000, #221 ) ;
#221 = COORDINATED_UNIVERSAL_TIME_OFFSET ( 9, 0, .AHEAD. ) ;
#222 = APPROVAL_PERSON_ORGANIZATION ( #3, #224, #223 ) ;
#223 = APPROVAL_ROLE ( '' ) ;
#224 = APPROVAL ( #225, 'UNSPECIFIED' ) ;
#225 = APPROVAL_STATUS ( 'not_yet_approved' ) ;
#226 = APPROVAL ( #238, 'UNSPECIFIED' ) ;
#227 = APPROVAL_PERSON_ORGANIZATION ( #310, #226, #228 ) ;
#228 = APPROVAL_ROLE ( '' ) ;
#229 = APPROVAL_DATE_TIME ( #230, #226 ) ;
#230 = DATE_AND_TIME ( #231, #232 ) ;
#231 = CALENDAR_DATE ( 2008, 16, 10 ) ;
#232 = LOCAL_TIME ( 16, 36, 15.00000000000000000, #233 ) ;
#233 = COORDINATED_UNIVERSAL_TIME_OFFSET ( 9, 0, .AHEAD. ) ;
#234 = SHAPE_DEFINITION_REPRESENTATION ( #235, #20 ) ;
#235 = PRODUCT_DEFINITION_SHAPE ( 'NONE', 'NONE',  #4 ) ;
#236 = PRODUCT_RELATED_PRODUCT_CATEGORY ( 'detail', '', ( #13 ) ) ;
#237 = CC_DESIGN_SECURITY_CLASSIFICATION ( #187, ( #206 ) ) ;
#238 = APPROVAL_STATUS ( 'not_yet_approved' ) ;
#239 = CC_DESIGN_APPROVAL ( #226, ( #187 ) ) ;
#240 = ORIENTED_EDGE ( 'NONE', *, *, #252, .T. ) ;
#241 = ORIENTED_EDGE ( 'NONE', *, *, #285, .F. ) ;
#242 = EDGE_LOOP ( 'NONE', ( #243, #244 ) ) ;
#243 = ORIENTED_EDGE ( 'NONE', *, *, #167, .T. ) ;
#244 = ORIENTED_EDGE ( 'NONE', *, *, #276, .T. ) ;
#245 = EDGE_LOOP ( 'NONE', ( #240, #241, #286, #287 ) ) ;
#246 = ADVANCED_FACE ( 'NONE', ( #128 ), #127, .F. ) ;
#247 = EDGE_CURVE ( 'NONE', #248, #257, #126, .T. ) ;
#248 = VERTEX_POINT ( 'NONE', #118 ) ;
#249 = ORIENTED_EDGE ( 'NONE', *, *, #250, .F. ) ;
#250 = EDGE_CURVE ( 'NONE', #254, #248, #117, .T. ) ;
#251 = ORIENTED_EDGE ( 'NONE', *, *, #247, .F. ) ;
#252 = EDGE_CURVE ( 'NONE', #253, #254, #113, .T. ) ;
#253 = VERTEX_POINT ( 'NONE', #109 ) ;
#254 = VERTEX_POINT ( 'NONE', #108 ) ;
#255 = ORIENTED_EDGE ( 'NONE', *, *, #256, .F. ) ;
#256 = EDGE_CURVE ( 'NONE', #257, #253, #107, .T. ) ;
#257 = VERTEX_POINT ( 'NONE', #103 ) ;
#258 = ORIENTED_EDGE ( 'NONE', *, *, #158, .F. ) ;
#259 = EDGE_LOOP ( 'NONE', ( #258, #263 ) ) ;
#260 = EDGE_LOOP ( 'NONE', ( #262, #255, #251, #249 ) ) ;
#261 = ADVANCED_FACE ( 'NONE', ( #102, #101 ), #100, .T. ) ;
#262 = ORIENTED_EDGE ( 'NONE', *, *, #252, .F. ) ;
#263 = ORIENTED_EDGE ( 'NONE', *, *, #273, .F. ) ;
#264 = VERTEX_POINT ( 'NONE', #95 ) ;
#265 = ORIENTED_EDGE ( 'NONE', *, *, #279, .T. ) ;
#266 = ORIENTED_EDGE ( 'NONE', *, *, #267, .T. ) ;
#267 = EDGE_CURVE ( 'NONE', #284, #269, #94, .T. ) ;
#268 = EDGE_CURVE ( 'NONE', #269, #283, #90, .T. ) ;
#269 = VERTEX_POINT ( 'NONE', #86 ) ;
#270 = EDGE_LOOP ( 'NONE', ( #271, #272, #274, #275 ) ) ;
#271 = ORIENTED_EDGE ( 'NONE', *, *, #162, .F. ) ;
#272 = ORIENTED_EDGE ( 'NONE', *, *, #273, .T. ) ;
#273 = EDGE_CURVE ( 'NONE', #160, #159, #85, .T. ) ;
#274 = ORIENTED_EDGE ( 'NONE', *, *, #164, .T. ) ;
#275 = ORIENTED_EDGE ( 'NONE', *, *, #276, .F. ) ;
#276 = EDGE_CURVE ( 'NONE', #163, #168, #80, .T. ) ;
#277 = ORIENTED_EDGE ( 'NONE', *, *, #278, .T. ) ;
#278 = EDGE_CURVE ( 'NONE', #283, #264, #75, .T. ) ;
#279 = EDGE_CURVE ( 'NONE', #264, #284, #71, .T. ) ;
#280 = ADVANCED_FACE ( 'NONE', ( #67, #66 ), #65, .F. ) ;
#281 = EDGE_LOOP ( 'NONE', ( #282, #277, #265, #266 ) ) ;
#282 = ORIENTED_EDGE ( 'NONE', *, *, #268, .T. ) ;
#283 = VERTEX_POINT ( 'NONE', #60 ) ;
#284 = VERTEX_POINT ( 'NONE', #59 ) ;
#285 = EDGE_CURVE ( 'NONE', #264, #254, #58, .T. ) ;
#286 = ORIENTED_EDGE ( 'NONE', *, *, #278, .F. ) ;
#287 = ORIENTED_EDGE ( 'NONE', *, *, #288, .T. ) ;
#288 = EDGE_CURVE ( 'NONE', #283, #253, #54, .T. ) ;
#289 = ADVANCED_FACE ( 'NONE', ( #50 ), #49, .F. ) ;
#290 = EDGE_LOOP ( 'NONE', ( #291, #292, #293, #294 ) ) ;
#291 = ORIENTED_EDGE ( 'NONE', *, *, #256, .T. ) ;
#292 = ORIENTED_EDGE ( 'NONE', *, *, #288, .F. ) ;
#293 = ORIENTED_EDGE ( 'NONE', *, *, #268, .F. ) ;
#294 = ORIENTED_EDGE ( 'NONE', *, *, #295, .T. ) ;
#295 = EDGE_CURVE ( 'NONE', #269, #257, #44, .T. ) ;
#296 = ADVANCED_FACE ( 'NONE', ( #40 ), #39, .F. ) ;
#297 = EDGE_LOOP ( 'NONE', ( #298, #299, #300, #301 ) ) ;
#298 = ORIENTED_EDGE ( 'NONE', *, *, #247, .T. ) ;
#299 = ORIENTED_EDGE ( 'NONE', *, *, #295, .F. ) ;
#300 = ORIENTED_EDGE ( 'NONE', *, *, #267, .F. ) ;
#301 = ORIENTED_EDGE ( 'NONE', *, *, #302, .T. ) ;
#302 = EDGE_CURVE ( 'NONE', #284, #248, #34, .T. ) ;
#303 = ADVANCED_FACE ( 'NONE', ( #30 ), #29, .F. ) ;
#304 = EDGE_LOOP ( 'NONE', ( #305, #306, #307, #308 ) ) ;
#305 = ORIENTED_EDGE ( 'NONE', *, *, #250, .T. ) ;
#306 = ORIENTED_EDGE ( 'NONE', *, *, #302, .F. ) ;
#307 = ORIENTED_EDGE ( 'NONE', *, *, #279, .F. ) ;
#308 = ORIENTED_EDGE ( 'NONE', *, *, #285, .T. ) ;
#309 = CLOSED_SHELL ( 'NONE', ( #155, #165, #280, #261, #246, #289, #296, #303 ) ) ;
#310 = PERSON_AND_ORGANIZATION ( #12, #11 ) ;
#311 = CC_DESIGN_DATE_AND_TIME_ASSIGNMENT ( #2, #1, ( #187 ) ) ;
ENDSEC;
END-ISO-10303-21;
