ISO-10303-21;
HEADER;
FILE_DESCRIPTION (( 'STEP AP203' ),
    '1' );
FILE_NAME ('AC-25-W-5.STEP',
    '2008-10-16T07:35:31',
    ( ' ' ),
    ( ' ' ),
    'SwSTEP 2.0',
    'SolidWorks 2007',
    '' );
FILE_SCHEMA (( 'CONFIG_CONTROL_DESIGN' ));
ENDSEC;

DATA;
#1 = CC_DESIGN_APPROVAL ( #20, ( #17 ) ) ;
#2 = DATE_AND_TIME ( #21, #22 ) ;
#3 = APPROVAL_DATE_TIME ( #2, #20 ) ;
#4 = CALENDAR_DATE ( 2008, 16, 10 ) ;
#5 = LOCAL_TIME ( 16, 35, 31.00000000000000000, #15 ) ;
#6 = APPROVAL_STATUS ( 'not_yet_approved' ) ;
#7 = PERSON_AND_ORGANIZATION ( #240, #287 ) ;
#8 = CC_DESIGN_DATE_AND_TIME_ASSIGNMENT ( #14, #9, ( #17 ) ) ;
#9 = DATE_TIME_ROLE ( 'classification_date' ) ;
#10 = CC_DESIGN_PERSON_AND_ORGANIZATION_ASSIGNMENT ( #12, #11, ( #17 ) ) ;
#11 = PERSON_AND_ORGANIZATION_ROLE ( 'classification_officer' ) ;
#12 = PERSON_AND_ORGANIZATION ( #240, #287 ) ;
#13 = PERSON_AND_ORGANIZATION ( #240, #287 ) ;
#14 = DATE_AND_TIME ( #4, #5 ) ;
#15 = COORDINATED_UNIVERSAL_TIME_OFFSET ( 9, 0, .AHEAD. ) ;
#16 = PERSON_AND_ORGANIZATION_ROLE ( 'design_supplier' ) ;
#17 = SECURITY_CLASSIFICATION ( '', '', #18 ) ;
#18 = SECURITY_CLASSIFICATION_LEVEL ( 'unclassified' ) ;
#19 = APPROVAL_ROLE ( '' ) ;
#20 = APPROVAL ( #6, 'UNSPECIFIED' ) ;
#21 = CALENDAR_DATE ( 2008, 16, 10 ) ;
#22 = LOCAL_TIME ( 16, 35, 31.00000000000000000, #23 ) ;
#23 = COORDINATED_UNIVERSAL_TIME_OFFSET ( 9, 0, .AHEAD. ) ;
#24 = APPROVAL_PERSON_ORGANIZATION ( #7, #20, #19 ) ;
#25 = CC_DESIGN_PERSON_AND_ORGANIZATION_ASSIGNMENT ( #13, #16, ( #149 ) ) ;
#26 = SHAPE_DEFINITION_REPRESENTATION ( #27, #251 ) ;
#27 = PRODUCT_DEFINITION_SHAPE ( 'NONE', 'NONE',  #281 ) ;
#28 = PRODUCT_RELATED_PRODUCT_CATEGORY ( 'detail', '', ( #241 ) ) ;
#29 = CC_DESIGN_SECURITY_CLASSIFICATION ( #17, ( #149 ) ) ;
#30 = CALENDAR_DATE ( 2008, 16, 10 ) ;
#31 = FACE_OUTER_BOUND ( 'NONE', #215, .T. ) ;
#32 = DIRECTION ( 'NONE',  ( 0.0000000000000000000, 0.0000000000000000000, 1.000000000000000000 ) ) ;
#33 = VECTOR ( 'NONE', #32, 1000.000000000000000 ) ;
#34 = CARTESIAN_POINT ( 'NONE',  ( 5.656854249492380600, 0.0000000000000000000, -1.000000000000000000 ) ) ;
#35 = LINE ( 'NONE', #34, #33 ) ;
#36 = DIRECTION ( 'NONE',  ( 0.0000000000000000000, 0.0000000000000000000, 1.000000000000000000 ) ) ;
#37 = VECTOR ( 'NONE', #36, 1000.000000000000000 ) ;
#38 = CARTESIAN_POINT ( 'NONE',  ( 5.953432375957762300E-016, 5.656854249492378800, -1.000000000000000000 ) ) ;
#39 = DIRECTION ( 'NONE',  ( 1.000000000000000000, 0.0000000000000000000, 0.0000000000000000000 ) ) ;
#40 = DIRECTION ( 'NONE',  ( 0.0000000000000000000, 0.0000000000000000000, 1.000000000000000000 ) ) ;
#41 = AXIS2_PLACEMENT_3D ( 'NONE', #50, #40, #39 ) ;
#42 = LINE ( 'NONE', #38, #37 ) ;
#43 = CYLINDRICAL_SURFACE ( 'NONE', #41, 9.000000000000000000 ) ;
#44 = FACE_OUTER_BOUND ( 'NONE', #208, .T. ) ;
#45 = DIRECTION ( 'NONE',  ( 1.000000000000000000, 0.0000000000000000000, 0.0000000000000000000 ) ) ;
#46 = DIRECTION ( 'NONE',  ( 0.0000000000000000000, 0.0000000000000000000, 1.000000000000000000 ) ) ;
#47 = CARTESIAN_POINT ( 'NONE',  ( 0.0000000000000000000, 0.0000000000000000000, -1.000000000000000000 ) ) ;
#48 = AXIS2_PLACEMENT_3D ( 'NONE', #47, #46, #45 ) ;
#49 = CYLINDRICAL_SURFACE ( 'NONE', #48, 9.000000000000000000 ) ;
#50 = CARTESIAN_POINT ( 'NONE',  ( 0.0000000000000000000, 0.0000000000000000000, -1.000000000000000000 ) ) ;
#51 = FACE_OUTER_BOUND ( 'NONE', #205, .T. ) ;
#52 = DIRECTION ( 'NONE',  ( 0.0000000000000000000, 0.0000000000000000000, 1.000000000000000000 ) ) ;
#53 = VECTOR ( 'NONE', #52, 1000.000000000000000 ) ;
#54 = CARTESIAN_POINT ( 'NONE',  ( 9.000000000000000000, 0.0000000000000000000, -1.000000000000000000 ) ) ;
#55 = LINE ( 'NONE', #54, #53 ) ;
#56 = CARTESIAN_POINT ( 'NONE',  ( 9.000000000000000000, 0.0000000000000000000, 0.0000000000000000000 ) ) ;
#57 = DIRECTION ( 'NONE',  ( 1.000000000000000000, 0.0000000000000000000, 0.0000000000000000000 ) ) ;
#58 = DIRECTION ( 'NONE',  ( 0.0000000000000000000, 0.0000000000000000000, 1.000000000000000000 ) ) ;
#59 = CARTESIAN_POINT ( 'NONE',  ( 0.0000000000000000000, 0.0000000000000000000, 0.0000000000000000000 ) ) ;
#60 = AXIS2_PLACEMENT_3D ( 'NONE', #59, #58, #57 ) ;
#61 = CIRCLE ( 'NONE', #60, 9.000000000000000000 ) ;
#62 = CARTESIAN_POINT ( 'NONE',  ( -9.000000000000000000, 1.102182119232617700E-015, 0.0000000000000000000 ) ) ;
#63 = DIRECTION ( 'NONE',  ( 0.0000000000000000000, 0.0000000000000000000, 1.000000000000000000 ) ) ;
#64 = VECTOR ( 'NONE', #63, 1000.000000000000000 ) ;
#65 = CARTESIAN_POINT ( 'NONE',  ( -9.000000000000000000, 1.102182119232617700E-015, -1.000000000000000000 ) ) ;
#66 = LINE ( 'NONE', #65, #64 ) ;
#67 = CARTESIAN_POINT ( 'NONE',  ( -9.000000000000000000, 1.102182119232617700E-015, -1.000000000000000000 ) ) ;
#68 = CARTESIAN_POINT ( 'NONE',  ( 9.000000000000000000, 0.0000000000000000000, -1.000000000000000000 ) ) ;
#69 = DIRECTION ( 'NONE',  ( 1.000000000000000000, 0.0000000000000000000, 0.0000000000000000000 ) ) ;
#70 = DIRECTION ( 'NONE',  ( 0.0000000000000000000, 0.0000000000000000000, 1.000000000000000000 ) ) ;
#71 = CARTESIAN_POINT ( 'NONE',  ( 0.0000000000000000000, 0.0000000000000000000, -1.000000000000000000 ) ) ;
#72 = AXIS2_PLACEMENT_3D ( 'NONE', #71, #70, #69 ) ;
#73 = CIRCLE ( 'NONE', #72, 9.000000000000000000 ) ;
#74 = CARTESIAN_POINT ( 'NONE',  ( 5.953432375957762300E-016, 5.656854249492378800, -1.000000000000000000 ) ) ;
#75 = DIRECTION ( 'NONE',  ( -0.7071067811865475700, 0.7071067811865474600, 0.0000000000000000000 ) ) ;
#76 = VECTOR ( 'NONE', #75, 1000.000000000000000 ) ;
#77 = CARTESIAN_POINT ( 'NONE',  ( 5.656854249492380600, 0.0000000000000000000, -1.000000000000000000 ) ) ;
#78 = LINE ( 'NONE', #77, #76 ) ;
#79 = CARTESIAN_POINT ( 'NONE',  ( 5.656854249492380600, 0.0000000000000000000, -1.000000000000000000 ) ) ;
#80 = CARTESIAN_POINT ( 'NONE',  ( 5.953432375957757400E-016, -5.656854249492380600, -1.000000000000000000 ) ) ;
#81 = DIRECTION ( 'NONE',  ( 0.7071067811865474600, 0.7071067811865475700, 0.0000000000000000000 ) ) ;
#82 = VECTOR ( 'NONE', #81, 1000.000000000000000 ) ;
#83 = CARTESIAN_POINT ( 'NONE',  ( 5.953432375957757400E-016, -5.656854249492380600, -1.000000000000000000 ) ) ;
#84 = LINE ( 'NONE', #83, #82 ) ;
#85 = DIRECTION ( 'NONE',  ( 1.000000000000000000, 0.0000000000000000000, 0.0000000000000000000 ) ) ;
#86 = DIRECTION ( 'NONE',  ( 0.0000000000000000000, 0.0000000000000000000, 1.000000000000000000 ) ) ;
#87 = CARTESIAN_POINT ( 'NONE',  ( 0.0000000000000000000, 0.0000000000000000000, -1.000000000000000000 ) ) ;
#88 = AXIS2_PLACEMENT_3D ( 'NONE', #87, #86, #85 ) ;
#89 = PLANE ( 'NONE',  #88 ) ;
#90 = FACE_OUTER_BOUND ( 'NONE', #168, .T. ) ;
#91 = FACE_BOUND ( 'NONE', #184, .T. ) ;
#92 = DIRECTION ( 'NONE',  ( 1.000000000000000000, 0.0000000000000000000, 0.0000000000000000000 ) ) ;
#93 = DIRECTION ( 'NONE',  ( 0.0000000000000000000, 0.0000000000000000000, 1.000000000000000000 ) ) ;
#94 = CARTESIAN_POINT ( 'NONE',  ( 0.0000000000000000000, 0.0000000000000000000, 0.0000000000000000000 ) ) ;
#95 = AXIS2_PLACEMENT_3D ( 'NONE', #94, #93, #92 ) ;
#96 = CIRCLE ( 'NONE', #95, 9.000000000000000000 ) ;
#97 = DIRECTION ( 'NONE',  ( 1.000000000000000000, 0.0000000000000000000, 0.0000000000000000000 ) ) ;
#98 = DIRECTION ( 'NONE',  ( 0.0000000000000000000, 0.0000000000000000000, 1.000000000000000000 ) ) ;
#99 = CARTESIAN_POINT ( 'NONE',  ( 0.0000000000000000000, 0.0000000000000000000, -1.000000000000000000 ) ) ;
#100 = AXIS2_PLACEMENT_3D ( 'NONE', #99, #98, #97 ) ;
#101 = CIRCLE ( 'NONE', #100, 9.000000000000000000 ) ;
#102 = CARTESIAN_POINT ( 'NONE',  ( 0.0000000000000000000, 5.656854249492378800, 0.0000000000000000000 ) ) ;
#103 = CARTESIAN_POINT ( 'NONE',  ( 5.656854249492380600, 0.0000000000000000000, 0.0000000000000000000 ) ) ;
#104 = DIRECTION ( 'NONE',  ( -0.7071067811865475700, 0.7071067811865474600, 0.0000000000000000000 ) ) ;
#105 = VECTOR ( 'NONE', #104, 1000.000000000000000 ) ;
#106 = CARTESIAN_POINT ( 'NONE',  ( 5.656854249492380600, 0.0000000000000000000, 0.0000000000000000000 ) ) ;
#107 = LINE ( 'NONE', #106, #105 ) ;
#108 = DIRECTION ( 'NONE',  ( 1.000000000000000000, 0.0000000000000000000, 0.0000000000000000000 ) ) ;
#109 = DIRECTION ( 'NONE',  ( 0.0000000000000000000, 0.0000000000000000000, 1.000000000000000000 ) ) ;
#110 = CARTESIAN_POINT ( 'NONE',  ( 0.0000000000000000000, 0.0000000000000000000, 0.0000000000000000000 ) ) ;
#111 = AXIS2_PLACEMENT_3D ( 'NONE', #110, #109, #108 ) ;
#112 = PLANE ( 'NONE',  #111 ) ;
#113 = FACE_OUTER_BOUND ( 'NONE', #158, .T. ) ;
#114 = FACE_BOUND ( 'NONE', #172, .T. ) ;
#115 = DIRECTION ( 'NONE',  ( 0.7071067811865473500, -0.7071067811865477900, 0.0000000000000000000 ) ) ;
#116 = VECTOR ( 'NONE', #115, 999.9999999999998900 ) ;
#117 = CARTESIAN_POINT ( 'NONE',  ( -5.656854249492378800, 1.771238230066400300E-015, -1.000000000000000000 ) ) ;
#118 = LINE ( 'NONE', #117, #116 ) ;
#119 = CARTESIAN_POINT ( 'NONE',  ( -5.656854249492378800, 2.602085213965210600E-015, -1.000000000000000000 ) ) ;
#120 = DIRECTION ( 'NONE',  ( -0.7071067811865477900, -0.7071067811865473500, 0.0000000000000000000 ) ) ;
#121 = VECTOR ( 'NONE', #120, 999.9999999999998900 ) ;
#122 = CARTESIAN_POINT ( 'NONE',  ( 5.953432375957762300E-016, 5.656854249492378800, -1.000000000000000000 ) ) ;
#123 = LINE ( 'NONE', #122, #121 ) ;
#124 = DIRECTION ( 'NONE',  ( -0.7071067811865475700, 0.7071067811865474600, 0.0000000000000000000 ) ) ;
#125 = DIRECTION ( 'NONE',  ( 0.7071067811865474600, 0.7071067811865475700, 0.0000000000000000000 ) ) ;
#126 = CARTESIAN_POINT ( 'NONE',  ( 5.656854249492380600, 0.0000000000000000000, -1.000000000000000000 ) ) ;
#127 = AXIS2_PLACEMENT_3D ( 'NONE', #126, #125, #124 ) ;
#128 = PLANE ( 'NONE',  #127 ) ;
#129 = FACE_OUTER_BOUND ( 'NONE', #162, .T. ) ;
#130 = DIRECTION ( 'NONE',  ( -0.7071067811865477900, -0.7071067811865473500, 0.0000000000000000000 ) ) ;
#131 = VECTOR ( 'NONE', #130, 999.9999999999998900 ) ;
#132 = CARTESIAN_POINT ( 'NONE',  ( 5.953432375957762300E-016, 5.656854249492378800, 0.0000000000000000000 ) ) ;
#133 = LINE ( 'NONE', #132, #131 ) ;
#134 = CARTESIAN_POINT ( 'NONE',  ( -5.656854249492378800, 1.771238230066400300E-015, 0.0000000000000000000 ) ) ;
#135 = DIRECTION ( 'NONE',  ( 0.7071067811865473500, -0.7071067811865477900, 0.0000000000000000000 ) ) ;
#136 = VECTOR ( 'NONE', #135, 999.9999999999998900 ) ;
#137 = CARTESIAN_POINT ( 'NONE',  ( -5.656854249492378800, 1.771238230066400300E-015, 0.0000000000000000000 ) ) ;
#138 = LINE ( 'NONE', #137, #136 ) ;
#139 = CARTESIAN_POINT ( 'NONE',  ( 5.953432375957757400E-016, -5.656854249492380600, 0.0000000000000000000 ) ) ;
#140 = DIRECTION ( 'NONE',  ( 0.7071067811865474600, 0.7071067811865475700, 0.0000000000000000000 ) ) ;
#141 = VECTOR ( 'NONE', #140, 1000.000000000000000 ) ;
#142 = CARTESIAN_POINT ( 'NONE',  ( 5.953432375957757400E-016, -5.656854249492380600, 0.0000000000000000000 ) ) ;
#143 = LINE ( 'NONE', #142, #141 ) ;
#144 = APPROVAL_PERSON_ORGANIZATION ( #148, #146, #145 ) ;
#145 = APPROVAL_ROLE ( '' ) ;
#146 = APPROVAL ( #147, 'UNSPECIFIED' ) ;
#147 = APPROVAL_STATUS ( 'not_yet_approved' ) ;
#148 = PERSON_AND_ORGANIZATION ( #240, #287 ) ;
#149 = PRODUCT_DEFINITION_FORMATION_WITH_SPECIFIED_SOURCE ( 'ANY', '', #241, .NOT_KNOWN. ) ;
#150 = ORIENTED_EDGE ( 'NONE', *, *, #151, .F. ) ;
#151 = EDGE_CURVE ( 'NONE', #152, #175, #143, .T. ) ;
#152 = VERTEX_POINT ( 'NONE', #139 ) ;
#153 = ORIENTED_EDGE ( 'NONE', *, *, #154, .F. ) ;
#154 = EDGE_CURVE ( 'NONE', #155, #152, #138, .T. ) ;
#155 = VERTEX_POINT ( 'NONE', #134 ) ;
#156 = ORIENTED_EDGE ( 'NONE', *, *, #157, .F. ) ;
#157 = EDGE_CURVE ( 'NONE', #176, #155, #133, .T. ) ;
#158 = EDGE_LOOP ( 'NONE', ( #159, #160 ) ) ;
#159 = ORIENTED_EDGE ( 'NONE', *, *, #200, .T. ) ;
#160 = ORIENTED_EDGE ( 'NONE', *, *, #182, .T. ) ;
#161 = ADVANCED_FACE ( 'NONE', ( #129 ), #128, .F. ) ;
#162 = EDGE_LOOP ( 'NONE', ( #238, #209, #211, #212 ) ) ;
#163 = ORIENTED_EDGE ( 'NONE', *, *, #164, .T. ) ;
#164 = EDGE_CURVE ( 'NONE', #191, #165, #123, .T. ) ;
#165 = VERTEX_POINT ( 'NONE', #119 ) ;
#166 = ORIENTED_EDGE ( 'NONE', *, *, #167, .T. ) ;
#167 = EDGE_CURVE ( 'NONE', #165, #187, #118, .T. ) ;
#168 = EDGE_LOOP ( 'NONE', ( #169, #170 ) ) ;
#169 = ORIENTED_EDGE ( 'NONE', *, *, #193, .F. ) ;
#170 = ORIENTED_EDGE ( 'NONE', *, *, #179, .F. ) ;
#171 = ADVANCED_FACE ( 'NONE', ( #114, #113 ), #112, .T. ) ;
#172 = EDGE_LOOP ( 'NONE', ( #173, #150, #153, #156 ) ) ;
#173 = ORIENTED_EDGE ( 'NONE', *, *, #174, .F. ) ;
#174 = EDGE_CURVE ( 'NONE', #175, #176, #107, .T. ) ;
#175 = VERTEX_POINT ( 'NONE', #103 ) ;
#176 = VERTEX_POINT ( 'NONE', #102 ) ;
#177 = ORIENTED_EDGE ( 'NONE', *, *, #197, .F. ) ;
#178 = ORIENTED_EDGE ( 'NONE', *, *, #179, .T. ) ;
#179 = EDGE_CURVE ( 'NONE', #195, #194, #101, .T. ) ;
#180 = ORIENTED_EDGE ( 'NONE', *, *, #203, .T. ) ;
#181 = ORIENTED_EDGE ( 'NONE', *, *, #182, .F. ) ;
#182 = EDGE_CURVE ( 'NONE', #198, #201, #96, .T. ) ;
#183 = ADVANCED_FACE ( 'NONE', ( #91, #90 ), #89, .F. ) ;
#184 = EDGE_LOOP ( 'NONE', ( #185, #189, #163, #166 ) ) ;
#185 = ORIENTED_EDGE ( 'NONE', *, *, #186, .T. ) ;
#186 = EDGE_CURVE ( 'NONE', #187, #188, #84, .T. ) ;
#187 = VERTEX_POINT ( 'NONE', #80 ) ;
#188 = VERTEX_POINT ( 'NONE', #79 ) ;
#189 = ORIENTED_EDGE ( 'NONE', *, *, #190, .T. ) ;
#190 = EDGE_CURVE ( 'NONE', #188, #191, #78, .T. ) ;
#191 = VERTEX_POINT ( 'NONE', #74 ) ;
#192 = ORIENTED_EDGE ( 'NONE', *, *, #193, .T. ) ;
#193 = EDGE_CURVE ( 'NONE', #194, #195, #73, .T. ) ;
#194 = VERTEX_POINT ( 'NONE', #68 ) ;
#195 = VERTEX_POINT ( 'NONE', #67 ) ;
#196 = ORIENTED_EDGE ( 'NONE', *, *, #197, .T. ) ;
#197 = EDGE_CURVE ( 'NONE', #195, #198, #66, .T. ) ;
#198 = VERTEX_POINT ( 'NONE', #62 ) ;
#199 = ORIENTED_EDGE ( 'NONE', *, *, #200, .F. ) ;
#200 = EDGE_CURVE ( 'NONE', #201, #198, #61, .T. ) ;
#201 = VERTEX_POINT ( 'NONE', #56 ) ;
#202 = ORIENTED_EDGE ( 'NONE', *, *, #203, .F. ) ;
#203 = EDGE_CURVE ( 'NONE', #194, #201, #55, .T. ) ;
#204 = ADVANCED_FACE ( 'NONE', ( #51 ), #49, .T. ) ;
#205 = EDGE_LOOP ( 'NONE', ( #177, #178, #180, #181 ) ) ;
#206 = MANIFOLD_SOLID_BREP ( 'NONE', #234 ) ;
#207 = ADVANCED_FACE ( 'NONE', ( #44 ), #43, .T. ) ;
#208 = EDGE_LOOP ( 'NONE', ( #192, #196, #199, #202 ) ) ;
#209 = ORIENTED_EDGE ( 'NONE', *, *, #210, .F. ) ;
#210 = EDGE_CURVE ( 'NONE', #191, #176, #42, .T. ) ;
#211 = ORIENTED_EDGE ( 'NONE', *, *, #190, .F. ) ;
#212 = ORIENTED_EDGE ( 'NONE', *, *, #213, .T. ) ;
#213 = EDGE_CURVE ( 'NONE', #188, #175, #35, .T. ) ;
#214 = ADVANCED_FACE ( 'NONE', ( #31 ), #296, .F. ) ;
#215 = EDGE_LOOP ( 'NONE', ( #216, #217, #218, #219 ) ) ;
#216 = ORIENTED_EDGE ( 'NONE', *, *, #151, .T. ) ;
#217 = ORIENTED_EDGE ( 'NONE', *, *, #213, .F. ) ;
#218 = ORIENTED_EDGE ( 'NONE', *, *, #186, .F. ) ;
#219 = ORIENTED_EDGE ( 'NONE', *, *, #220, .T. ) ;
#220 = EDGE_CURVE ( 'NONE', #187, #152, #289, .T. ) ;
#221 = ADVANCED_FACE ( 'NONE', ( #290 ), #288, .F. ) ;
#222 = EDGE_LOOP ( 'NONE', ( #223, #224, #225, #226 ) ) ;
#223 = ORIENTED_EDGE ( 'NONE', *, *, #154, .T. ) ;
#224 = ORIENTED_EDGE ( 'NONE', *, *, #220, .F. ) ;
#225 = ORIENTED_EDGE ( 'NONE', *, *, #167, .F. ) ;
#226 = ORIENTED_EDGE ( 'NONE', *, *, #227, .T. ) ;
#227 = EDGE_CURVE ( 'NONE', #165, #155, #295, .T. ) ;
#228 = ADVANCED_FACE ( 'NONE', ( #263 ), #261, .F. ) ;
#229 = EDGE_LOOP ( 'NONE', ( #230, #231, #232, #233 ) ) ;
#230 = ORIENTED_EDGE ( 'NONE', *, *, #157, .T. ) ;
#231 = ORIENTED_EDGE ( 'NONE', *, *, #227, .F. ) ;
#232 = ORIENTED_EDGE ( 'NONE', *, *, #164, .F. ) ;
#233 = ORIENTED_EDGE ( 'NONE', *, *, #210, .T. ) ;
#234 = CLOSED_SHELL ( 'NONE', ( #207, #204, #183, #171, #161, #214, #221, #228 ) ) ;
#235 = CC_DESIGN_DATE_AND_TIME_ASSIGNMENT ( #237, #236, ( #281 ) ) ;
#236 = DATE_TIME_ROLE ( 'creation_date' ) ;
#237 = DATE_AND_TIME ( #30, #265 ) ;
#238 = ORIENTED_EDGE ( 'NONE', *, *, #174, .T. ) ;
#239 = PERSON_AND_ORGANIZATION ( #240, #287 ) ;
#240 = PERSON ( 'UNSPECIFIED', 'UNSPECIFIED', 'UNSPECIFIED', ('UNSPECIFIED'), ('UNSPECIFIED'), ('UNSPECIFIED') ) ;
#241 = PRODUCT ( 'AC-25-W-5', 'AC-25-W-5', '', ( #242 ) ) ;
#242 = MECHANICAL_CONTEXT ( 'NONE', #244, 'mechanical' ) ;
#243 = APPLICATION_PROTOCOL_DEFINITION ( 'international standard', 'config_control_design', 1994, #244 ) ;
#244 = APPLICATION_CONTEXT ( 'configuration controlled 3d designs of mechanical parts and assemblies' ) ;
#245 = DIRECTION ( 'NONE',  ( 1.000000000000000000, 0.0000000000000000000, 0.0000000000000000000 ) ) ;
#246 = AXIS2_PLACEMENT_3D ( 'NONE', #250, #262, #245 ) ;
#247 = DIRECTION ( 'NONE',  ( 0.0000000000000000000, 0.0000000000000000000, 1.000000000000000000 ) ) ;
#248 = VECTOR ( 'NONE', #247, 1000.000000000000000 ) ;
#249 = CARTESIAN_POINT ( 'NONE',  ( 5.953432375957757400E-016, -5.656854249492380600, -1.000000000000000000 ) ) ;
#250 = CARTESIAN_POINT ( 'NONE',  ( 0.0000000000000000000, 0.0000000000000000000, 0.0000000000000000000 ) ) ;
#251 = ADVANCED_BREP_SHAPE_REPRESENTATION ( 'AC-25-W-5', ( #206, #246 ), #252 ) ;
#252 =( GEOMETRIC_REPRESENTATION_CONTEXT ( 3 ) GLOBAL_UNCERTAINTY_ASSIGNED_CONTEXT ( ( #253 ) ) GLOBAL_UNIT_ASSIGNED_CONTEXT ( ( #256, #255, #254 ) ) REPRESENTATION_CONTEXT ( 'NONE', 'WORKASPACE' ) );
#253 = UNCERTAINTY_MEASURE_WITH_UNIT (LENGTH_MEASURE( 1.000000000000000100E-005 ), #256, 'distance_accuracy_value', 'NONE');
#254 =( NAMED_UNIT ( * ) SI_UNIT ( $, .STERADIAN. ) SOLID_ANGLE_UNIT ( ) );
#255 =( NAMED_UNIT ( * ) PLANE_ANGLE_UNIT ( ) SI_UNIT ( $, .RADIAN. ) );
#256 =( LENGTH_UNIT ( ) NAMED_UNIT ( * ) SI_UNIT ( .MILLI., .METRE. ) );
#257 = DIRECTION ( 'NONE',  ( -0.7071067811865477900, -0.7071067811865473500, 0.0000000000000000000 ) ) ;
#258 = DIRECTION ( 'NONE',  ( -0.7071067811865473500, 0.7071067811865477900, 0.0000000000000000000 ) ) ;
#259 = CARTESIAN_POINT ( 'NONE',  ( 5.953432375957762300E-016, 5.656854249492378800, -1.000000000000000000 ) ) ;
#260 = AXIS2_PLACEMENT_3D ( 'NONE', #259, #258, #257 ) ;
#261 = PLANE ( 'NONE',  #260 ) ;
#262 = DIRECTION ( 'NONE',  ( 0.0000000000000000000, 0.0000000000000000000, 1.000000000000000000 ) ) ;
#263 = FACE_OUTER_BOUND ( 'NONE', #229, .T. ) ;
#264 = DIRECTION ( 'NONE',  ( 0.0000000000000000000, 0.0000000000000000000, 1.000000000000000000 ) ) ;
#265 = LOCAL_TIME ( 16, 35, 31.00000000000000000, #266 ) ;
#266 = COORDINATED_UNIVERSAL_TIME_OFFSET ( 9, 0, .AHEAD. ) ;
#267 = CC_DESIGN_PERSON_AND_ORGANIZATION_ASSIGNMENT ( #269, #268, ( #281 ) ) ;
#268 = PERSON_AND_ORGANIZATION_ROLE ( 'creator' ) ;
#269 = PERSON_AND_ORGANIZATION ( #240, #287 ) ;
#270 = CC_DESIGN_APPROVAL ( #278, ( #281 ) ) ;
#271 = APPROVAL_DATE_TIME ( #272, #278 ) ;
#272 = DATE_AND_TIME ( #273, #274 ) ;
#273 = CALENDAR_DATE ( 2008, 16, 10 ) ;
#274 = LOCAL_TIME ( 16, 35, 31.00000000000000000, #275 ) ;
#275 = COORDINATED_UNIVERSAL_TIME_OFFSET ( 9, 0, .AHEAD. ) ;
#276 = APPROVAL_PERSON_ORGANIZATION ( #280, #278, #277 ) ;
#277 = APPROVAL_ROLE ( '' ) ;
#278 = APPROVAL ( #279, 'UNSPECIFIED' ) ;
#279 = APPROVAL_STATUS ( 'not_yet_approved' ) ;
#280 = PERSON_AND_ORGANIZATION ( #240, #287 ) ;
#281 = PRODUCT_DEFINITION ( 'UNKNOWN', '', #149, #282 ) ;
#282 = DESIGN_CONTEXT ( 'detailed design', #284, 'design' ) ;
#283 = APPLICATION_PROTOCOL_DEFINITION ( 'international standard', 'config_control_design', 1994, #284 ) ;
#284 = APPLICATION_CONTEXT ( 'configuration controlled 3d designs of mechanical parts and assemblies' ) ;
#285 = CC_DESIGN_PERSON_AND_ORGANIZATION_ASSIGNMENT ( #239, #286, ( #241 ) ) ;
#286 = PERSON_AND_ORGANIZATION_ROLE ( 'design_owner' ) ;
#287 = ORGANIZATION ( 'UNSPECIFIED', 'UNSPECIFIED', '' ) ;
#288 = PLANE ( 'NONE',  #294 ) ;
#289 = LINE ( 'NONE', #249, #248 ) ;
#290 = FACE_OUTER_BOUND ( 'NONE', #222, .T. ) ;
#291 = AXIS2_PLACEMENT_3D ( 'NONE', #297, #302, #301 ) ;
#292 = DIRECTION ( 'NONE',  ( -0.7071067811865477900, -0.7071067811865473500, 0.0000000000000000000 ) ) ;
#293 = CARTESIAN_POINT ( 'NONE',  ( -5.656854249492378800, 1.771238230066400300E-015, -1.000000000000000000 ) ) ;
#294 = AXIS2_PLACEMENT_3D ( 'NONE', #293, #292, #300 ) ;
#295 = LINE ( 'NONE', #299, #298 ) ;
#296 = PLANE ( 'NONE',  #291 ) ;
#297 = CARTESIAN_POINT ( 'NONE',  ( 5.953432375957757400E-016, -5.656854249492380600, -1.000000000000000000 ) ) ;
#298 = VECTOR ( 'NONE', #264, 1000.000000000000000 ) ;
#299 = CARTESIAN_POINT ( 'NONE',  ( -5.656854249492378800, 1.771238230066400300E-015, -1.000000000000000000 ) ) ;
#300 = DIRECTION ( 'NONE',  ( 0.7071067811865473500, -0.7071067811865477900, 0.0000000000000000000 ) ) ;
#301 = DIRECTION ( 'NONE',  ( 0.7071067811865474600, 0.7071067811865475700, 0.0000000000000000000 ) ) ;
#302 = DIRECTION ( 'NONE',  ( 0.7071067811865475700, -0.7071067811865474600, 0.0000000000000000000 ) ) ;
#303 = CC_DESIGN_APPROVAL ( #146, ( #149 ) ) ;
#304 = PERSON_AND_ORGANIZATION ( #240, #287 ) ;
#305 = CALENDAR_DATE ( 2008, 16, 10 ) ;
#306 = APPROVAL_DATE_TIME ( #310, #146 ) ;
#307 = LOCAL_TIME ( 16, 35, 31.00000000000000000, #308 ) ;
#308 = COORDINATED_UNIVERSAL_TIME_OFFSET ( 9, 0, .AHEAD. ) ;
#309 = CC_DESIGN_PERSON_AND_ORGANIZATION_ASSIGNMENT ( #304, #311, ( #149 ) ) ;
#310 = DATE_AND_TIME ( #305, #307 ) ;
#311 = PERSON_AND_ORGANIZATION_ROLE ( 'creator' ) ;
ENDSEC;
END-ISO-10303-21;
