ISO-10303-21;
HEADER;
FILE_DESCRIPTION (( 'STEP AP203' ),
    '1' );
FILE_NAME ('AC-25-W-4.STEP',
    '2008-10-16T07:34:07',
    ( ' ' ),
    ( ' ' ),
    'SwSTEP 2.0',
    'SolidWorks 2007',
    '' );
FILE_SCHEMA (( 'CONFIG_CONTROL_DESIGN' ));
ENDSEC;

DATA;
#1 = ADVANCED_FACE ( 'NONE', ( #252 ), #254, .F. ) ;
#2 = ORIENTED_EDGE ( 'NONE', *, *, #31, .T. ) ;
#3 = EDGE_LOOP ( 'NONE', ( #2, #4 ) ) ;
#4 = ORIENTED_EDGE ( 'NONE', *, *, #24, .T. ) ;
#5 = EDGE_LOOP ( 'NONE', ( #35, #9, #10, #52 ) ) ;
#6 = VERTEX_POINT ( 'NONE', #268 ) ;
#7 = EDGE_CURVE ( 'NONE', #45, #57, #267, .T. ) ;
#8 = EDGE_CURVE ( 'NONE', #12, #16, #263, .T. ) ;
#9 = ORIENTED_EDGE ( 'NONE', *, *, #7, .F. ) ;
#10 = ORIENTED_EDGE ( 'NONE', *, *, #44, .F. ) ;
#11 = EDGE_CURVE ( 'NONE', #16, #56, #259, .T. ) ;
#12 = VERTEX_POINT ( 'NONE', #255 ) ;
#13 = ORIENTED_EDGE ( 'NONE', *, *, #8, .F. ) ;
#14 = EDGE_CURVE ( 'NONE', #57, #12, #251, .T. ) ;
#15 = ORIENTED_EDGE ( 'NONE', *, *, #14, .F. ) ;
#16 = VERTEX_POINT ( 'NONE', #247 ) ;
#17 = ORIENTED_EDGE ( 'NONE', *, *, #44, .T. ) ;
#18 = ORIENTED_EDGE ( 'NONE', *, *, #20, .T. ) ;
#19 = EDGE_LOOP ( 'NONE', ( #18, #17, #46, #69 ) ) ;
#20 = EDGE_CURVE ( 'NONE', #21, #6, #246, .T. ) ;
#21 = VERTEX_POINT ( 'NONE', #242 ) ;
#22 = ADVANCED_FACE ( 'NONE', ( #241, #240 ), #239, .F. ) ;
#23 = ORIENTED_EDGE ( 'NONE', *, *, #24, .F. ) ;
#24 = EDGE_CURVE ( 'NONE', #42, #32, #233, .T. ) ;
#25 = EDGE_CURVE ( 'NONE', #39, #38, #229, .T. ) ;
#26 = ORIENTED_EDGE ( 'NONE', *, *, #30, .T. ) ;
#27 = ORIENTED_EDGE ( 'NONE', *, *, #25, .T. ) ;
#28 = ORIENTED_EDGE ( 'NONE', *, *, #41, .F. ) ;
#29 = EDGE_LOOP ( 'NONE', ( #28, #27, #26, #23 ) ) ;
#30 = EDGE_CURVE ( 'NONE', #38, #32, #224, .T. ) ;
#31 = EDGE_CURVE ( 'NONE', #32, #42, #220, .T. ) ;
#32 = VERTEX_POINT ( 'NONE', #215 ) ;
#33 = ORIENTED_EDGE ( 'NONE', *, *, #30, .F. ) ;
#34 = ADVANCED_FACE ( 'NONE', ( #214 ), #213, .T. ) ;
#35 = ORIENTED_EDGE ( 'NONE', *, *, #55, .T. ) ;
#36 = ORIENTED_EDGE ( 'NONE', *, *, #37, .T. ) ;
#37 = EDGE_CURVE ( 'NONE', #38, #39, #207, .T. ) ;
#38 = VERTEX_POINT ( 'NONE', #203 ) ;
#39 = VERTEX_POINT ( 'NONE', #202 ) ;
#40 = ORIENTED_EDGE ( 'NONE', *, *, #41, .T. ) ;
#41 = EDGE_CURVE ( 'NONE', #39, #42, #201, .T. ) ;
#42 = VERTEX_POINT ( 'NONE', #197 ) ;
#43 = ORIENTED_EDGE ( 'NONE', *, *, #31, .F. ) ;
#44 = EDGE_CURVE ( 'NONE', #6, #45, #196, .T. ) ;
#45 = VERTEX_POINT ( 'NONE', #192 ) ;
#46 = ORIENTED_EDGE ( 'NONE', *, *, #64, .T. ) ;
#47 = CLOSED_SHELL ( 'NONE', ( #67, #34, #22, #77, #1, #63, #78, #83 ) ) ;
#48 = ORIENTED_EDGE ( 'NONE', *, *, #7, .T. ) ;
#49 = ORIENTED_EDGE ( 'NONE', *, *, #64, .F. ) ;
#50 = ORIENTED_EDGE ( 'NONE', *, *, #14, .T. ) ;
#51 = EDGE_LOOP ( 'NONE', ( #72, #80, #70, #79 ) ) ;
#52 = ORIENTED_EDGE ( 'NONE', *, *, #62, .T. ) ;
#53 = EDGE_LOOP ( 'NONE', ( #54, #58, #13, #15 ) ) ;
#54 = ORIENTED_EDGE ( 'NONE', *, *, #55, .F. ) ;
#55 = EDGE_CURVE ( 'NONE', #56, #57, #191, .T. ) ;
#56 = VERTEX_POINT ( 'NONE', #187 ) ;
#57 = VERTEX_POINT ( 'NONE', #186 ) ;
#58 = ORIENTED_EDGE ( 'NONE', *, *, #11, .F. ) ;
#59 = ORIENTED_EDGE ( 'NONE', *, *, #73, .F. ) ;
#60 = ORIENTED_EDGE ( 'NONE', *, *, #8, .T. ) ;
#61 = EDGE_LOOP ( 'NONE', ( #60, #84, #59, #85 ) ) ;
#62 = EDGE_CURVE ( 'NONE', #6, #56, #185, .T. ) ;
#63 = ADVANCED_FACE ( 'NONE', ( #181 ), #180, .F. ) ;
#64 = EDGE_CURVE ( 'NONE', #45, #65, #175, .T. ) ;
#65 = VERTEX_POINT ( 'NONE', #171 ) ;
#66 = MANIFOLD_SOLID_BREP ( 'NONE', #47 ) ;
#67 = ADVANCED_FACE ( 'NONE', ( #170 ), #169, .T. ) ;
#68 = EDGE_LOOP ( 'NONE', ( #36, #40, #43, #33 ) ) ;
#69 = ORIENTED_EDGE ( 'NONE', *, *, #73, .T. ) ;
#70 = ORIENTED_EDGE ( 'NONE', *, *, #20, .F. ) ;
#71 = EDGE_CURVE ( 'NONE', #21, #16, #164, .T. ) ;
#72 = ORIENTED_EDGE ( 'NONE', *, *, #11, .T. ) ;
#73 = EDGE_CURVE ( 'NONE', #65, #21, #160, .T. ) ;
#74 = EDGE_LOOP ( 'NONE', ( #75, #76 ) ) ;
#75 = ORIENTED_EDGE ( 'NONE', *, *, #37, .F. ) ;
#76 = ORIENTED_EDGE ( 'NONE', *, *, #25, .F. ) ;
#77 = ADVANCED_FACE ( 'NONE', ( #155, #154 ), #159, .T. ) ;
#78 = ADVANCED_FACE ( 'NONE', ( #149 ), #148, .F. ) ;
#79 = ORIENTED_EDGE ( 'NONE', *, *, #71, .T. ) ;
#80 = ORIENTED_EDGE ( 'NONE', *, *, #62, .F. ) ;
#81 = EDGE_LOOP ( 'NONE', ( #50, #82, #49, #48 ) ) ;
#82 = ORIENTED_EDGE ( 'NONE', *, *, #86, .F. ) ;
#83 = ADVANCED_FACE ( 'NONE', ( #143 ), #142, .F. ) ;
#84 = ORIENTED_EDGE ( 'NONE', *, *, #71, .F. ) ;
#85 = ORIENTED_EDGE ( 'NONE', *, *, #86, .T. ) ;
#86 = EDGE_CURVE ( 'NONE', #65, #12, #137, .T. ) ;
#87 = APPROVAL_ROLE ( '' ) ;
#88 = APPROVAL_STATUS ( 'not_yet_approved' ) ;
#89 = PERSON_AND_ORGANIZATION ( #119, #118 ) ;
#90 = PRODUCT_DEFINITION_FORMATION_WITH_SPECIFIED_SOURCE ( 'ANY', '', #120, .NOT_KNOWN. ) ;
#91 = CC_DESIGN_DATE_AND_TIME_ASSIGNMENT ( #93, #92, ( #111 ) ) ;
#92 = DATE_TIME_ROLE ( 'creation_date' ) ;
#93 = DATE_AND_TIME ( #94, #95 ) ;
#94 = CALENDAR_DATE ( 2008, 16, 10 ) ;
#95 = LOCAL_TIME ( 16, 34, 7.000000000000000000, #96 ) ;
#96 = COORDINATED_UNIVERSAL_TIME_OFFSET ( 9, 0, .AHEAD. ) ;
#97 = CC_DESIGN_PERSON_AND_ORGANIZATION_ASSIGNMENT ( #99, #98, ( #111 ) ) ;
#98 = PERSON_AND_ORGANIZATION_ROLE ( 'creator' ) ;
#99 = PERSON_AND_ORGANIZATION ( #119, #118 ) ;
#100 = CC_DESIGN_APPROVAL ( #108, ( #111 ) ) ;
#101 = APPROVAL_DATE_TIME ( #102, #108 ) ;
#102 = DATE_AND_TIME ( #103, #104 ) ;
#103 = CALENDAR_DATE ( 2008, 16, 10 ) ;
#104 = LOCAL_TIME ( 16, 34, 7.000000000000000000, #105 ) ;
#105 = COORDINATED_UNIVERSAL_TIME_OFFSET ( 9, 0, .AHEAD. ) ;
#106 = APPROVAL_PERSON_ORGANIZATION ( #110, #108, #107 ) ;
#107 = APPROVAL_ROLE ( '' ) ;
#108 = APPROVAL ( #109, 'UNSPECIFIED' ) ;
#109 = APPROVAL_STATUS ( 'not_yet_approved' ) ;
#110 = PERSON_AND_ORGANIZATION ( #119, #118 ) ;
#111 = PRODUCT_DEFINITION ( 'UNKNOWN', '', #90, #112 ) ;
#112 = DESIGN_CONTEXT ( 'detailed design', #114, 'design' ) ;
#113 = APPLICATION_PROTOCOL_DEFINITION ( 'international standard', 'config_control_design', 1994, #114 ) ;
#114 = APPLICATION_CONTEXT ( 'configuration controlled 3d designs of mechanical parts and assemblies' ) ;
#115 = CC_DESIGN_PERSON_AND_ORGANIZATION_ASSIGNMENT ( #117, #116, ( #120 ) ) ;
#116 = PERSON_AND_ORGANIZATION_ROLE ( 'design_owner' ) ;
#117 = PERSON_AND_ORGANIZATION ( #119, #118 ) ;
#118 = ORGANIZATION ( 'UNSPECIFIED', 'UNSPECIFIED', '' ) ;
#119 = PERSON ( 'UNSPECIFIED', 'UNSPECIFIED', 'UNSPECIFIED', ('UNSPECIFIED'), ('UNSPECIFIED'), ('UNSPECIFIED') ) ;
#120 = PRODUCT ( 'AC-25-W-4', 'AC-25-W-4', '', ( #121 ) ) ;
#121 = MECHANICAL_CONTEXT ( 'NONE', #123, 'mechanical' ) ;
#122 = APPLICATION_PROTOCOL_DEFINITION ( 'international standard', 'config_control_design', 1994, #123 ) ;
#123 = APPLICATION_CONTEXT ( 'configuration controlled 3d designs of mechanical parts and assemblies' ) ;
#124 = DIRECTION ( 'NONE',  ( 1.000000000000000000, 0.0000000000000000000, 0.0000000000000000000 ) ) ;
#125 = CARTESIAN_POINT ( 'NONE',  ( 0.0000000000000000000, 0.0000000000000000000, 0.0000000000000000000 ) ) ;
#126 = AXIS2_PLACEMENT_3D ( 'NONE', #125, #272, #124 ) ;
#127 = SHAPE_DEFINITION_REPRESENTATION ( #273, #128 ) ;
#128 = ADVANCED_BREP_SHAPE_REPRESENTATION ( 'AC-25-W-4', ( #66, #126 ), #129 ) ;
#129 =( GEOMETRIC_REPRESENTATION_CONTEXT ( 3 ) GLOBAL_UNCERTAINTY_ASSIGNED_CONTEXT ( ( #130 ) ) GLOBAL_UNIT_ASSIGNED_CONTEXT ( ( #133, #132, #131 ) ) REPRESENTATION_CONTEXT ( 'NONE', 'WORKASPACE' ) );
#130 = UNCERTAINTY_MEASURE_WITH_UNIT (LENGTH_MEASURE( 1.000000000000000100E-005 ), #133, 'distance_accuracy_value', 'NONE');
#131 =( NAMED_UNIT ( * ) SI_UNIT ( $, .STERADIAN. ) SOLID_ANGLE_UNIT ( ) );
#132 =( NAMED_UNIT ( * ) PLANE_ANGLE_UNIT ( ) SI_UNIT ( $, .RADIAN. ) );
#133 =( LENGTH_UNIT ( ) NAMED_UNIT ( * ) SI_UNIT ( .MILLI., .METRE. ) );
#134 = DIRECTION ( 'NONE',  ( 0.0000000000000000000, 0.0000000000000000000, 1.000000000000000000 ) ) ;
#135 = VECTOR ( 'NONE', #134, 1000.000000000000000 ) ;
#136 = CARTESIAN_POINT ( 'NONE',  ( -7.071067811865474600, -1.387710543886695300E-015, -2.000000000000000000 ) ) ;
#137 = LINE ( 'NONE', #136, #135 ) ;
#138 = DIRECTION ( 'NONE',  ( -0.7071067811865475700, -0.7071067811865474600, 0.0000000000000000000 ) ) ;
#139 = DIRECTION ( 'NONE',  ( -0.7071067811865474600, 0.7071067811865475700, 0.0000000000000000000 ) ) ;
#140 = CARTESIAN_POINT ( 'NONE',  ( -3.275551365172702500E-016, 7.071067811865472000, -2.000000000000000000 ) ) ;
#141 = AXIS2_PLACEMENT_3D ( 'NONE', #140, #139, #138 ) ;
#142 = PLANE ( 'NONE',  #141 ) ;
#143 = FACE_OUTER_BOUND ( 'NONE', #81, .T. ) ;
#144 = DIRECTION ( 'NONE',  ( 0.7071067811865474600, -0.7071067811865474600, 0.0000000000000000000 ) ) ;
#145 = DIRECTION ( 'NONE',  ( -0.7071067811865475700, -0.7071067811865475700, 0.0000000000000000000 ) ) ;
#146 = CARTESIAN_POINT ( 'NONE',  ( -7.071067811865474600, -1.387710543886695300E-015, -2.000000000000000000 ) ) ;
#147 = AXIS2_PLACEMENT_3D ( 'NONE', #146, #145, #144 ) ;
#148 = PLANE ( 'NONE',  #147 ) ;
#149 = FACE_OUTER_BOUND ( 'NONE', #61, .T. ) ;
#150 = DIRECTION ( 'NONE',  ( 1.000000000000000000, 0.0000000000000000000, 0.0000000000000000000 ) ) ;
#151 = DIRECTION ( 'NONE',  ( 0.0000000000000000000, 0.0000000000000000000, 1.000000000000000000 ) ) ;
#152 = CARTESIAN_POINT ( 'NONE',  ( 0.0000000000000000000, 0.0000000000000000000, 0.0000000000000000000 ) ) ;
#153 = AXIS2_PLACEMENT_3D ( 'NONE', #152, #151, #150 ) ;
#154 = FACE_OUTER_BOUND ( 'NONE', #3, .T. ) ;
#155 = FACE_BOUND ( 'NONE', #53, .T. ) ;
#156 = DIRECTION ( 'NONE',  ( 0.7071067811865474600, -0.7071067811865474600, 0.0000000000000000000 ) ) ;
#157 = VECTOR ( 'NONE', #156, 1000.000000000000100 ) ;
#158 = CARTESIAN_POINT ( 'NONE',  ( -7.071067811865474600, -1.387710543886695300E-015, -2.000000000000000000 ) ) ;
#159 = PLANE ( 'NONE',  #153 ) ;
#160 = LINE ( 'NONE', #158, #157 ) ;
#161 = DIRECTION ( 'NONE',  ( 0.0000000000000000000, 0.0000000000000000000, 1.000000000000000000 ) ) ;
#162 = VECTOR ( 'NONE', #161, 1000.000000000000000 ) ;
#163 = CARTESIAN_POINT ( 'NONE',  ( -3.275551365172702500E-016, -7.071067811865476400, -2.000000000000000000 ) ) ;
#164 = LINE ( 'NONE', #163, #162 ) ;
#165 = DIRECTION ( 'NONE',  ( 1.000000000000000000, 0.0000000000000000000, 0.0000000000000000000 ) ) ;
#166 = DIRECTION ( 'NONE',  ( 0.0000000000000000000, 0.0000000000000000000, 1.000000000000000000 ) ) ;
#167 = CARTESIAN_POINT ( 'NONE',  ( 0.0000000000000000000, 0.0000000000000000000, -2.000000000000000000 ) ) ;
#168 = AXIS2_PLACEMENT_3D ( 'NONE', #167, #166, #165 ) ;
#169 = CYLINDRICAL_SURFACE ( 'NONE', #168, 11.00000000000000000 ) ;
#170 = FACE_OUTER_BOUND ( 'NONE', #68, .T. ) ;
#171 = CARTESIAN_POINT ( 'NONE',  ( -7.071067811865474600, -1.301042606982605300E-015, -2.000000000000000000 ) ) ;
#172 = DIRECTION ( 'NONE',  ( -0.7071067811865475700, -0.7071067811865474600, 0.0000000000000000000 ) ) ;
#173 = VECTOR ( 'NONE', #172, 1000.000000000000000 ) ;
#174 = CARTESIAN_POINT ( 'NONE',  ( -3.275551365172702500E-016, 7.071067811865472000, -2.000000000000000000 ) ) ;
#175 = LINE ( 'NONE', #174, #173 ) ;
#176 = DIRECTION ( 'NONE',  ( 0.7071067811865474600, 0.7071067811865474600, 0.0000000000000000000 ) ) ;
#177 = DIRECTION ( 'NONE',  ( 0.7071067811865475700, -0.7071067811865475700, 0.0000000000000000000 ) ) ;
#178 = CARTESIAN_POINT ( 'NONE',  ( -3.275551365172702500E-016, -7.071067811865476400, -2.000000000000000000 ) ) ;
#179 = AXIS2_PLACEMENT_3D ( 'NONE', #178, #177, #176 ) ;
#180 = PLANE ( 'NONE',  #179 ) ;
#181 = FACE_OUTER_BOUND ( 'NONE', #51, .T. ) ;
#182 = DIRECTION ( 'NONE',  ( 0.0000000000000000000, 0.0000000000000000000, 1.000000000000000000 ) ) ;
#183 = VECTOR ( 'NONE', #182, 1000.000000000000000 ) ;
#184 = CARTESIAN_POINT ( 'NONE',  ( 7.071067811865476400, 0.0000000000000000000, -2.000000000000000000 ) ) ;
#185 = LINE ( 'NONE', #184, #183 ) ;
#186 = CARTESIAN_POINT ( 'NONE',  ( -4.336808689942017700E-016, 7.071067811865472800, 0.0000000000000000000 ) ) ;
#187 = CARTESIAN_POINT ( 'NONE',  ( 7.071067811865476400, 0.0000000000000000000, 0.0000000000000000000 ) ) ;
#188 = DIRECTION ( 'NONE',  ( -0.7071067811865477900, 0.7071067811865473500, 0.0000000000000000000 ) ) ;
#189 = VECTOR ( 'NONE', #188, 1000.000000000000000 ) ;
#190 = CARTESIAN_POINT ( 'NONE',  ( 7.071067811865476400, 0.0000000000000000000, 0.0000000000000000000 ) ) ;
#191 = LINE ( 'NONE', #190, #189 ) ;
#192 = CARTESIAN_POINT ( 'NONE',  ( -3.275551365172702500E-016, 7.071067811865472000, -2.000000000000000000 ) ) ;
#193 = DIRECTION ( 'NONE',  ( -0.7071067811865477900, 0.7071067811865473500, 0.0000000000000000000 ) ) ;
#194 = VECTOR ( 'NONE', #193, 1000.000000000000000 ) ;
#195 = CARTESIAN_POINT ( 'NONE',  ( 7.071067811865476400, 0.0000000000000000000, -2.000000000000000000 ) ) ;
#196 = LINE ( 'NONE', #195, #194 ) ;
#197 = CARTESIAN_POINT ( 'NONE',  ( -11.00000000000000000, 1.347111479062088400E-015, 0.0000000000000000000 ) ) ;
#198 = DIRECTION ( 'NONE',  ( 0.0000000000000000000, 0.0000000000000000000, 1.000000000000000000 ) ) ;
#199 = VECTOR ( 'NONE', #198, 1000.000000000000000 ) ;
#200 = CARTESIAN_POINT ( 'NONE',  ( -11.00000000000000000, 1.347111479062088400E-015, -2.000000000000000000 ) ) ;
#201 = LINE ( 'NONE', #200, #199 ) ;
#202 = CARTESIAN_POINT ( 'NONE',  ( -11.00000000000000000, 1.347111479062088400E-015, -2.000000000000000000 ) ) ;
#203 = CARTESIAN_POINT ( 'NONE',  ( 11.00000000000000000, 0.0000000000000000000, -2.000000000000000000 ) ) ;
#204 = DIRECTION ( 'NONE',  ( 1.000000000000000000, 0.0000000000000000000, 0.0000000000000000000 ) ) ;
#205 = DIRECTION ( 'NONE',  ( 0.0000000000000000000, 0.0000000000000000000, 1.000000000000000000 ) ) ;
#206 = AXIS2_PLACEMENT_3D ( 'NONE', #212, #205, #204 ) ;
#207 = CIRCLE ( 'NONE', #206, 11.00000000000000000 ) ;
#208 = DIRECTION ( 'NONE',  ( 1.000000000000000000, 0.0000000000000000000, 0.0000000000000000000 ) ) ;
#209 = DIRECTION ( 'NONE',  ( 0.0000000000000000000, 0.0000000000000000000, 1.000000000000000000 ) ) ;
#210 = CARTESIAN_POINT ( 'NONE',  ( 0.0000000000000000000, 0.0000000000000000000, -2.000000000000000000 ) ) ;
#211 = AXIS2_PLACEMENT_3D ( 'NONE', #210, #209, #208 ) ;
#212 = CARTESIAN_POINT ( 'NONE',  ( 0.0000000000000000000, 0.0000000000000000000, -2.000000000000000000 ) ) ;
#213 = CYLINDRICAL_SURFACE ( 'NONE', #211, 11.00000000000000000 ) ;
#214 = FACE_OUTER_BOUND ( 'NONE', #29, .T. ) ;
#215 = CARTESIAN_POINT ( 'NONE',  ( 11.00000000000000000, 0.0000000000000000000, 0.0000000000000000000 ) ) ;
#216 = DIRECTION ( 'NONE',  ( 1.000000000000000000, 0.0000000000000000000, 0.0000000000000000000 ) ) ;
#217 = DIRECTION ( 'NONE',  ( 0.0000000000000000000, 0.0000000000000000000, 1.000000000000000000 ) ) ;
#218 = CARTESIAN_POINT ( 'NONE',  ( 0.0000000000000000000, 0.0000000000000000000, 0.0000000000000000000 ) ) ;
#219 = AXIS2_PLACEMENT_3D ( 'NONE', #218, #217, #216 ) ;
#220 = CIRCLE ( 'NONE', #219, 11.00000000000000000 ) ;
#221 = DIRECTION ( 'NONE',  ( 0.0000000000000000000, 0.0000000000000000000, 1.000000000000000000 ) ) ;
#222 = VECTOR ( 'NONE', #221, 1000.000000000000000 ) ;
#223 = CARTESIAN_POINT ( 'NONE',  ( 11.00000000000000000, 0.0000000000000000000, -2.000000000000000000 ) ) ;
#224 = LINE ( 'NONE', #223, #222 ) ;
#225 = DIRECTION ( 'NONE',  ( 1.000000000000000000, 0.0000000000000000000, 0.0000000000000000000 ) ) ;
#226 = DIRECTION ( 'NONE',  ( 0.0000000000000000000, 0.0000000000000000000, 1.000000000000000000 ) ) ;
#227 = CARTESIAN_POINT ( 'NONE',  ( 0.0000000000000000000, 0.0000000000000000000, -2.000000000000000000 ) ) ;
#228 = AXIS2_PLACEMENT_3D ( 'NONE', #227, #226, #225 ) ;
#229 = CIRCLE ( 'NONE', #228, 11.00000000000000000 ) ;
#230 = DIRECTION ( 'NONE',  ( 1.000000000000000000, 0.0000000000000000000, 0.0000000000000000000 ) ) ;
#231 = DIRECTION ( 'NONE',  ( 0.0000000000000000000, 0.0000000000000000000, 1.000000000000000000 ) ) ;
#232 = AXIS2_PLACEMENT_3D ( 'NONE', #238, #231, #230 ) ;
#233 = CIRCLE ( 'NONE', #232, 11.00000000000000000 ) ;
#234 = DIRECTION ( 'NONE',  ( 1.000000000000000000, 0.0000000000000000000, 0.0000000000000000000 ) ) ;
#235 = DIRECTION ( 'NONE',  ( 0.0000000000000000000, 0.0000000000000000000, 1.000000000000000000 ) ) ;
#236 = CARTESIAN_POINT ( 'NONE',  ( 0.0000000000000000000, 0.0000000000000000000, -2.000000000000000000 ) ) ;
#237 = AXIS2_PLACEMENT_3D ( 'NONE', #236, #235, #234 ) ;
#238 = CARTESIAN_POINT ( 'NONE',  ( 0.0000000000000000000, 0.0000000000000000000, 0.0000000000000000000 ) ) ;
#239 = PLANE ( 'NONE',  #237 ) ;
#240 = FACE_OUTER_BOUND ( 'NONE', #74, .T. ) ;
#241 = FACE_BOUND ( 'NONE', #19, .T. ) ;
#242 = CARTESIAN_POINT ( 'NONE',  ( -3.275551365172702500E-016, -7.071067811865476400, -2.000000000000000000 ) ) ;
#243 = DIRECTION ( 'NONE',  ( 0.7071067811865474600, 0.7071067811865474600, 0.0000000000000000000 ) ) ;
#244 = VECTOR ( 'NONE', #243, 1000.000000000000100 ) ;
#245 = CARTESIAN_POINT ( 'NONE',  ( -3.275551365172702500E-016, -7.071067811865476400, -2.000000000000000000 ) ) ;
#246 = LINE ( 'NONE', #245, #244 ) ;
#247 = CARTESIAN_POINT ( 'NONE',  ( -3.275551365172702500E-016, -7.071067811865476400, 0.0000000000000000000 ) ) ;
#248 = DIRECTION ( 'NONE',  ( -0.7071067811865475700, -0.7071067811865474600, 0.0000000000000000000 ) ) ;
#249 = VECTOR ( 'NONE', #248, 1000.000000000000000 ) ;
#250 = CARTESIAN_POINT ( 'NONE',  ( -3.275551365172702500E-016, 7.071067811865472000, 0.0000000000000000000 ) ) ;
#251 = LINE ( 'NONE', #250, #249 ) ;
#252 = FACE_OUTER_BOUND ( 'NONE', #5, .T. ) ;
#253 = AXIS2_PLACEMENT_3D ( 'NONE', #271, #270, #269 ) ;
#254 = PLANE ( 'NONE',  #253 ) ;
#255 = CARTESIAN_POINT ( 'NONE',  ( -7.071067811865474600, -1.387710543886695300E-015, 0.0000000000000000000 ) ) ;
#256 = DIRECTION ( 'NONE',  ( 0.7071067811865474600, 0.7071067811865474600, 0.0000000000000000000 ) ) ;
#257 = VECTOR ( 'NONE', #256, 1000.000000000000100 ) ;
#258 = CARTESIAN_POINT ( 'NONE',  ( -3.275551365172702500E-016, -7.071067811865476400, 0.0000000000000000000 ) ) ;
#259 = LINE ( 'NONE', #258, #257 ) ;
#260 = DIRECTION ( 'NONE',  ( 0.7071067811865474600, -0.7071067811865474600, 0.0000000000000000000 ) ) ;
#261 = VECTOR ( 'NONE', #260, 1000.000000000000100 ) ;
#262 = CARTESIAN_POINT ( 'NONE',  ( -7.071067811865474600, -1.387710543886695300E-015, 0.0000000000000000000 ) ) ;
#263 = LINE ( 'NONE', #262, #261 ) ;
#264 = DIRECTION ( 'NONE',  ( 0.0000000000000000000, 0.0000000000000000000, 1.000000000000000000 ) ) ;
#265 = VECTOR ( 'NONE', #264, 1000.000000000000000 ) ;
#266 = CARTESIAN_POINT ( 'NONE',  ( -3.275551365172702500E-016, 7.071067811865472000, -2.000000000000000000 ) ) ;
#267 = LINE ( 'NONE', #266, #265 ) ;
#268 = CARTESIAN_POINT ( 'NONE',  ( 7.071067811865476400, 0.0000000000000000000, -2.000000000000000000 ) ) ;
#269 = DIRECTION ( 'NONE',  ( -0.7071067811865477900, 0.7071067811865473500, 0.0000000000000000000 ) ) ;
#270 = DIRECTION ( 'NONE',  ( 0.7071067811865473500, 0.7071067811865477900, 0.0000000000000000000 ) ) ;
#271 = CARTESIAN_POINT ( 'NONE',  ( 7.071067811865476400, 0.0000000000000000000, -2.000000000000000000 ) ) ;
#272 = DIRECTION ( 'NONE',  ( 0.0000000000000000000, 0.0000000000000000000, 1.000000000000000000 ) ) ;
#273 = PRODUCT_DEFINITION_SHAPE ( 'NONE', 'NONE',  #111 ) ;
#274 = PRODUCT_RELATED_PRODUCT_CATEGORY ( 'detail', '', ( #120 ) ) ;
#275 = CC_DESIGN_SECURITY_CLASSIFICATION ( #296, ( #90 ) ) ;
#276 = CC_DESIGN_APPROVAL ( #284, ( #296 ) ) ;
#277 = APPROVAL_DATE_TIME ( #278, #284 ) ;
#278 = DATE_AND_TIME ( #279, #280 ) ;
#279 = CALENDAR_DATE ( 2008, 16, 10 ) ;
#280 = LOCAL_TIME ( 16, 34, 7.000000000000000000, #281 ) ;
#281 = COORDINATED_UNIVERSAL_TIME_OFFSET ( 9, 0, .AHEAD. ) ;
#282 = APPROVAL_PERSON_ORGANIZATION ( #286, #284, #283 ) ;
#283 = APPROVAL_ROLE ( '' ) ;
#284 = APPROVAL ( #285, 'UNSPECIFIED' ) ;
#285 = APPROVAL_STATUS ( 'not_yet_approved' ) ;
#286 = PERSON_AND_ORGANIZATION ( #119, #118 ) ;
#287 = CC_DESIGN_DATE_AND_TIME_ASSIGNMENT ( #289, #288, ( #296 ) ) ;
#288 = DATE_TIME_ROLE ( 'classification_date' ) ;
#289 = DATE_AND_TIME ( #290, #291 ) ;
#290 = CALENDAR_DATE ( 2008, 16, 10 ) ;
#291 = LOCAL_TIME ( 16, 34, 7.000000000000000000, #292 ) ;
#292 = COORDINATED_UNIVERSAL_TIME_OFFSET ( 9, 0, .AHEAD. ) ;
#293 = CC_DESIGN_PERSON_AND_ORGANIZATION_ASSIGNMENT ( #295, #294, ( #296 ) ) ;
#294 = PERSON_AND_ORGANIZATION_ROLE ( 'classification_officer' ) ;
#295 = PERSON_AND_ORGANIZATION ( #119, #118 ) ;
#296 = SECURITY_CLASSIFICATION ( '', '', #297 ) ;
#297 = SECURITY_CLASSIFICATION_LEVEL ( 'unclassified' ) ;
#298 = CC_DESIGN_PERSON_AND_ORGANIZATION_ASSIGNMENT ( #300, #299, ( #90 ) ) ;
#299 = PERSON_AND_ORGANIZATION_ROLE ( 'design_supplier' ) ;
#300 = PERSON_AND_ORGANIZATION ( #119, #118 ) ;
#301 = CC_DESIGN_PERSON_AND_ORGANIZATION_ASSIGNMENT ( #303, #302, ( #90 ) ) ;
#302 = PERSON_AND_ORGANIZATION_ROLE ( 'creator' ) ;
#303 = PERSON_AND_ORGANIZATION ( #119, #118 ) ;
#304 = CC_DESIGN_APPROVAL ( #311, ( #90 ) ) ;
#305 = APPROVAL_DATE_TIME ( #306, #311 ) ;
#306 = DATE_AND_TIME ( #307, #308 ) ;
#307 = CALENDAR_DATE ( 2008, 16, 10 ) ;
#308 = LOCAL_TIME ( 16, 34, 7.000000000000000000, #309 ) ;
#309 = COORDINATED_UNIVERSAL_TIME_OFFSET ( 9, 0, .AHEAD. ) ;
#310 = APPROVAL_PERSON_ORGANIZATION ( #89, #311, #87 ) ;
#311 = APPROVAL ( #88, 'UNSPECIFIED' ) ;
ENDSEC;
END-ISO-10303-21;
