ISO-10303-21;
HEADER;
FILE_DESCRIPTION (( 'STEP AP203' ),
    '1' );
FILE_NAME ('AC-25-W-3.STEP',
    '2008-10-16T07:33:20',
    ( ' ' ),
    ( ' ' ),
    'SwSTEP 2.0',
    'SolidWorks 2007',
    '' );
FILE_SCHEMA (( 'CONFIG_CONTROL_DESIGN' ));
ENDSEC;

DATA;
#1 = LINE ( 'NONE', #2, #4 ) ;
#2 = CARTESIAN_POINT ( 'NONE',  ( -3.275551365172702500E-016, -7.071067811865476400, -3.200000000000000200 ) ) ;
#3 = DIRECTION ( 'NONE',  ( 0.0000000000000000000, 0.0000000000000000000, 1.000000000000000000 ) ) ;
#4 = VECTOR ( 'NONE', #3, 1000.000000000000000 ) ;
#5 = DIRECTION ( 'NONE',  ( 1.000000000000000000, 0.0000000000000000000, 0.0000000000000000000 ) ) ;
#6 = AXIS2_PLACEMENT_3D ( 'NONE', #8, #7, #5 ) ;
#7 = DIRECTION ( 'NONE',  ( 0.0000000000000000000, 0.0000000000000000000, 1.000000000000000000 ) ) ;
#8 = CARTESIAN_POINT ( 'NONE',  ( 0.0000000000000000000, 0.0000000000000000000, 0.0000000000000000000 ) ) ;
#9 = PLANE ( 'NONE',  #6 ) ;
#10 = FACE_OUTER_BOUND ( 'NONE', #25, .T. ) ;
#11 = FACE_BOUND ( 'NONE', #101, .T. ) ;
#12 = CARTESIAN_POINT ( 'NONE',  ( -3.275551365172702500E-016, -7.071067811865476400, 0.0000000000000000000 ) ) ;
#13 = CARTESIAN_POINT ( 'NONE',  ( -7.071067811865474600, -1.387710543886695300E-015, 0.0000000000000000000 ) ) ;
#14 = CARTESIAN_POINT ( 'NONE',  ( 7.071067811865476400, 0.0000000000000000000, 0.0000000000000000000 ) ) ;
#15 = CARTESIAN_POINT ( 'NONE',  ( -11.25000000000000200, 1.377727649040772600E-015, -3.200000000000000200 ) ) ;
#16 = DIRECTION ( 'NONE',  ( 1.000000000000000000, 0.0000000000000000000, 0.0000000000000000000 ) ) ;
#17 = DIRECTION ( 'NONE',  ( 0.0000000000000000000, 0.0000000000000000000, 1.000000000000000000 ) ) ;
#18 = CARTESIAN_POINT ( 'NONE',  ( 0.0000000000000000000, 0.0000000000000000000, -3.200000000000000200 ) ) ;
#19 = AXIS2_PLACEMENT_3D ( 'NONE', #18, #17, #16 ) ;
#20 = CIRCLE ( 'NONE', #19, 11.25000000000000200 ) ;
#21 = ORIENTED_EDGE ( 'NONE', *, *, #22, .T. ) ;
#22 = EDGE_CURVE ( 'NONE', #67, #23, #20, .T. ) ;
#23 = VERTEX_POINT ( 'NONE', #15 ) ;
#24 = ORIENTED_EDGE ( 'NONE', *, *, #42, .F. ) ;
#25 = EDGE_LOOP ( 'NONE', ( #43, #44 ) ) ;
#26 = VERTEX_POINT ( 'NONE', #14 ) ;
#27 = VERTEX_POINT ( 'NONE', #13 ) ;
#28 = ORIENTED_EDGE ( 'NONE', *, *, #64, .F. ) ;
#29 = VERTEX_POINT ( 'NONE', #12 ) ;
#30 = ADVANCED_FACE ( 'NONE', ( #11, #10 ), #9, .T. ) ;
#31 = ORIENTED_EDGE ( 'NONE', *, *, #95, .T. ) ;
#32 = EDGE_CURVE ( 'NONE', #80, #83, #107, .T. ) ;
#33 = ADVANCED_FACE ( 'NONE', ( #108, #124 ), #110, .F. ) ;
#34 = ORIENTED_EDGE ( 'NONE', *, *, #32, .F. ) ;
#35 = ORIENTED_EDGE ( 'NONE', *, *, #85, .T. ) ;
#36 = ORIENTED_EDGE ( 'NONE', *, *, #95, .F. ) ;
#37 = EDGE_CURVE ( 'NONE', #97, #26, #111, .T. ) ;
#38 = ADVANCED_FACE ( 'NONE', ( #117 ), #116, .F. ) ;
#39 = ORIENTED_EDGE ( 'NONE', *, *, #61, .T. ) ;
#40 = EDGE_LOOP ( 'NONE', ( #39, #53, #55, #54 ) ) ;
#41 = EDGE_CURVE ( 'NONE', #98, #63, #150, .T. ) ;
#42 = EDGE_CURVE ( 'NONE', #63, #27, #149, .T. ) ;
#43 = ORIENTED_EDGE ( 'NONE', *, *, #82, .T. ) ;
#44 = ORIENTED_EDGE ( 'NONE', *, *, #32, .T. ) ;
#45 = EDGE_LOOP ( 'NONE', ( #46, #31, #103, #105 ) ) ;
#46 = ORIENTED_EDGE ( 'NONE', *, *, #99, .T. ) ;
#47 = EDGE_CURVE ( 'NONE', #23, #67, #151, .T. ) ;
#48 = ADVANCED_FACE ( 'NONE', ( #142 ), #152, .F. ) ;
#49 = ADVANCED_FACE ( 'NONE', ( #138 ), #147, .F. ) ;
#50 = ORIENTED_EDGE ( 'NONE', *, *, #66, .T. ) ;
#51 = EDGE_CURVE ( 'NONE', #96, #29, #1, .T. ) ;
#52 = EDGE_LOOP ( 'NONE', ( #50, #74, #71, #70 ) ) ;
#53 = ORIENTED_EDGE ( 'NONE', *, *, #37, .F. ) ;
#54 = ORIENTED_EDGE ( 'NONE', *, *, #51, .T. ) ;
#55 = ORIENTED_EDGE ( 'NONE', *, *, #99, .F. ) ;
#56 = ORIENTED_EDGE ( 'NONE', *, *, #41, .F. ) ;
#57 = ORIENTED_EDGE ( 'NONE', *, *, #37, .T. ) ;
#58 = ADVANCED_FACE ( 'NONE', ( #168 ), #176, .F. ) ;
#59 = EDGE_LOOP ( 'NONE', ( #60, #56, #36, #57 ) ) ;
#60 = ORIENTED_EDGE ( 'NONE', *, *, #64, .T. ) ;
#61 = EDGE_CURVE ( 'NONE', #29, #26, #157, .T. ) ;
#62 = ORIENTED_EDGE ( 'NONE', *, *, #61, .F. ) ;
#63 = VERTEX_POINT ( 'NONE', #158 ) ;
#64 = EDGE_CURVE ( 'NONE', #26, #63, #169, .T. ) ;
#65 = ORIENTED_EDGE ( 'NONE', *, *, #66, .F. ) ;
#66 = EDGE_CURVE ( 'NONE', #27, #29, #163, .T. ) ;
#67 = VERTEX_POINT ( 'NONE', #159 ) ;
#68 = EDGE_CURVE ( 'NONE', #93, #27, #175, .T. ) ;
#69 = ORIENTED_EDGE ( 'NONE', *, *, #104, .F. ) ;
#70 = ORIENTED_EDGE ( 'NONE', *, *, #68, .T. ) ;
#71 = ORIENTED_EDGE ( 'NONE', *, *, #106, .F. ) ;
#72 = EDGE_LOOP ( 'NONE', ( #77, #76, #69, #73 ) ) ;
#73 = ORIENTED_EDGE ( 'NONE', *, *, #41, .T. ) ;
#74 = ORIENTED_EDGE ( 'NONE', *, *, #51, .F. ) ;
#75 = CLOSED_SHELL ( 'NONE', ( #90, #86, #33, #30, #58, #38, #49, #48 ) ) ;
#76 = ORIENTED_EDGE ( 'NONE', *, *, #68, .F. ) ;
#77 = ORIENTED_EDGE ( 'NONE', *, *, #42, .T. ) ;
#78 = ORIENTED_EDGE ( 'NONE', *, *, #79, .T. ) ;
#79 = EDGE_CURVE ( 'NONE', #23, #80, #300, .T. ) ;
#80 = VERTEX_POINT ( 'NONE', #305 ) ;
#81 = ORIENTED_EDGE ( 'NONE', *, *, #82, .F. ) ;
#82 = EDGE_CURVE ( 'NONE', #83, #80, #294, .T. ) ;
#83 = VERTEX_POINT ( 'NONE', #299 ) ;
#84 = ORIENTED_EDGE ( 'NONE', *, *, #85, .F. ) ;
#85 = EDGE_CURVE ( 'NONE', #67, #83, #308, .T. ) ;
#86 = ADVANCED_FACE ( 'NONE', ( #267 ), #266, .T. ) ;
#87 = EDGE_LOOP ( 'NONE', ( #88, #100, #35, #34 ) ) ;
#88 = ORIENTED_EDGE ( 'NONE', *, *, #79, .F. ) ;
#89 = MANIFOLD_SOLID_BREP ( 'NONE', #75 ) ;
#90 = ADVANCED_FACE ( 'NONE', ( #260 ), #265, .T. ) ;
#91 = EDGE_LOOP ( 'NONE', ( #21, #78, #81, #84 ) ) ;
#92 = ORIENTED_EDGE ( 'NONE', *, *, #22, .F. ) ;
#93 = VERTEX_POINT ( 'NONE', #249 ) ;
#94 = EDGE_LOOP ( 'NONE', ( #92, #102 ) ) ;
#95 = EDGE_CURVE ( 'NONE', #97, #98, #290, .T. ) ;
#96 = VERTEX_POINT ( 'NONE', #286 ) ;
#97 = VERTEX_POINT ( 'NONE', #285 ) ;
#98 = VERTEX_POINT ( 'NONE', #284 ) ;
#99 = EDGE_CURVE ( 'NONE', #96, #97, #256, .T. ) ;
#100 = ORIENTED_EDGE ( 'NONE', *, *, #47, .T. ) ;
#101 = EDGE_LOOP ( 'NONE', ( #28, #62, #65, #24 ) ) ;
#102 = ORIENTED_EDGE ( 'NONE', *, *, #47, .F. ) ;
#103 = ORIENTED_EDGE ( 'NONE', *, *, #104, .T. ) ;
#104 = EDGE_CURVE ( 'NONE', #98, #93, #276, .T. ) ;
#105 = ORIENTED_EDGE ( 'NONE', *, *, #106, .T. ) ;
#106 = EDGE_CURVE ( 'NONE', #93, #96, #283, .T. ) ;
#107 = CIRCLE ( 'NONE', #128, 11.25000000000000200 ) ;
#108 = FACE_BOUND ( 'NONE', #45, .T. ) ;
#109 = AXIS2_PLACEMENT_3D ( 'NONE', #123, #122, #121 ) ;
#110 = PLANE ( 'NONE',  #109 ) ;
#111 = LINE ( 'NONE', #120, #119 ) ;
#112 = DIRECTION ( 'NONE',  ( 0.7071067811865474600, 0.7071067811865474600, 0.0000000000000000000 ) ) ;
#113 = DIRECTION ( 'NONE',  ( 0.7071067811865475700, -0.7071067811865475700, 0.0000000000000000000 ) ) ;
#114 = CARTESIAN_POINT ( 'NONE',  ( -3.275551365172702500E-016, -7.071067811865476400, -3.200000000000000200 ) ) ;
#115 = AXIS2_PLACEMENT_3D ( 'NONE', #114, #113, #112 ) ;
#116 = PLANE ( 'NONE',  #115 ) ;
#117 = FACE_OUTER_BOUND ( 'NONE', #40, .T. ) ;
#118 = DIRECTION ( 'NONE',  ( 0.0000000000000000000, 0.0000000000000000000, 1.000000000000000000 ) ) ;
#119 = VECTOR ( 'NONE', #118, 1000.000000000000000 ) ;
#120 = CARTESIAN_POINT ( 'NONE',  ( 7.071067811865476400, 0.0000000000000000000, -3.200000000000000200 ) ) ;
#121 = DIRECTION ( 'NONE',  ( 1.000000000000000000, 0.0000000000000000000, 0.0000000000000000000 ) ) ;
#122 = DIRECTION ( 'NONE',  ( 0.0000000000000000000, 0.0000000000000000000, 1.000000000000000000 ) ) ;
#123 = CARTESIAN_POINT ( 'NONE',  ( 0.0000000000000000000, 0.0000000000000000000, -3.200000000000000200 ) ) ;
#124 = FACE_OUTER_BOUND ( 'NONE', #94, .T. ) ;
#125 = DIRECTION ( 'NONE',  ( 1.000000000000000000, 0.0000000000000000000, 0.0000000000000000000 ) ) ;
#126 = DIRECTION ( 'NONE',  ( 0.0000000000000000000, 0.0000000000000000000, 1.000000000000000000 ) ) ;
#127 = CARTESIAN_POINT ( 'NONE',  ( 0.0000000000000000000, 0.0000000000000000000, 0.0000000000000000000 ) ) ;
#128 = AXIS2_PLACEMENT_3D ( 'NONE', #127, #126, #125 ) ;
#129 = CARTESIAN_POINT ( 'NONE',  ( -3.275551365172702500E-016, 7.071067811865472000, -3.200000000000000200 ) ) ;
#130 = DIRECTION ( 'NONE',  ( -0.7071067811865475700, -0.7071067811865474600, 0.0000000000000000000 ) ) ;
#131 = VECTOR ( 'NONE', #130, 1000.000000000000000 ) ;
#132 = VECTOR ( 'NONE', #153, 1000.000000000000000 ) ;
#133 = AXIS2_PLACEMENT_3D ( 'NONE', #141, #140, #139 ) ;
#134 = DIRECTION ( 'NONE',  ( -0.7071067811865474600, -0.7071067811865474600, 0.0000000000000000000 ) ) ;
#135 = DIRECTION ( 'NONE',  ( -0.7071067811865475700, 0.7071067811865475700, 0.0000000000000000000 ) ) ;
#136 = CARTESIAN_POINT ( 'NONE',  ( -3.275551365172702500E-016, 7.071067811865472000, -3.200000000000000200 ) ) ;
#137 = AXIS2_PLACEMENT_3D ( 'NONE', #136, #135, #134 ) ;
#138 = FACE_OUTER_BOUND ( 'NONE', #52, .T. ) ;
#139 = DIRECTION ( 'NONE',  ( 0.7071067811865474600, -0.7071067811865474600, 0.0000000000000000000 ) ) ;
#140 = DIRECTION ( 'NONE',  ( -0.7071067811865475700, -0.7071067811865475700, 0.0000000000000000000 ) ) ;
#141 = CARTESIAN_POINT ( 'NONE',  ( -7.071067811865474600, -1.387710543886695300E-015, -3.200000000000000200 ) ) ;
#142 = FACE_OUTER_BOUND ( 'NONE', #72, .T. ) ;
#143 = DIRECTION ( 'NONE',  ( 1.000000000000000000, 0.0000000000000000000, 0.0000000000000000000 ) ) ;
#144 = DIRECTION ( 'NONE',  ( 0.0000000000000000000, 0.0000000000000000000, 1.000000000000000000 ) ) ;
#145 = CARTESIAN_POINT ( 'NONE',  ( 0.0000000000000000000, 0.0000000000000000000, -3.200000000000000200 ) ) ;
#146 = AXIS2_PLACEMENT_3D ( 'NONE', #145, #144, #143 ) ;
#147 = PLANE ( 'NONE',  #133 ) ;
#148 = CARTESIAN_POINT ( 'NONE',  ( -3.275551365172702500E-016, 7.071067811865472000, 0.0000000000000000000 ) ) ;
#149 = LINE ( 'NONE', #148, #131 ) ;
#150 = LINE ( 'NONE', #129, #132 ) ;
#151 = CIRCLE ( 'NONE', #146, 11.25000000000000200 ) ;
#152 = PLANE ( 'NONE',  #137 ) ;
#153 = DIRECTION ( 'NONE',  ( 0.0000000000000000000, 0.0000000000000000000, 1.000000000000000000 ) ) ;
#154 = DIRECTION ( 'NONE',  ( 0.7071067811865474600, 0.7071067811865474600, 0.0000000000000000000 ) ) ;
#155 = VECTOR ( 'NONE', #154, 1000.000000000000100 ) ;
#156 = CARTESIAN_POINT ( 'NONE',  ( -3.275551365172702500E-016, -7.071067811865476400, 0.0000000000000000000 ) ) ;
#157 = LINE ( 'NONE', #156, #155 ) ;
#158 = CARTESIAN_POINT ( 'NONE',  ( -4.336808689942017700E-016, 7.071067811865471100, 0.0000000000000000000 ) ) ;
#159 = CARTESIAN_POINT ( 'NONE',  ( 11.25000000000000200, 0.0000000000000000000, -3.200000000000000200 ) ) ;
#160 = DIRECTION ( 'NONE',  ( 0.7071067811865474600, -0.7071067811865474600, 0.0000000000000000000 ) ) ;
#161 = VECTOR ( 'NONE', #160, 1000.000000000000100 ) ;
#162 = CARTESIAN_POINT ( 'NONE',  ( -7.071067811865474600, -1.387710543886695300E-015, 0.0000000000000000000 ) ) ;
#163 = LINE ( 'NONE', #162, #161 ) ;
#164 = DIRECTION ( 'NONE',  ( -0.7071067811865477900, 0.7071067811865473500, 0.0000000000000000000 ) ) ;
#165 = VECTOR ( 'NONE', #164, 1000.000000000000000 ) ;
#166 = CARTESIAN_POINT ( 'NONE',  ( 7.071067811865476400, 0.0000000000000000000, 0.0000000000000000000 ) ) ;
#167 = DIRECTION ( 'NONE',  ( -0.7071067811865477900, 0.7071067811865473500, 0.0000000000000000000 ) ) ;
#168 = FACE_OUTER_BOUND ( 'NONE', #59, .T. ) ;
#169 = LINE ( 'NONE', #166, #165 ) ;
#170 = DIRECTION ( 'NONE',  ( 0.7071067811865473500, 0.7071067811865477900, 0.0000000000000000000 ) ) ;
#171 = CARTESIAN_POINT ( 'NONE',  ( 7.071067811865476400, 0.0000000000000000000, -3.200000000000000200 ) ) ;
#172 = DIRECTION ( 'NONE',  ( 0.0000000000000000000, 0.0000000000000000000, 1.000000000000000000 ) ) ;
#173 = VECTOR ( 'NONE', #172, 1000.000000000000000 ) ;
#174 = CARTESIAN_POINT ( 'NONE',  ( -7.071067811865474600, -1.387710543886695300E-015, -3.200000000000000200 ) ) ;
#175 = LINE ( 'NONE', #174, #173 ) ;
#176 = PLANE ( 'NONE',  #177 ) ;
#177 = AXIS2_PLACEMENT_3D ( 'NONE', #171, #170, #167 ) ;
#178 = APPROVAL_STATUS ( 'not_yet_approved' ) ;
#179 = APPROVAL_DATE_TIME ( #180, #209 ) ;
#180 = DATE_AND_TIME ( #204, #205 ) ;
#181 = CC_DESIGN_APPROVAL ( #209, ( #199 ) ) ;
#182 = APPROVAL_ROLE ( '' ) ;
#183 = LOCAL_TIME ( 16, 33, 20.00000000000000000, #184 ) ;
#184 = COORDINATED_UNIVERSAL_TIME_OFFSET ( 9, 0, .AHEAD. ) ;
#185 = APPROVAL_PERSON_ORGANIZATION ( #234, #188, #182 ) ;
#186 = DATE_AND_TIME ( #187, #183 ) ;
#187 = CALENDAR_DATE ( 2008, 16, 10 ) ;
#188 = APPROVAL ( #178, 'UNSPECIFIED' ) ;
#189 = APPROVAL_DATE_TIME ( #186, #188 ) ;
#190 = CC_DESIGN_APPROVAL ( #188, ( #220 ) ) ;
#191 = CC_DESIGN_SECURITY_CLASSIFICATION ( #220, ( #246 ) ) ;
#192 = PERSON_AND_ORGANIZATION ( #250, #194 ) ;
#193 = CC_DESIGN_PERSON_AND_ORGANIZATION_ASSIGNMENT ( #192, #195, ( #199 ) ) ;
#194 = ORGANIZATION ( 'UNSPECIFIED', 'UNSPECIFIED', '' ) ;
#195 = PERSON_AND_ORGANIZATION_ROLE ( 'creator' ) ;
#196 = PERSON_AND_ORGANIZATION_ROLE ( 'design_owner' ) ;
#197 = APPLICATION_CONTEXT ( 'configuration controlled 3d designs of mechanical parts and assemblies' ) ;
#198 = APPROVAL_STATUS ( 'not_yet_approved' ) ;
#199 = PRODUCT_DEFINITION ( 'UNKNOWN', '', #246, #203 ) ;
#200 = PERSON_AND_ORGANIZATION ( #250, #194 ) ;
#201 = PERSON_AND_ORGANIZATION ( #250, #194 ) ;
#202 = APPLICATION_PROTOCOL_DEFINITION ( 'international standard', 'config_control_design', 1994, #197 ) ;
#203 = DESIGN_CONTEXT ( 'detailed design', #197, 'design' ) ;
#204 = CALENDAR_DATE ( 2008, 16, 10 ) ;
#205 = LOCAL_TIME ( 16, 33, 20.00000000000000000, #206 ) ;
#206 = COORDINATED_UNIVERSAL_TIME_OFFSET ( 9, 0, .AHEAD. ) ;
#207 = APPROVAL_PERSON_ORGANIZATION ( #201, #209, #208 ) ;
#208 = APPROVAL_ROLE ( '' ) ;
#209 = APPROVAL ( #198, 'UNSPECIFIED' ) ;
#210 = CC_DESIGN_PERSON_AND_ORGANIZATION_ASSIGNMENT ( #200, #196, ( #251 ) ) ;
#211 = PERSON_AND_ORGANIZATION ( #250, #194 ) ;
#212 = CC_DESIGN_PERSON_AND_ORGANIZATION_ASSIGNMENT ( #217, #213, ( #246 ) ) ;
#213 = PERSON_AND_ORGANIZATION_ROLE ( 'creator' ) ;
#214 = COORDINATED_UNIVERSAL_TIME_OFFSET ( 9, 0, .AHEAD. ) ;
#215 = DATE_TIME_ROLE ( 'creation_date' ) ;
#216 = APPROVAL_PERSON_ORGANIZATION ( #211, #222, #242 ) ;
#217 = PERSON_AND_ORGANIZATION ( #250, #194 ) ;
#218 = PERSON_AND_ORGANIZATION_ROLE ( 'classification_officer' ) ;
#219 = PERSON_AND_ORGANIZATION ( #250, #194 ) ;
#220 = SECURITY_CLASSIFICATION ( '', '', #221 ) ;
#221 = SECURITY_CLASSIFICATION_LEVEL ( 'unclassified' ) ;
#222 = APPROVAL ( #227, 'UNSPECIFIED' ) ;
#223 = CC_DESIGN_PERSON_AND_ORGANIZATION_ASSIGNMENT ( #225, #224, ( #246 ) ) ;
#224 = PERSON_AND_ORGANIZATION_ROLE ( 'design_supplier' ) ;
#225 = PERSON_AND_ORGANIZATION ( #250, #194 ) ;
#226 = COORDINATED_UNIVERSAL_TIME_OFFSET ( 9, 0, .AHEAD. ) ;
#227 = APPROVAL_STATUS ( 'not_yet_approved' ) ;
#228 = DATE_AND_TIME ( #229, #245 ) ;
#229 = CALENDAR_DATE ( 2008, 16, 10 ) ;
#230 = LOCAL_TIME ( 16, 33, 20.00000000000000000, #226 ) ;
#231 = DATE_AND_TIME ( #243, #230 ) ;
#232 = COORDINATED_UNIVERSAL_TIME_OFFSET ( 9, 0, .AHEAD. ) ;
#233 = CC_DESIGN_PERSON_AND_ORGANIZATION_ASSIGNMENT ( #219, #218, ( #220 ) ) ;
#234 = PERSON_AND_ORGANIZATION ( #250, #194 ) ;
#235 = CC_DESIGN_DATE_AND_TIME_ASSIGNMENT ( #237, #236, ( #220 ) ) ;
#236 = DATE_TIME_ROLE ( 'classification_date' ) ;
#237 = DATE_AND_TIME ( #238, #239 ) ;
#238 = CALENDAR_DATE ( 2008, 16, 10 ) ;
#239 = LOCAL_TIME ( 16, 33, 20.00000000000000000, #232 ) ;
#240 = CC_DESIGN_APPROVAL ( #222, ( #246 ) ) ;
#241 = APPROVAL_DATE_TIME ( #228, #222 ) ;
#242 = APPROVAL_ROLE ( '' ) ;
#243 = CALENDAR_DATE ( 2008, 16, 10 ) ;
#244 = CC_DESIGN_DATE_AND_TIME_ASSIGNMENT ( #231, #215, ( #199 ) ) ;
#245 = LOCAL_TIME ( 16, 33, 20.00000000000000000, #214 ) ;
#246 = PRODUCT_DEFINITION_FORMATION_WITH_SPECIFIED_SOURCE ( 'ANY', '', #251, .NOT_KNOWN. ) ;
#247 = CARTESIAN_POINT ( 'NONE',  ( 0.0000000000000000000, 0.0000000000000000000, -3.200000000000000200 ) ) ;
#248 = AXIS2_PLACEMENT_3D ( 'NONE', #247, #259, #258 ) ;
#249 = CARTESIAN_POINT ( 'NONE',  ( -7.071067811865472800, -1.301042606982605300E-015, -3.200000000000000200 ) ) ;
#250 = PERSON ( 'UNSPECIFIED', 'UNSPECIFIED', 'UNSPECIFIED', ('UNSPECIFIED'), ('UNSPECIFIED'), ('UNSPECIFIED') ) ;
#251 = PRODUCT ( 'AC-25-W-3', 'AC-25-W-3', '', ( #252 ) ) ;
#252 = MECHANICAL_CONTEXT ( 'NONE', #278, 'mechanical' ) ;
#253 = DIRECTION ( 'NONE',  ( 0.7071067811865474600, 0.7071067811865474600, 0.0000000000000000000 ) ) ;
#254 = VECTOR ( 'NONE', #253, 1000.000000000000100 ) ;
#255 = CARTESIAN_POINT ( 'NONE',  ( -3.275551365172702500E-016, -7.071067811865476400, -3.200000000000000200 ) ) ;
#256 = LINE ( 'NONE', #255, #254 ) ;
#257 = DIRECTION ( 'NONE',  ( 1.000000000000000000, 0.0000000000000000000, 0.0000000000000000000 ) ) ;
#258 = DIRECTION ( 'NONE',  ( 1.000000000000000000, 0.0000000000000000000, 0.0000000000000000000 ) ) ;
#259 = DIRECTION ( 'NONE',  ( 0.0000000000000000000, 0.0000000000000000000, 1.000000000000000000 ) ) ;
#260 = FACE_OUTER_BOUND ( 'NONE', #91, .T. ) ;
#261 = DIRECTION ( 'NONE',  ( 1.000000000000000000, 0.0000000000000000000, 0.0000000000000000000 ) ) ;
#262 = DIRECTION ( 'NONE',  ( 0.0000000000000000000, 0.0000000000000000000, 1.000000000000000000 ) ) ;
#263 = CARTESIAN_POINT ( 'NONE',  ( 0.0000000000000000000, 0.0000000000000000000, -3.200000000000000200 ) ) ;
#264 = AXIS2_PLACEMENT_3D ( 'NONE', #263, #262, #261 ) ;
#265 = CYLINDRICAL_SURFACE ( 'NONE', #248, 11.25000000000000200 ) ;
#266 = CYLINDRICAL_SURFACE ( 'NONE', #264, 11.25000000000000200 ) ;
#267 = FACE_OUTER_BOUND ( 'NONE', #87, .T. ) ;
#268 = DIRECTION ( 'NONE',  ( 0.0000000000000000000, 0.0000000000000000000, 1.000000000000000000 ) ) ;
#269 = UNCERTAINTY_MEASURE_WITH_UNIT (LENGTH_MEASURE( 1.000000000000000100E-005 ), #304, 'distance_accuracy_value', 'NONE');
#270 =( NAMED_UNIT ( * ) SI_UNIT ( $, .STERADIAN. ) SOLID_ANGLE_UNIT ( ) );
#271 = AXIS2_PLACEMENT_3D ( 'NONE', #291, #298, #297 ) ;
#272 = DIRECTION ( 'NONE',  ( 0.0000000000000000000, 0.0000000000000000000, 1.000000000000000000 ) ) ;
#273 = DIRECTION ( 'NONE',  ( -0.7071067811865475700, -0.7071067811865474600, 0.0000000000000000000 ) ) ;
#274 = VECTOR ( 'NONE', #273, 1000.000000000000000 ) ;
#275 = CARTESIAN_POINT ( 'NONE',  ( -3.275551365172702500E-016, 7.071067811865472000, -3.200000000000000200 ) ) ;
#276 = LINE ( 'NONE', #275, #274 ) ;
#277 = APPLICATION_PROTOCOL_DEFINITION ( 'international standard', 'config_control_design', 1994, #278 ) ;
#278 = APPLICATION_CONTEXT ( 'configuration controlled 3d designs of mechanical parts and assemblies' ) ;
#279 = DIRECTION ( 'NONE',  ( 0.0000000000000000000, 0.0000000000000000000, 1.000000000000000000 ) ) ;
#280 = DIRECTION ( 'NONE',  ( 0.7071067811865474600, -0.7071067811865474600, 0.0000000000000000000 ) ) ;
#281 = VECTOR ( 'NONE', #280, 1000.000000000000100 ) ;
#282 = CARTESIAN_POINT ( 'NONE',  ( -7.071067811865474600, -1.387710543886695300E-015, -3.200000000000000200 ) ) ;
#283 = LINE ( 'NONE', #282, #281 ) ;
#284 = CARTESIAN_POINT ( 'NONE',  ( -3.275551365172702500E-016, 7.071067811865472000, -3.200000000000000200 ) ) ;
#285 = CARTESIAN_POINT ( 'NONE',  ( 7.071067811865476400, 0.0000000000000000000, -3.200000000000000200 ) ) ;
#286 = CARTESIAN_POINT ( 'NONE',  ( -3.275551365172702500E-016, -7.071067811865476400, -3.200000000000000200 ) ) ;
#287 = DIRECTION ( 'NONE',  ( -0.7071067811865477900, 0.7071067811865473500, 0.0000000000000000000 ) ) ;
#288 = VECTOR ( 'NONE', #287, 1000.000000000000000 ) ;
#289 = CARTESIAN_POINT ( 'NONE',  ( 7.071067811865476400, 0.0000000000000000000, -3.200000000000000200 ) ) ;
#290 = LINE ( 'NONE', #289, #288 ) ;
#291 = CARTESIAN_POINT ( 'NONE',  ( 0.0000000000000000000, 0.0000000000000000000, 0.0000000000000000000 ) ) ;
#292 = CARTESIAN_POINT ( 'NONE',  ( -11.25000000000000200, 1.377727649040772600E-015, -3.200000000000000200 ) ) ;
#293 = VECTOR ( 'NONE', #272, 1000.000000000000000 ) ;
#294 = CIRCLE ( 'NONE', #271, 11.25000000000000200 ) ;
#295 = CARTESIAN_POINT ( 'NONE',  ( 0.0000000000000000000, 0.0000000000000000000, 0.0000000000000000000 ) ) ;
#296 = AXIS2_PLACEMENT_3D ( 'NONE', #295, #279, #257 ) ;
#297 = DIRECTION ( 'NONE',  ( 1.000000000000000000, 0.0000000000000000000, 0.0000000000000000000 ) ) ;
#298 = DIRECTION ( 'NONE',  ( 0.0000000000000000000, 0.0000000000000000000, 1.000000000000000000 ) ) ;
#299 = CARTESIAN_POINT ( 'NONE',  ( 11.25000000000000200, 0.0000000000000000000, 0.0000000000000000000 ) ) ;
#300 = LINE ( 'NONE', #292, #293 ) ;
#301 = ADVANCED_BREP_SHAPE_REPRESENTATION ( 'AC-25-W-3', ( #89, #296 ), #302 ) ;
#302 =( GEOMETRIC_REPRESENTATION_CONTEXT ( 3 ) GLOBAL_UNCERTAINTY_ASSIGNED_CONTEXT ( ( #269 ) ) GLOBAL_UNIT_ASSIGNED_CONTEXT ( ( #304, #303, #270 ) ) REPRESENTATION_CONTEXT ( 'NONE', 'WORKASPACE' ) );
#303 =( NAMED_UNIT ( * ) PLANE_ANGLE_UNIT ( ) SI_UNIT ( $, .RADIAN. ) );
#304 =( LENGTH_UNIT ( ) NAMED_UNIT ( * ) SI_UNIT ( .MILLI., .METRE. ) );
#305 = CARTESIAN_POINT ( 'NONE',  ( -11.25000000000000200, 1.377727649040772600E-015, 0.0000000000000000000 ) ) ;
#306 = VECTOR ( 'NONE', #268, 1000.000000000000000 ) ;
#307 = CARTESIAN_POINT ( 'NONE',  ( 11.25000000000000200, 0.0000000000000000000, -3.200000000000000200 ) ) ;
#308 = LINE ( 'NONE', #307, #306 ) ;
#309 = SHAPE_DEFINITION_REPRESENTATION ( #310, #301 ) ;
#310 = PRODUCT_DEFINITION_SHAPE ( 'NONE', 'NONE',  #199 ) ;
#311 = PRODUCT_RELATED_PRODUCT_CATEGORY ( 'detail', '', ( #251 ) ) ;
ENDSEC;
END-ISO-10303-21;
