ISO-10303-21;
HEADER;
FILE_DESCRIPTION (( 'STEP AP203' ),
    '1' );
FILE_NAME ('AC-25-W-2.STEP',
    '2008-10-16T07:31:37',
    ( ' ' ),
    ( ' ' ),
    'SwSTEP 2.0',
    'SolidWorks 2007',
    '' );
FILE_SCHEMA (( 'CONFIG_CONTROL_DESIGN' ));
ENDSEC;

DATA;
#1 = EDGE_LOOP ( 'NONE', ( #48, #24 ) ) ;
#2 = EDGE_CURVE ( 'NONE', #54, #37, #102, .T. ) ;
#3 = ORIENTED_EDGE ( 'NONE', *, *, #76, .T. ) ;
#4 = ORIENTED_EDGE ( 'NONE', *, *, #90, .T. ) ;
#5 = EDGE_LOOP ( 'NONE', ( #3, #4 ) ) ;
#6 = ORIENTED_EDGE ( 'NONE', *, *, #35, .F. ) ;
#7 = ORIENTED_EDGE ( 'NONE', *, *, #40, .T. ) ;
#8 = ORIENTED_EDGE ( 'NONE', *, *, #57, .F. ) ;
#9 = EDGE_CURVE ( 'NONE', #54, #33, #193, .T. ) ;
#10 = ORIENTED_EDGE ( 'NONE', *, *, #81, .T. ) ;
#11 = ORIENTED_EDGE ( 'NONE', *, *, #9, .T. ) ;
#12 = ADVANCED_FACE ( 'NONE', ( #265 ), #161, .F. ) ;
#13 = EDGE_LOOP ( 'NONE', ( #7, #8, #6, #10 ) ) ;
#14 = ADVANCED_FACE ( 'NONE', ( #162 ), #240, .F. ) ;
#15 = ORIENTED_EDGE ( 'NONE', *, *, #35, .T. ) ;
#16 = EDGE_CURVE ( 'NONE', #52, #54, #196, .T. ) ;
#17 = ORIENTED_EDGE ( 'NONE', *, *, #90, .F. ) ;
#18 = ADVANCED_FACE ( 'NONE', ( #249, #251 ), #250, .F. ) ;
#19 = ORIENTED_EDGE ( 'NONE', *, *, #16, .T. ) ;
#20 = EDGE_LOOP ( 'NONE', ( #49, #21, #28, #32 ) ) ;
#21 = ORIENTED_EDGE ( 'NONE', *, *, #40, .F. ) ;
#22 = ORIENTED_EDGE ( 'NONE', *, *, #9, .F. ) ;
#23 = ORIENTED_EDGE ( 'NONE', *, *, #88, .T. ) ;
#24 = ORIENTED_EDGE ( 'NONE', *, *, #34, .F. ) ;
#25 = ORIENTED_EDGE ( 'NONE', *, *, #36, .T. ) ;
#26 = CLOSED_SHELL ( 'NONE', ( #60, #66, #18, #30, #84, #14, #82, #12 ) ) ;
#27 = VERTEX_POINT ( 'NONE', #243 ) ;
#28 = ORIENTED_EDGE ( 'NONE', *, *, #38, .F. ) ;
#29 = ORIENTED_EDGE ( 'NONE', *, *, #16, .F. ) ;
#30 = ADVANCED_FACE ( 'NONE', ( #242, #241 ), #187, .T. ) ;
#31 = ORIENTED_EDGE ( 'NONE', *, *, #34, .T. ) ;
#32 = ORIENTED_EDGE ( 'NONE', *, *, #36, .F. ) ;
#33 = VERTEX_POINT ( 'NONE', #104 ) ;
#34 = EDGE_CURVE ( 'NONE', #74, #75, #103, .T. ) ;
#35 = EDGE_CURVE ( 'NONE', #37, #53, #168, .T. ) ;
#36 = EDGE_CURVE ( 'NONE', #59, #33, #248, .T. ) ;
#37 = VERTEX_POINT ( 'NONE', #210 ) ;
#38 = EDGE_CURVE ( 'NONE', #33, #27, #209, .T. ) ;
#39 = APPROVAL_ROLE ( '' ) ;
#40 = EDGE_CURVE ( 'NONE', #27, #58, #257, .T. ) ;
#41 = APPROVAL ( #78, 'UNSPECIFIED' ) ;
#42 = COORDINATED_UNIVERSAL_TIME_OFFSET ( 9, 0, .AHEAD. ) ;
#43 = APPROVAL_PERSON_ORGANIZATION ( #79, #41, #39 ) ;
#44 = CC_DESIGN_DATE_AND_TIME_ASSIGNMENT ( #113, #112, ( #131 ) ) ;
#45 = LOCAL_TIME ( 16, 31, 37.00000000000000000, #42 ) ;
#46 = EDGE_LOOP ( 'NONE', ( #25, #22, #29, #23 ) ) ;
#47 = ORIENTED_EDGE ( 'NONE', *, *, #51, .T. ) ;
#48 = ORIENTED_EDGE ( 'NONE', *, *, #77, .F. ) ;
#49 = ORIENTED_EDGE ( 'NONE', *, *, #50, .F. ) ;
#50 = EDGE_CURVE ( 'NONE', #58, #59, #191, .T. ) ;
#51 = EDGE_CURVE ( 'NONE', #53, #52, #101, .T. ) ;
#52 = VERTEX_POINT ( 'NONE', #97 ) ;
#53 = VERTEX_POINT ( 'NONE', #96 ) ;
#54 = VERTEX_POINT ( 'NONE', #174 ) ;
#55 = ORIENTED_EDGE ( 'NONE', *, *, #2, .T. ) ;
#56 = ORIENTED_EDGE ( 'NONE', *, *, #57, .T. ) ;
#57 = EDGE_CURVE ( 'NONE', #53, #58, #173, .T. ) ;
#58 = VERTEX_POINT ( 'NONE', #169 ) ;
#59 = VERTEX_POINT ( 'NONE', #275 ) ;
#60 = ADVANCED_FACE ( 'NONE', ( #274 ), #271, .T. ) ;
#61 = ORIENTED_EDGE ( 'NONE', *, *, #77, .T. ) ;
#62 = MANIFOLD_SOLID_BREP ( 'NONE', #26 ) ;
#63 = EDGE_LOOP ( 'NONE', ( #61, #70, #73, #68 ) ) ;
#64 = ORIENTED_EDGE ( 'NONE', *, *, #71, .F. ) ;
#65 = EDGE_LOOP ( 'NONE', ( #64, #31, #92, #17 ) ) ;
#66 = ADVANCED_FACE ( 'NONE', ( #272 ), #146, .T. ) ;
#67 = EDGE_CURVE ( 'NONE', #75, #69, #205, .T. ) ;
#68 = ORIENTED_EDGE ( 'NONE', *, *, #67, .F. ) ;
#69 = VERTEX_POINT ( 'NONE', #201 ) ;
#70 = ORIENTED_EDGE ( 'NONE', *, *, #71, .T. ) ;
#71 = EDGE_CURVE ( 'NONE', #74, #72, #200, .T. ) ;
#72 = VERTEX_POINT ( 'NONE', #238 ) ;
#73 = ORIENTED_EDGE ( 'NONE', *, *, #76, .F. ) ;
#74 = VERTEX_POINT ( 'NONE', #237 ) ;
#75 = VERTEX_POINT ( 'NONE', #236 ) ;
#76 = EDGE_CURVE ( 'NONE', #69, #72, #234, .T. ) ;
#77 = EDGE_CURVE ( 'NONE', #75, #74, #179, .T. ) ;
#78 = APPROVAL_STATUS ( 'not_yet_approved' ) ;
#79 = PERSON_AND_ORGANIZATION ( #107, #106 ) ;
#80 = PRODUCT_DEFINITION_FORMATION_WITH_SPECIFIED_SOURCE ( 'ANY', '', #108, .NOT_KNOWN. ) ;
#81 = EDGE_CURVE ( 'NONE', #37, #27, #175, .T. ) ;
#82 = ADVANCED_FACE ( 'NONE', ( #153 ), #152, .F. ) ;
#83 = EDGE_LOOP ( 'NONE', ( #93, #94, #95, #11 ) ) ;
#84 = ADVANCED_FACE ( 'NONE', ( #147 ), #219, .F. ) ;
#85 = EDGE_LOOP ( 'NONE', ( #86, #87, #89, #56 ) ) ;
#86 = ORIENTED_EDGE ( 'NONE', *, *, #50, .T. ) ;
#87 = ORIENTED_EDGE ( 'NONE', *, *, #88, .F. ) ;
#88 = EDGE_CURVE ( 'NONE', #52, #59, #214, .T. ) ;
#89 = ORIENTED_EDGE ( 'NONE', *, *, #51, .F. ) ;
#90 = EDGE_CURVE ( 'NONE', #72, #69, #225, .T. ) ;
#91 = EDGE_LOOP ( 'NONE', ( #15, #47, #19, #55 ) ) ;
#92 = ORIENTED_EDGE ( 'NONE', *, *, #67, .T. ) ;
#93 = ORIENTED_EDGE ( 'NONE', *, *, #38, .T. ) ;
#94 = ORIENTED_EDGE ( 'NONE', *, *, #81, .F. ) ;
#95 = ORIENTED_EDGE ( 'NONE', *, *, #2, .F. ) ;
#96 = CARTESIAN_POINT ( 'NONE',  ( 5.656854249492379700, 0.0000000000000000000, -1.000000000000000000 ) ) ;
#97 = CARTESIAN_POINT ( 'NONE',  ( 3.854369563682500200E-016, 5.656854249492378800, -1.000000000000000000 ) ) ;
#98 = DIRECTION ( 'NONE',  ( -0.7071067811865476800, 0.7071067811865474600, 0.0000000000000000000 ) ) ;
#99 = VECTOR ( 'NONE', #98, 1000.000000000000000 ) ;
#100 = CARTESIAN_POINT ( 'NONE',  ( 5.656854249492379700, 0.0000000000000000000, -1.000000000000000000 ) ) ;
#101 = LINE ( 'NONE', #100, #99 ) ;
#102 = LINE ( 'NONE', #230, #239 ) ;
#103 = CIRCLE ( 'NONE', #141, 9.000000000000000000 ) ;
#104 = CARTESIAN_POINT ( 'NONE',  ( -5.656854249492378800, 7.354901263675982800E-016, 0.0000000000000000000 ) ) ;
#105 = DIRECTION ( 'NONE',  ( 1.000000000000000000, 0.0000000000000000000, 0.0000000000000000000 ) ) ;
#106 = ORGANIZATION ( 'UNSPECIFIED', 'UNSPECIFIED', '' ) ;
#107 = PERSON ( 'UNSPECIFIED', 'UNSPECIFIED', 'UNSPECIFIED', ('UNSPECIFIED'), ('UNSPECIFIED'), ('UNSPECIFIED') ) ;
#108 = PRODUCT ( 'AC-25-W-2', 'AC-25-W-2', '', ( #109 ) ) ;
#109 = MECHANICAL_CONTEXT ( 'NONE', #111, 'mechanical' ) ;
#110 = APPLICATION_PROTOCOL_DEFINITION ( 'international standard', 'config_control_design', 1994, #111 ) ;
#111 = APPLICATION_CONTEXT ( 'configuration controlled 3d designs of mechanical parts and assemblies' ) ;
#112 = DATE_TIME_ROLE ( 'creation_date' ) ;
#113 = DATE_AND_TIME ( #114, #115 ) ;
#114 = CALENDAR_DATE ( 2008, 16, 10 ) ;
#115 = LOCAL_TIME ( 16, 31, 37.00000000000000000, #116 ) ;
#116 = COORDINATED_UNIVERSAL_TIME_OFFSET ( 9, 0, .AHEAD. ) ;
#117 = CC_DESIGN_PERSON_AND_ORGANIZATION_ASSIGNMENT ( #119, #118, ( #131 ) ) ;
#118 = PERSON_AND_ORGANIZATION_ROLE ( 'creator' ) ;
#119 = PERSON_AND_ORGANIZATION ( #107, #106 ) ;
#120 = CC_DESIGN_APPROVAL ( #128, ( #131 ) ) ;
#121 = APPROVAL_DATE_TIME ( #122, #128 ) ;
#122 = DATE_AND_TIME ( #123, #124 ) ;
#123 = CALENDAR_DATE ( 2008, 16, 10 ) ;
#124 = LOCAL_TIME ( 16, 31, 37.00000000000000000, #125 ) ;
#125 = COORDINATED_UNIVERSAL_TIME_OFFSET ( 9, 0, .AHEAD. ) ;
#126 = APPROVAL_PERSON_ORGANIZATION ( #130, #128, #127 ) ;
#127 = APPROVAL_ROLE ( '' ) ;
#128 = APPROVAL ( #129, 'UNSPECIFIED' ) ;
#129 = APPROVAL_STATUS ( 'not_yet_approved' ) ;
#130 = PERSON_AND_ORGANIZATION ( #107, #106 ) ;
#131 = PRODUCT_DEFINITION ( 'UNKNOWN', '', #80, #132 ) ;
#132 = DESIGN_CONTEXT ( 'detailed design', #134, 'design' ) ;
#133 = APPLICATION_PROTOCOL_DEFINITION ( 'international standard', 'config_control_design', 1994, #134 ) ;
#134 = APPLICATION_CONTEXT ( 'configuration controlled 3d designs of mechanical parts and assemblies' ) ;
#135 = CC_DESIGN_PERSON_AND_ORGANIZATION_ASSIGNMENT ( #137, #136, ( #108 ) ) ;
#136 = PERSON_AND_ORGANIZATION_ROLE ( 'design_owner' ) ;
#137 = PERSON_AND_ORGANIZATION ( #107, #106 ) ;
#138 = DIRECTION ( 'NONE',  ( 1.000000000000000000, 0.0000000000000000000, 0.0000000000000000000 ) ) ;
#139 = DIRECTION ( 'NONE',  ( 0.0000000000000000000, 0.0000000000000000000, 1.000000000000000000 ) ) ;
#140 = CARTESIAN_POINT ( 'NONE',  ( 0.0000000000000000000, 0.0000000000000000000, -1.000000000000000000 ) ) ;
#141 = AXIS2_PLACEMENT_3D ( 'NONE', #140, #139, #138 ) ;
#142 = DIRECTION ( 'NONE',  ( 1.000000000000000000, 0.0000000000000000000, 0.0000000000000000000 ) ) ;
#143 = DIRECTION ( 'NONE',  ( 0.0000000000000000000, 0.0000000000000000000, 1.000000000000000000 ) ) ;
#144 = CARTESIAN_POINT ( 'NONE',  ( 0.0000000000000000000, 0.0000000000000000000, -1.000000000000000000 ) ) ;
#145 = AXIS2_PLACEMENT_3D ( 'NONE', #144, #143, #142 ) ;
#146 = CYLINDRICAL_SURFACE ( 'NONE', #145, 9.000000000000000000 ) ;
#147 = FACE_OUTER_BOUND ( 'NONE', #85, .T. ) ;
#148 = DIRECTION ( 'NONE',  ( 0.7071067811865473500, -0.7071067811865477900, 0.0000000000000000000 ) ) ;
#149 = DIRECTION ( 'NONE',  ( -0.7071067811865477900, -0.7071067811865473500, 0.0000000000000000000 ) ) ;
#150 = CARTESIAN_POINT ( 'NONE',  ( -5.656854249492378800, 7.354901263675982800E-016, -1.000000000000000000 ) ) ;
#151 = AXIS2_PLACEMENT_3D ( 'NONE', #150, #149, #148 ) ;
#152 = PLANE ( 'NONE',  #151 ) ;
#153 = FACE_OUTER_BOUND ( 'NONE', #83, .T. ) ;
#154 = DIRECTION ( 'NONE',  ( 0.0000000000000000000, 0.0000000000000000000, 1.000000000000000000 ) ) ;
#155 = VECTOR ( 'NONE', #154, 1000.000000000000000 ) ;
#156 = CARTESIAN_POINT ( 'NONE',  ( 3.854369563682490800E-016, -5.656854249492380600, -1.000000000000000000 ) ) ;
#157 = DIRECTION ( 'NONE',  ( 0.7071067811865474600, 0.7071067811865475700, 0.0000000000000000000 ) ) ;
#158 = DIRECTION ( 'NONE',  ( 0.7071067811865475700, -0.7071067811865474600, 0.0000000000000000000 ) ) ;
#159 = CARTESIAN_POINT ( 'NONE',  ( 3.854369563682490800E-016, -5.656854249492380600, -1.000000000000000000 ) ) ;
#160 = AXIS2_PLACEMENT_3D ( 'NONE', #159, #158, #157 ) ;
#161 = PLANE ( 'NONE',  #229 ) ;
#162 = FACE_OUTER_BOUND ( 'NONE', #13, .T. ) ;
#163 = DIRECTION ( 'NONE',  ( 1.000000000000000000, 0.0000000000000000000, 0.0000000000000000000 ) ) ;
#164 = AXIS2_PLACEMENT_3D ( 'NONE', #258, #264, #163 ) ;
#165 = DIRECTION ( 'NONE',  ( 0.7071067811865474600, 0.7071067811865475700, 0.0000000000000000000 ) ) ;
#166 = VECTOR ( 'NONE', #165, 1000.000000000000000 ) ;
#167 = CARTESIAN_POINT ( 'NONE',  ( 3.854369563682490800E-016, -5.656854249492380600, -1.000000000000000000 ) ) ;
#168 = LINE ( 'NONE', #167, #166 ) ;
#169 = CARTESIAN_POINT ( 'NONE',  ( 5.656854249492379700, 0.0000000000000000000, 0.0000000000000000000 ) ) ;
#170 = DIRECTION ( 'NONE',  ( 0.0000000000000000000, 0.0000000000000000000, 1.000000000000000000 ) ) ;
#171 = VECTOR ( 'NONE', #170, 1000.000000000000000 ) ;
#172 = CARTESIAN_POINT ( 'NONE',  ( 5.656854249492379700, 0.0000000000000000000, -1.000000000000000000 ) ) ;
#173 = LINE ( 'NONE', #172, #171 ) ;
#174 = CARTESIAN_POINT ( 'NONE',  ( -5.656854249492378800, 8.673617379884035500E-016, -1.000000000000000000 ) ) ;
#175 = LINE ( 'NONE', #156, #155 ) ;
#176 = DIRECTION ( 'NONE',  ( 1.000000000000000000, 0.0000000000000000000, 0.0000000000000000000 ) ) ;
#177 = DIRECTION ( 'NONE',  ( 0.0000000000000000000, 0.0000000000000000000, 1.000000000000000000 ) ) ;
#178 = AXIS2_PLACEMENT_3D ( 'NONE', #235, #177, #176 ) ;
#179 = CIRCLE ( 'NONE', #178, 9.000000000000000000 ) ;
#180 = DIRECTION ( 'NONE',  ( 1.000000000000000000, 0.0000000000000000000, 0.0000000000000000000 ) ) ;
#181 = DIRECTION ( 'NONE',  ( 0.0000000000000000000, 0.0000000000000000000, 1.000000000000000000 ) ) ;
#182 = CARTESIAN_POINT ( 'NONE',  ( 0.0000000000000000000, 0.0000000000000000000, -1.000000000000000000 ) ) ;
#183 = AXIS2_PLACEMENT_3D ( 'NONE', #182, #181, #244 ) ;
#184 = DIRECTION ( 'NONE',  ( 0.0000000000000000000, 0.0000000000000000000, 1.000000000000000000 ) ) ;
#185 = CARTESIAN_POINT ( 'NONE',  ( 0.0000000000000000000, 0.0000000000000000000, 0.0000000000000000000 ) ) ;
#186 = AXIS2_PLACEMENT_3D ( 'NONE', #185, #184, #105 ) ;
#187 = PLANE ( 'NONE',  #186 ) ;
#188 = DIRECTION ( 'NONE',  ( -0.7071067811865476800, 0.7071067811865474600, 0.0000000000000000000 ) ) ;
#189 = VECTOR ( 'NONE', #188, 1000.000000000000000 ) ;
#190 = CARTESIAN_POINT ( 'NONE',  ( 5.656854249492379700, 0.0000000000000000000, 0.0000000000000000000 ) ) ;
#191 = LINE ( 'NONE', #190, #189 ) ;
#192 = CARTESIAN_POINT ( 'NONE',  ( -5.656854249492378800, 7.354901263675982800E-016, -1.000000000000000000 ) ) ;
#193 = LINE ( 'NONE', #192, #267 ) ;
#194 = DIRECTION ( 'NONE',  ( -0.7071067811865476800, -0.7071067811865474600, 0.0000000000000000000 ) ) ;
#195 = CARTESIAN_POINT ( 'NONE',  ( 3.854369563682500200E-016, 5.656854249492378800, -1.000000000000000000 ) ) ;
#196 = LINE ( 'NONE', #195, #252 ) ;
#197 = DIRECTION ( 'NONE',  ( 0.0000000000000000000, 0.0000000000000000000, 1.000000000000000000 ) ) ;
#198 = VECTOR ( 'NONE', #197, 1000.000000000000000 ) ;
#199 = CARTESIAN_POINT ( 'NONE',  ( -9.000000000000000000, 1.102182119232617700E-015, -1.000000000000000000 ) ) ;
#200 = LINE ( 'NONE', #199, #198 ) ;
#201 = CARTESIAN_POINT ( 'NONE',  ( 9.000000000000000000, 0.0000000000000000000, 0.0000000000000000000 ) ) ;
#202 = DIRECTION ( 'NONE',  ( 0.0000000000000000000, 0.0000000000000000000, 1.000000000000000000 ) ) ;
#203 = VECTOR ( 'NONE', #202, 1000.000000000000000 ) ;
#204 = CARTESIAN_POINT ( 'NONE',  ( 9.000000000000000000, 0.0000000000000000000, -1.000000000000000000 ) ) ;
#205 = LINE ( 'NONE', #204, #203 ) ;
#206 = DIRECTION ( 'NONE',  ( 0.7071067811865473500, -0.7071067811865477900, 0.0000000000000000000 ) ) ;
#207 = VECTOR ( 'NONE', #206, 999.9999999999998900 ) ;
#208 = CARTESIAN_POINT ( 'NONE',  ( -5.656854249492378800, 7.354901263675982800E-016, 0.0000000000000000000 ) ) ;
#209 = LINE ( 'NONE', #208, #207 ) ;
#210 = CARTESIAN_POINT ( 'NONE',  ( 3.854369563682490800E-016, -5.656854249492380600, -1.000000000000000000 ) ) ;
#211 = DIRECTION ( 'NONE',  ( 0.0000000000000000000, 0.0000000000000000000, 1.000000000000000000 ) ) ;
#212 = VECTOR ( 'NONE', #211, 1000.000000000000000 ) ;
#213 = CARTESIAN_POINT ( 'NONE',  ( 3.854369563682500200E-016, 5.656854249492378800, -1.000000000000000000 ) ) ;
#214 = LINE ( 'NONE', #213, #212 ) ;
#215 = DIRECTION ( 'NONE',  ( -0.7071067811865476800, 0.7071067811865474600, 0.0000000000000000000 ) ) ;
#216 = DIRECTION ( 'NONE',  ( 0.7071067811865474600, 0.7071067811865476800, 0.0000000000000000000 ) ) ;
#217 = CARTESIAN_POINT ( 'NONE',  ( 5.656854249492379700, 0.0000000000000000000, -1.000000000000000000 ) ) ;
#218 = AXIS2_PLACEMENT_3D ( 'NONE', #217, #216, #215 ) ;
#219 = PLANE ( 'NONE',  #218 ) ;
#220 =( NAMED_UNIT ( * ) PLANE_ANGLE_UNIT ( ) SI_UNIT ( $, .RADIAN. ) );
#221 = DIRECTION ( 'NONE',  ( 1.000000000000000000, 0.0000000000000000000, 0.0000000000000000000 ) ) ;
#222 = DIRECTION ( 'NONE',  ( 0.0000000000000000000, 0.0000000000000000000, 1.000000000000000000 ) ) ;
#223 = CARTESIAN_POINT ( 'NONE',  ( 0.0000000000000000000, 0.0000000000000000000, 0.0000000000000000000 ) ) ;
#224 = AXIS2_PLACEMENT_3D ( 'NONE', #223, #222, #221 ) ;
#225 = CIRCLE ( 'NONE', #224, 9.000000000000000000 ) ;
#226 = DIRECTION ( 'NONE',  ( -0.7071067811865476800, -0.7071067811865474600, 0.0000000000000000000 ) ) ;
#227 = DIRECTION ( 'NONE',  ( -0.7071067811865474600, 0.7071067811865476800, 0.0000000000000000000 ) ) ;
#228 = CARTESIAN_POINT ( 'NONE',  ( 3.854369563682500200E-016, 5.656854249492378800, -1.000000000000000000 ) ) ;
#229 = AXIS2_PLACEMENT_3D ( 'NONE', #228, #227, #226 ) ;
#230 = CARTESIAN_POINT ( 'NONE',  ( -5.656854249492378800, 7.354901263675982800E-016, -1.000000000000000000 ) ) ;
#231 = DIRECTION ( 'NONE',  ( 0.0000000000000000000, 0.0000000000000000000, 1.000000000000000000 ) ) ;
#232 = CARTESIAN_POINT ( 'NONE',  ( 0.0000000000000000000, 0.0000000000000000000, 0.0000000000000000000 ) ) ;
#233 = AXIS2_PLACEMENT_3D ( 'NONE', #232, #231, #180 ) ;
#234 = CIRCLE ( 'NONE', #233, 9.000000000000000000 ) ;
#235 = CARTESIAN_POINT ( 'NONE',  ( 0.0000000000000000000, 0.0000000000000000000, -1.000000000000000000 ) ) ;
#236 = CARTESIAN_POINT ( 'NONE',  ( 9.000000000000000000, 0.0000000000000000000, -1.000000000000000000 ) ) ;
#237 = CARTESIAN_POINT ( 'NONE',  ( -9.000000000000000000, 1.102182119232617700E-015, -1.000000000000000000 ) ) ;
#238 = CARTESIAN_POINT ( 'NONE',  ( -9.000000000000000000, 1.102182119232617700E-015, 0.0000000000000000000 ) ) ;
#239 = VECTOR ( 'NONE', #253, 999.9999999999998900 ) ;
#240 = PLANE ( 'NONE',  #160 ) ;
#241 = FACE_OUTER_BOUND ( 'NONE', #5, .T. ) ;
#242 = FACE_BOUND ( 'NONE', #20, .T. ) ;
#243 = CARTESIAN_POINT ( 'NONE',  ( 3.854369563682490800E-016, -5.656854249492380600, 0.0000000000000000000 ) ) ;
#244 = DIRECTION ( 'NONE',  ( 1.000000000000000000, 0.0000000000000000000, 0.0000000000000000000 ) ) ;
#245 = DIRECTION ( 'NONE',  ( -0.7071067811865476800, -0.7071067811865474600, 0.0000000000000000000 ) ) ;
#246 = VECTOR ( 'NONE', #245, 1000.000000000000000 ) ;
#247 = CARTESIAN_POINT ( 'NONE',  ( 3.854369563682500200E-016, 5.656854249492378800, 0.0000000000000000000 ) ) ;
#248 = LINE ( 'NONE', #247, #246 ) ;
#249 = FACE_BOUND ( 'NONE', #91, .T. ) ;
#250 = PLANE ( 'NONE',  #183 ) ;
#251 = FACE_OUTER_BOUND ( 'NONE', #1, .T. ) ;
#252 = VECTOR ( 'NONE', #194, 1000.000000000000000 ) ;
#253 = DIRECTION ( 'NONE',  ( 0.7071067811865473500, -0.7071067811865477900, 0.0000000000000000000 ) ) ;
#254 = DIRECTION ( 'NONE',  ( 0.7071067811865474600, 0.7071067811865475700, 0.0000000000000000000 ) ) ;
#255 = VECTOR ( 'NONE', #254, 1000.000000000000000 ) ;
#256 = CARTESIAN_POINT ( 'NONE',  ( 3.854369563682490800E-016, -5.656854249492380600, 0.0000000000000000000 ) ) ;
#257 = LINE ( 'NONE', #256, #255 ) ;
#258 = CARTESIAN_POINT ( 'NONE',  ( 0.0000000000000000000, 0.0000000000000000000, 0.0000000000000000000 ) ) ;
#259 = ADVANCED_BREP_SHAPE_REPRESENTATION ( 'AC-25-W-2', ( #62, #164 ), #260 ) ;
#260 =( GEOMETRIC_REPRESENTATION_CONTEXT ( 3 ) GLOBAL_UNCERTAINTY_ASSIGNED_CONTEXT ( ( #261 ) ) GLOBAL_UNIT_ASSIGNED_CONTEXT ( ( #263, #220, #262 ) ) REPRESENTATION_CONTEXT ( 'NONE', 'WORKASPACE' ) );
#261 = UNCERTAINTY_MEASURE_WITH_UNIT (LENGTH_MEASURE( 1.000000000000000100E-005 ), #263, 'distance_accuracy_value', 'NONE');
#262 =( NAMED_UNIT ( * ) SI_UNIT ( $, .STERADIAN. ) SOLID_ANGLE_UNIT ( ) );
#263 =( LENGTH_UNIT ( ) NAMED_UNIT ( * ) SI_UNIT ( .MILLI., .METRE. ) );
#264 = DIRECTION ( 'NONE',  ( 0.0000000000000000000, 0.0000000000000000000, 1.000000000000000000 ) ) ;
#265 = FACE_OUTER_BOUND ( 'NONE', #46, .T. ) ;
#266 = DIRECTION ( 'NONE',  ( 0.0000000000000000000, 0.0000000000000000000, 1.000000000000000000 ) ) ;
#267 = VECTOR ( 'NONE', #266, 1000.000000000000000 ) ;
#268 = DIRECTION ( 'NONE',  ( 1.000000000000000000, 0.0000000000000000000, 0.0000000000000000000 ) ) ;
#269 = DIRECTION ( 'NONE',  ( 0.0000000000000000000, 0.0000000000000000000, 1.000000000000000000 ) ) ;
#270 = AXIS2_PLACEMENT_3D ( 'NONE', #273, #269, #268 ) ;
#271 = CYLINDRICAL_SURFACE ( 'NONE', #270, 9.000000000000000000 ) ;
#272 = FACE_OUTER_BOUND ( 'NONE', #65, .T. ) ;
#273 = CARTESIAN_POINT ( 'NONE',  ( 0.0000000000000000000, 0.0000000000000000000, -1.000000000000000000 ) ) ;
#274 = FACE_OUTER_BOUND ( 'NONE', #63, .T. ) ;
#275 = CARTESIAN_POINT ( 'NONE',  ( -4.336808689942017700E-016, 5.656854249492377900, 0.0000000000000000000 ) ) ;
#276 = CC_DESIGN_APPROVAL ( #283, ( #298 ) ) ;
#277 = APPROVAL_DATE_TIME ( #278, #283 ) ;
#278 = DATE_AND_TIME ( #279, #280 ) ;
#279 = CALENDAR_DATE ( 2008, 16, 10 ) ;
#280 = LOCAL_TIME ( 16, 31, 37.00000000000000000, #281 ) ;
#281 = COORDINATED_UNIVERSAL_TIME_OFFSET ( 9, 0, .AHEAD. ) ;
#282 = APPROVAL_PERSON_ORGANIZATION ( #302, #283, #300 ) ;
#283 = APPROVAL ( #301, 'UNSPECIFIED' ) ;
#284 = PERSON_AND_ORGANIZATION ( #107, #106 ) ;
#285 = PERSON_AND_ORGANIZATION_ROLE ( 'design_supplier' ) ;
#286 = CC_DESIGN_PERSON_AND_ORGANIZATION_ASSIGNMENT ( #295, #287, ( #80 ) ) ;
#287 = PERSON_AND_ORGANIZATION_ROLE ( 'creator' ) ;
#288 = SECURITY_CLASSIFICATION_LEVEL ( 'unclassified' ) ;
#289 = CC_DESIGN_PERSON_AND_ORGANIZATION_ASSIGNMENT ( #284, #285, ( #80 ) ) ;
#290 = CALENDAR_DATE ( 2008, 16, 10 ) ;
#291 = APPROVAL_DATE_TIME ( #296, #41 ) ;
#292 = COORDINATED_UNIVERSAL_TIME_OFFSET ( 9, 0, .AHEAD. ) ;
#293 = CC_DESIGN_PERSON_AND_ORGANIZATION_ASSIGNMENT ( #297, #294, ( #298 ) ) ;
#294 = PERSON_AND_ORGANIZATION_ROLE ( 'classification_officer' ) ;
#295 = PERSON_AND_ORGANIZATION ( #107, #106 ) ;
#296 = DATE_AND_TIME ( #290, #45 ) ;
#297 = PERSON_AND_ORGANIZATION ( #107, #106 ) ;
#298 = SECURITY_CLASSIFICATION ( '', '', #288 ) ;
#299 = CC_DESIGN_APPROVAL ( #41, ( #80 ) ) ;
#300 = APPROVAL_ROLE ( '' ) ;
#301 = APPROVAL_STATUS ( 'not_yet_approved' ) ;
#302 = PERSON_AND_ORGANIZATION ( #107, #106 ) ;
#303 = CC_DESIGN_DATE_AND_TIME_ASSIGNMENT ( #307, #304, ( #298 ) ) ;
#304 = DATE_TIME_ROLE ( 'classification_date' ) ;
#305 = PRODUCT_RELATED_PRODUCT_CATEGORY ( 'detail', '', ( #108 ) ) ;
#306 = CC_DESIGN_SECURITY_CLASSIFICATION ( #298, ( #80 ) ) ;
#307 = DATE_AND_TIME ( #308, #309 ) ;
#308 = CALENDAR_DATE ( 2008, 16, 10 ) ;
#309 = LOCAL_TIME ( 16, 31, 37.00000000000000000, #292 ) ;
#310 = SHAPE_DEFINITION_REPRESENTATION ( #311, #259 ) ;
#311 = PRODUCT_DEFINITION_SHAPE ( 'NONE', 'NONE',  #131 ) ;
ENDSEC;
END-ISO-10303-21;
