ISO-10303-21;
HEADER;
FILE_DESCRIPTION (( 'STEP AP203' ),
    '1' );
FILE_NAME ('AC-25-W-1.STEP',
    '2008-10-16T07:30:16',
    ( ' ' ),
    ( ' ' ),
    'SwSTEP 2.0',
    'SolidWorks 2007',
    '' );
FILE_SCHEMA (( 'CONFIG_CONTROL_DESIGN' ));
ENDSEC;

DATA;
#1 = DIRECTION ( 'NONE',  ( 0.0000000000000000000, 0.0000000000000000000, 1.000000000000000000 ) ) ;
#2 = CARTESIAN_POINT ( 'NONE',  ( 0.0000000000000000000, 0.0000000000000000000, -3.000000000000000000 ) ) ;
#3 = DIRECTION ( 'NONE',  ( 1.000000000000000000, 0.0000000000000000000, 0.0000000000000000000 ) ) ;
#4 = AXIS2_PLACEMENT_3D ( 'NONE', #2, #1, #3 ) ;
#5 = CYLINDRICAL_SURFACE ( 'NONE', #4, 11.25000000000000200 ) ;
#6 = ORIENTED_EDGE ( 'NONE', *, *, #7, .T. ) ;
#7 = EDGE_CURVE ( 'NONE', #8, #10, #167, .T. ) ;
#8 = VERTEX_POINT ( 'NONE', #163 ) ;
#9 = ORIENTED_EDGE ( 'NONE', *, *, #25, .F. ) ;
#10 = VERTEX_POINT ( 'NONE', #162 ) ;
#11 = EDGE_CURVE ( 'NONE', #10, #21, #161, .T. ) ;
#12 = DIRECTION ( 'NONE',  ( 0.0000000000000000000, 0.0000000000000000000, 1.000000000000000000 ) ) ;
#13 = VECTOR ( 'NONE', #12, 1000.000000000000000 ) ;
#14 = CARTESIAN_POINT ( 'NONE',  ( -3.275551365172702500E-016, -7.071067811865476400, -3.000000000000000000 ) ) ;
#15 = LINE ( 'NONE', #14, #13 ) ;
#16 = DIRECTION ( 'NONE',  ( -0.7071067811865475700, -0.7071067811865474600, 0.0000000000000000000 ) ) ;
#17 = DIRECTION ( 'NONE',  ( -0.7071067811865474600, 0.7071067811865475700, 0.0000000000000000000 ) ) ;
#18 = CARTESIAN_POINT ( 'NONE',  ( -3.275551365172702500E-016, 7.071067811865472000, -3.000000000000000000 ) ) ;
#19 = AXIS2_PLACEMENT_3D ( 'NONE', #18, #17, #16 ) ;
#20 = ORIENTED_EDGE ( 'NONE', *, *, #11, .T. ) ;
#21 = VERTEX_POINT ( 'NONE', #157 ) ;
#22 = ORIENTED_EDGE ( 'NONE', *, *, #129, .T. ) ;
#23 = EDGE_LOOP ( 'NONE', ( #145, #144 ) ) ;
#24 = ORIENTED_EDGE ( 'NONE', *, *, #127, .F. ) ;
#25 = EDGE_CURVE ( 'NONE', #132, #135, #111, .T. ) ;
#26 = ORIENTED_EDGE ( 'NONE', *, *, #27, .T. ) ;
#27 = EDGE_CURVE ( 'NONE', #125, #124, #105, .T. ) ;
#28 = ADVANCED_FACE ( 'NONE', ( #106, #101 ), #100, .F. ) ;
#29 = LINE ( 'NONE', #64, #63 ) ;
#30 = DIRECTION ( 'NONE',  ( -0.7071067811865479100, 0.7071067811865472400, 0.0000000000000000000 ) ) ;
#31 = DIRECTION ( 'NONE',  ( 0.7071067811865472400, 0.7071067811865479100, 0.0000000000000000000 ) ) ;
#32 = CARTESIAN_POINT ( 'NONE',  ( 7.071067811865476400, 0.0000000000000000000, -3.000000000000000000 ) ) ;
#33 = AXIS2_PLACEMENT_3D ( 'NONE', #32, #31, #30 ) ;
#34 = PLANE ( 'NONE',  #33 ) ;
#35 = FACE_OUTER_BOUND ( 'NONE', #49, .T. ) ;
#36 = DIRECTION ( 'NONE',  ( -0.7071067811865475700, -0.7071067811865474600, 0.0000000000000000000 ) ) ;
#37 = VECTOR ( 'NONE', #36, 1000.000000000000000 ) ;
#38 = CARTESIAN_POINT ( 'NONE',  ( -3.275551365172702500E-016, 7.071067811865472000, 0.0000000000000000000 ) ) ;
#39 = ORIENTED_EDGE ( 'NONE', *, *, #86, .F. ) ;
#40 = ORIENTED_EDGE ( 'NONE', *, *, #46, .T. ) ;
#41 = ORIENTED_EDGE ( 'NONE', *, *, #89, .F. ) ;
#42 = ORIENTED_EDGE ( 'NONE', *, *, #155, .T. ) ;
#43 = ORIENTED_EDGE ( 'NONE', *, *, #44, .F. ) ;
#44 = EDGE_CURVE ( 'NONE', #21, #140, #99, .T. ) ;
#45 = ORIENTED_EDGE ( 'NONE', *, *, #134, .T. ) ;
#46 = EDGE_CURVE ( 'NONE', #140, #153, #91, .T. ) ;
#47 = EDGE_LOOP ( 'NONE', ( #45, #50 ) ) ;
#48 = ADVANCED_FACE ( 'NONE', ( #35 ), #34, .F. ) ;
#49 = EDGE_LOOP ( 'NONE', ( #42, #43, #147, #51 ) ) ;
#50 = ORIENTED_EDGE ( 'NONE', *, *, #25, .T. ) ;
#51 = ORIENTED_EDGE ( 'NONE', *, *, #52, .T. ) ;
#52 = EDGE_CURVE ( 'NONE', #10, #156, #29, .T. ) ;
#53 = ADVANCED_FACE ( 'NONE', ( #61 ), #60, .F. ) ;
#54 = PLANE ( 'NONE',  #19 ) ;
#55 = FACE_OUTER_BOUND ( 'NONE', #85, .T. ) ;
#56 = DIRECTION ( 'NONE',  ( 0.7071067811865474600, 0.7071067811865474600, 0.0000000000000000000 ) ) ;
#57 = DIRECTION ( 'NONE',  ( 0.7071067811865475700, -0.7071067811865475700, 0.0000000000000000000 ) ) ;
#58 = CARTESIAN_POINT ( 'NONE',  ( -3.275551365172702500E-016, -7.071067811865476400, -3.000000000000000000 ) ) ;
#59 = AXIS2_PLACEMENT_3D ( 'NONE', #58, #57, #56 ) ;
#60 = PLANE ( 'NONE',  #59 ) ;
#61 = FACE_OUTER_BOUND ( 'NONE', #146, .T. ) ;
#62 = DIRECTION ( 'NONE',  ( 0.0000000000000000000, 0.0000000000000000000, 1.000000000000000000 ) ) ;
#63 = VECTOR ( 'NONE', #62, 1000.000000000000000 ) ;
#64 = CARTESIAN_POINT ( 'NONE',  ( 7.071067811865476400, 0.0000000000000000000, -3.000000000000000000 ) ) ;
#65 = FACE_OUTER_BOUND ( 'NONE', #121, .T. ) ;
#66 = DIRECTION ( 'NONE',  ( 0.7071067811865474600, -0.7071067811865474600, 0.0000000000000000000 ) ) ;
#67 = VECTOR ( 'NONE', #66, 1000.000000000000100 ) ;
#68 = CARTESIAN_POINT ( 'NONE',  ( -7.071067811865474600, -1.387710543886695300E-015, -3.000000000000000000 ) ) ;
#69 = LINE ( 'NONE', #68, #67 ) ;
#70 = DIRECTION ( 'NONE',  ( -0.7071067811865475700, -0.7071067811865474600, 0.0000000000000000000 ) ) ;
#71 = VECTOR ( 'NONE', #70, 1000.000000000000000 ) ;
#72 = CARTESIAN_POINT ( 'NONE',  ( -3.275551365172702500E-016, 7.071067811865472000, -3.000000000000000000 ) ) ;
#73 = LINE ( 'NONE', #72, #71 ) ;
#74 = CARTESIAN_POINT ( 'NONE',  ( -7.071067811865474600, -1.301042606982605300E-015, -3.000000000000000000 ) ) ;
#75 = DIRECTION ( 'NONE',  ( 0.0000000000000000000, 0.0000000000000000000, 1.000000000000000000 ) ) ;
#76 = VECTOR ( 'NONE', #75, 1000.000000000000000 ) ;
#77 = CARTESIAN_POINT ( 'NONE',  ( -7.071067811865474600, -1.387710543886695300E-015, -3.000000000000000000 ) ) ;
#78 = LINE ( 'NONE', #77, #76 ) ;
#79 = ORIENTED_EDGE ( 'NONE', *, *, #150, .T. ) ;
#80 = ORIENTED_EDGE ( 'NONE', *, *, #86, .T. ) ;
#81 = ORIENTED_EDGE ( 'NONE', *, *, #115, .F. ) ;
#82 = ORIENTED_EDGE ( 'NONE', *, *, #44, .T. ) ;
#83 = CLOSED_SHELL ( 'NONE', ( #120, #130, #28, #142, #48, #53, #137, #84 ) ) ;
#84 = ADVANCED_FACE ( 'NONE', ( #55 ), #54, .F. ) ;
#85 = EDGE_LOOP ( 'NONE', ( #40, #41, #81, #82 ) ) ;
#86 = EDGE_CURVE ( 'NONE', #8, #148, #15, .T. ) ;
#87 = EDGE_LOOP ( 'NONE', ( #138, #39, #139, #90 ) ) ;
#88 = ORIENTED_EDGE ( 'NONE', *, *, #52, .F. ) ;
#89 = EDGE_CURVE ( 'NONE', #114, #153, #78, .T. ) ;
#90 = ORIENTED_EDGE ( 'NONE', *, *, #89, .T. ) ;
#91 = LINE ( 'NONE', #38, #37 ) ;
#92 = DIRECTION ( 'NONE',  ( 0.0000000000000000000, 0.0000000000000000000, 1.000000000000000000 ) ) ;
#93 = VECTOR ( 'NONE', #92, 1000.000000000000000 ) ;
#94 = CARTESIAN_POINT ( 'NONE',  ( -3.275551365172702500E-016, 7.071067811865472000, -3.000000000000000000 ) ) ;
#95 = DIRECTION ( 'NONE',  ( 1.000000000000000000, 0.0000000000000000000, 0.0000000000000000000 ) ) ;
#96 = DIRECTION ( 'NONE',  ( 0.0000000000000000000, 0.0000000000000000000, 1.000000000000000000 ) ) ;
#97 = CARTESIAN_POINT ( 'NONE',  ( 0.0000000000000000000, 0.0000000000000000000, -3.000000000000000000 ) ) ;
#98 = AXIS2_PLACEMENT_3D ( 'NONE', #97, #96, #95 ) ;
#99 = LINE ( 'NONE', #94, #93 ) ;
#100 = PLANE ( 'NONE',  #98 ) ;
#101 = FACE_OUTER_BOUND ( 'NONE', #23, .T. ) ;
#102 = DIRECTION ( 'NONE',  ( 1.000000000000000000, 0.0000000000000000000, 0.0000000000000000000 ) ) ;
#103 = DIRECTION ( 'NONE',  ( 0.0000000000000000000, 0.0000000000000000000, 1.000000000000000000 ) ) ;
#104 = AXIS2_PLACEMENT_3D ( 'NONE', #112, #103, #102 ) ;
#105 = CIRCLE ( 'NONE', #104, 11.25000000000000200 ) ;
#106 = FACE_BOUND ( 'NONE', #113, .T. ) ;
#107 = DIRECTION ( 'NONE',  ( 1.000000000000000000, 0.0000000000000000000, 0.0000000000000000000 ) ) ;
#108 = DIRECTION ( 'NONE',  ( 0.0000000000000000000, 0.0000000000000000000, 1.000000000000000000 ) ) ;
#109 = CARTESIAN_POINT ( 'NONE',  ( 0.0000000000000000000, 0.0000000000000000000, 0.0000000000000000000 ) ) ;
#110 = AXIS2_PLACEMENT_3D ( 'NONE', #109, #108, #107 ) ;
#111 = CIRCLE ( 'NONE', #110, 11.25000000000000200 ) ;
#112 = CARTESIAN_POINT ( 'NONE',  ( 0.0000000000000000000, 0.0000000000000000000, -3.000000000000000000 ) ) ;
#113 = EDGE_LOOP ( 'NONE', ( #6, #20, #116, #117 ) ) ;
#114 = VERTEX_POINT ( 'NONE', #74 ) ;
#115 = EDGE_CURVE ( 'NONE', #21, #114, #73, .T. ) ;
#116 = ORIENTED_EDGE ( 'NONE', *, *, #115, .T. ) ;
#117 = ORIENTED_EDGE ( 'NONE', *, *, #118, .T. ) ;
#118 = EDGE_CURVE ( 'NONE', #114, #8, #69, .T. ) ;
#119 = MANIFOLD_SOLID_BREP ( 'NONE', #83 ) ;
#120 = ADVANCED_FACE ( 'NONE', ( #65 ), #5, .T. ) ;
#121 = EDGE_LOOP ( 'NONE', ( #122, #126, #133, #128 ) ) ;
#122 = ORIENTED_EDGE ( 'NONE', *, *, #123, .T. ) ;
#123 = EDGE_CURVE ( 'NONE', #124, #125, #264, .T. ) ;
#124 = VERTEX_POINT ( 'NONE', #307 ) ;
#125 = VERTEX_POINT ( 'NONE', #271 ) ;
#126 = ORIENTED_EDGE ( 'NONE', *, *, #127, .T. ) ;
#127 = EDGE_CURVE ( 'NONE', #125, #132, #236, .T. ) ;
#128 = ORIENTED_EDGE ( 'NONE', *, *, #129, .F. ) ;
#129 = EDGE_CURVE ( 'NONE', #124, #135, #270, .T. ) ;
#130 = ADVANCED_FACE ( 'NONE', ( #275 ), #234, .T. ) ;
#131 = EDGE_LOOP ( 'NONE', ( #24, #26, #22, #9 ) ) ;
#132 = VERTEX_POINT ( 'NONE', #235 ) ;
#133 = ORIENTED_EDGE ( 'NONE', *, *, #134, .F. ) ;
#134 = EDGE_CURVE ( 'NONE', #135, #132, #280, .T. ) ;
#135 = VERTEX_POINT ( 'NONE', #250 ) ;
#136 = ORIENTED_EDGE ( 'NONE', *, *, #7, .F. ) ;
#137 = ADVANCED_FACE ( 'NONE', ( #249 ), #248, .F. ) ;
#138 = ORIENTED_EDGE ( 'NONE', *, *, #152, .T. ) ;
#139 = ORIENTED_EDGE ( 'NONE', *, *, #118, .F. ) ;
#140 = VERTEX_POINT ( 'NONE', #255 ) ;
#141 = ORIENTED_EDGE ( 'NONE', *, *, #150, .F. ) ;
#142 = ADVANCED_FACE ( 'NONE', ( #171, #170 ), #227, .T. ) ;
#143 = EDGE_LOOP ( 'NONE', ( #154, #141, #149, #151 ) ) ;
#144 = ORIENTED_EDGE ( 'NONE', *, *, #27, .F. ) ;
#145 = ORIENTED_EDGE ( 'NONE', *, *, #123, .F. ) ;
#146 = EDGE_LOOP ( 'NONE', ( #79, #88, #136, #80 ) ) ;
#147 = ORIENTED_EDGE ( 'NONE', *, *, #11, .F. ) ;
#148 = VERTEX_POINT ( 'NONE', #222 ) ;
#149 = ORIENTED_EDGE ( 'NONE', *, *, #152, .F. ) ;
#150 = EDGE_CURVE ( 'NONE', #148, #156, #240, .T. ) ;
#151 = ORIENTED_EDGE ( 'NONE', *, *, #46, .F. ) ;
#152 = EDGE_CURVE ( 'NONE', #153, #148, #284, .T. ) ;
#153 = VERTEX_POINT ( 'NONE', #263 ) ;
#154 = ORIENTED_EDGE ( 'NONE', *, *, #155, .F. ) ;
#155 = EDGE_CURVE ( 'NONE', #156, #140, #262, .T. ) ;
#156 = VERTEX_POINT ( 'NONE', #304 ) ;
#157 = CARTESIAN_POINT ( 'NONE',  ( -3.275551365172702500E-016, 7.071067811865472000, -3.000000000000000000 ) ) ;
#158 = DIRECTION ( 'NONE',  ( -0.7071067811865477900, 0.7071067811865473500, 0.0000000000000000000 ) ) ;
#159 = VECTOR ( 'NONE', #158, 1000.000000000000000 ) ;
#160 = CARTESIAN_POINT ( 'NONE',  ( 7.071067811865476400, 0.0000000000000000000, -3.000000000000000000 ) ) ;
#161 = LINE ( 'NONE', #160, #159 ) ;
#162 = CARTESIAN_POINT ( 'NONE',  ( 7.071067811865476400, 0.0000000000000000000, -3.000000000000000000 ) ) ;
#163 = CARTESIAN_POINT ( 'NONE',  ( -3.275551365172702500E-016, -7.071067811865476400, -3.000000000000000000 ) ) ;
#164 = DIRECTION ( 'NONE',  ( 0.7071067811865474600, 0.7071067811865474600, 0.0000000000000000000 ) ) ;
#165 = VECTOR ( 'NONE', #164, 1000.000000000000100 ) ;
#166 = CARTESIAN_POINT ( 'NONE',  ( -3.275551365172702500E-016, -7.071067811865476400, -3.000000000000000000 ) ) ;
#167 = LINE ( 'NONE', #166, #165 ) ;
#168 = UNCERTAINTY_MEASURE_WITH_UNIT (LENGTH_MEASURE( 1.000000000000000100E-005 ), #302, 'distance_accuracy_value', 'NONE');
#169 =( NAMED_UNIT ( * ) SI_UNIT ( $, .STERADIAN. ) SOLID_ANGLE_UNIT ( ) );
#170 = FACE_OUTER_BOUND ( 'NONE', #47, .T. ) ;
#171 = FACE_BOUND ( 'NONE', #143, .T. ) ;
#172 = DATE_AND_TIME ( #301, #173 ) ;
#173 = LOCAL_TIME ( 16, 30, 16.00000000000000000, #174 ) ;
#174 = COORDINATED_UNIVERSAL_TIME_OFFSET ( 9, 0, .AHEAD. ) ;
#175 = CC_DESIGN_PERSON_AND_ORGANIZATION_ASSIGNMENT ( #177, #176, ( #178 ) ) ;
#176 = PERSON_AND_ORGANIZATION_ROLE ( 'classification_officer' ) ;
#177 = PERSON_AND_ORGANIZATION ( #272, #247 ) ;
#178 = SECURITY_CLASSIFICATION ( '', '', #179 ) ;
#179 = SECURITY_CLASSIFICATION_LEVEL ( 'unclassified' ) ;
#180 = CC_DESIGN_PERSON_AND_ORGANIZATION_ASSIGNMENT ( #182, #181, ( #197 ) ) ;
#181 = PERSON_AND_ORGANIZATION_ROLE ( 'design_supplier' ) ;
#182 = PERSON_AND_ORGANIZATION ( #272, #247 ) ;
#183 = CC_DESIGN_PERSON_AND_ORGANIZATION_ASSIGNMENT ( #185, #184, ( #197 ) ) ;
#184 = PERSON_AND_ORGANIZATION_ROLE ( 'creator' ) ;
#185 = PERSON_AND_ORGANIZATION ( #272, #247 ) ;
#186 = CC_DESIGN_APPROVAL ( #194, ( #197 ) ) ;
#187 = APPROVAL_DATE_TIME ( #188, #194 ) ;
#188 = DATE_AND_TIME ( #189, #190 ) ;
#189 = CALENDAR_DATE ( 2008, 16, 10 ) ;
#190 = LOCAL_TIME ( 16, 30, 16.00000000000000000, #191 ) ;
#191 = COORDINATED_UNIVERSAL_TIME_OFFSET ( 9, 0, .AHEAD. ) ;
#192 = APPROVAL_PERSON_ORGANIZATION ( #196, #194, #193 ) ;
#193 = APPROVAL_ROLE ( '' ) ;
#194 = APPROVAL ( #195, 'UNSPECIFIED' ) ;
#195 = APPROVAL_STATUS ( 'not_yet_approved' ) ;
#196 = PERSON_AND_ORGANIZATION ( #272, #247 ) ;
#197 = PRODUCT_DEFINITION_FORMATION_WITH_SPECIFIED_SOURCE ( 'ANY', '', #273, .NOT_KNOWN. ) ;
#198 = CC_DESIGN_DATE_AND_TIME_ASSIGNMENT ( #200, #199, ( #218 ) ) ;
#199 = DATE_TIME_ROLE ( 'creation_date' ) ;
#200 = DATE_AND_TIME ( #201, #202 ) ;
#201 = CALENDAR_DATE ( 2008, 16, 10 ) ;
#202 = LOCAL_TIME ( 16, 30, 16.00000000000000000, #203 ) ;
#203 = COORDINATED_UNIVERSAL_TIME_OFFSET ( 9, 0, .AHEAD. ) ;
#204 = CC_DESIGN_PERSON_AND_ORGANIZATION_ASSIGNMENT ( #206, #205, ( #218 ) ) ;
#205 = PERSON_AND_ORGANIZATION_ROLE ( 'creator' ) ;
#206 = PERSON_AND_ORGANIZATION ( #272, #247 ) ;
#207 = CC_DESIGN_APPROVAL ( #215, ( #218 ) ) ;
#208 = APPROVAL_DATE_TIME ( #209, #215 ) ;
#209 = DATE_AND_TIME ( #210, #211 ) ;
#210 = CALENDAR_DATE ( 2008, 16, 10 ) ;
#211 = LOCAL_TIME ( 16, 30, 16.00000000000000000, #212 ) ;
#212 = COORDINATED_UNIVERSAL_TIME_OFFSET ( 9, 0, .AHEAD. ) ;
#213 = APPROVAL_PERSON_ORGANIZATION ( #217, #215, #214 ) ;
#214 = APPROVAL_ROLE ( '' ) ;
#215 = APPROVAL ( #216, 'UNSPECIFIED' ) ;
#216 = APPROVAL_STATUS ( 'not_yet_approved' ) ;
#217 = PERSON_AND_ORGANIZATION ( #272, #247 ) ;
#218 = PRODUCT_DEFINITION ( 'UNKNOWN', '', #197, #219 ) ;
#219 = DESIGN_CONTEXT ( 'detailed design', #221, 'design' ) ;
#220 = APPLICATION_PROTOCOL_DEFINITION ( 'international standard', 'config_control_design', 1994, #221 ) ;
#221 = APPLICATION_CONTEXT ( 'configuration controlled 3d designs of mechanical parts and assemblies' ) ;
#222 = CARTESIAN_POINT ( 'NONE',  ( -3.275551365172702500E-016, -7.071067811865476400, 0.0000000000000000000 ) ) ;
#223 = DIRECTION ( 'NONE',  ( 1.000000000000000000, 0.0000000000000000000, 0.0000000000000000000 ) ) ;
#224 = DIRECTION ( 'NONE',  ( 0.0000000000000000000, 0.0000000000000000000, 1.000000000000000000 ) ) ;
#225 = CARTESIAN_POINT ( 'NONE',  ( 0.0000000000000000000, 0.0000000000000000000, 0.0000000000000000000 ) ) ;
#226 = AXIS2_PLACEMENT_3D ( 'NONE', #225, #224, #223 ) ;
#227 = PLANE ( 'NONE',  #226 ) ;
#228 = CARTESIAN_POINT ( 'NONE',  ( 0.0000000000000000000, 0.0000000000000000000, -3.000000000000000000 ) ) ;
#229 = MECHANICAL_CONTEXT ( 'NONE', #231, 'mechanical' ) ;
#230 = APPLICATION_PROTOCOL_DEFINITION ( 'international standard', 'config_control_design', 1994, #231 ) ;
#231 = APPLICATION_CONTEXT ( 'configuration controlled 3d designs of mechanical parts and assemblies' ) ;
#232 = DIRECTION ( 'NONE',  ( 0.0000000000000000000, 0.0000000000000000000, 1.000000000000000000 ) ) ;
#233 = AXIS2_PLACEMENT_3D ( 'NONE', #306, #232, #285 ) ;
#234 = CYLINDRICAL_SURFACE ( 'NONE', #233, 11.25000000000000200 ) ;
#235 = CARTESIAN_POINT ( 'NONE',  ( -11.25000000000000200, 1.377727649040772600E-015, 0.0000000000000000000 ) ) ;
#236 = LINE ( 'NONE', #310, #309 ) ;
#237 = DIRECTION ( 'NONE',  ( 0.7071067811865474600, 0.7071067811865474600, 0.0000000000000000000 ) ) ;
#238 = VECTOR ( 'NONE', #237, 1000.000000000000100 ) ;
#239 = CARTESIAN_POINT ( 'NONE',  ( -3.275551365172702500E-016, -7.071067811865476400, 0.0000000000000000000 ) ) ;
#240 = LINE ( 'NONE', #239, #238 ) ;
#241 = DIRECTION ( 'NONE',  ( 1.000000000000000000, 0.0000000000000000000, 0.0000000000000000000 ) ) ;
#242 = DIRECTION ( 'NONE',  ( 0.0000000000000000000, 0.0000000000000000000, 1.000000000000000000 ) ) ;
#243 = AXIS2_PLACEMENT_3D ( 'NONE', #303, #242, #241 ) ;
#244 = CC_DESIGN_PERSON_AND_ORGANIZATION_ASSIGNMENT ( #246, #245, ( #273 ) ) ;
#245 = PERSON_AND_ORGANIZATION_ROLE ( 'design_owner' ) ;
#246 = PERSON_AND_ORGANIZATION ( #272, #247 ) ;
#247 = ORGANIZATION ( 'UNSPECIFIED', 'UNSPECIFIED', '' ) ;
#248 = PLANE ( 'NONE',  #254 ) ;
#249 = FACE_OUTER_BOUND ( 'NONE', #87, .T. ) ;
#250 = CARTESIAN_POINT ( 'NONE',  ( 11.25000000000000200, 0.0000000000000000000, 0.0000000000000000000 ) ) ;
#251 = DIRECTION ( 'NONE',  ( 0.7071067811865474600, -0.7071067811865474600, 0.0000000000000000000 ) ) ;
#252 = DIRECTION ( 'NONE',  ( -0.7071067811865475700, -0.7071067811865475700, 0.0000000000000000000 ) ) ;
#253 = CARTESIAN_POINT ( 'NONE',  ( -7.071067811865474600, -1.387710543886695300E-015, -3.000000000000000000 ) ) ;
#254 = AXIS2_PLACEMENT_3D ( 'NONE', #253, #252, #251 ) ;
#255 = CARTESIAN_POINT ( 'NONE',  ( -4.336808689942017700E-016, 7.071067811865472800, 0.0000000000000000000 ) ) ;
#256 =( NAMED_UNIT ( * ) PLANE_ANGLE_UNIT ( ) SI_UNIT ( $, .RADIAN. ) );
#257 = SHAPE_DEFINITION_REPRESENTATION ( #266, #258 ) ;
#258 = ADVANCED_BREP_SHAPE_REPRESENTATION ( 'AC-25-W-1', ( #119, #243 ), #259 ) ;
#259 =( GEOMETRIC_REPRESENTATION_CONTEXT ( 3 ) GLOBAL_UNCERTAINTY_ASSIGNED_CONTEXT ( ( #168 ) ) GLOBAL_UNIT_ASSIGNED_CONTEXT ( ( #302, #256, #169 ) ) REPRESENTATION_CONTEXT ( 'NONE', 'WORKASPACE' ) );
#260 = VECTOR ( 'NONE', #305, 1000.000000000000000 ) ;
#261 = CARTESIAN_POINT ( 'NONE',  ( 7.071067811865476400, 0.0000000000000000000, 0.0000000000000000000 ) ) ;
#262 = LINE ( 'NONE', #261, #260 ) ;
#263 = CARTESIAN_POINT ( 'NONE',  ( -7.071067811865474600, -1.387710543886695300E-015, 0.0000000000000000000 ) ) ;
#264 = CIRCLE ( 'NONE', #265, 11.25000000000000200 ) ;
#265 = AXIS2_PLACEMENT_3D ( 'NONE', #228, #274, #311 ) ;
#266 = PRODUCT_DEFINITION_SHAPE ( 'NONE', 'NONE',  #218 ) ;
#267 = DIRECTION ( 'NONE',  ( 0.0000000000000000000, 0.0000000000000000000, 1.000000000000000000 ) ) ;
#268 = VECTOR ( 'NONE', #267, 1000.000000000000000 ) ;
#269 = CARTESIAN_POINT ( 'NONE',  ( 11.25000000000000200, 0.0000000000000000000, -3.000000000000000000 ) ) ;
#270 = LINE ( 'NONE', #269, #268 ) ;
#271 = CARTESIAN_POINT ( 'NONE',  ( -11.25000000000000200, 1.377727649040772600E-015, -3.000000000000000000 ) ) ;
#272 = PERSON ( 'UNSPECIFIED', 'UNSPECIFIED', 'UNSPECIFIED', ('UNSPECIFIED'), ('UNSPECIFIED'), ('UNSPECIFIED') ) ;
#273 = PRODUCT ( 'AC-25-W-1', 'AC-25-W-1', '', ( #229 ) ) ;
#274 = DIRECTION ( 'NONE',  ( 0.0000000000000000000, 0.0000000000000000000, 1.000000000000000000 ) ) ;
#275 = FACE_OUTER_BOUND ( 'NONE', #131, .T. ) ;
#276 = DIRECTION ( 'NONE',  ( 1.000000000000000000, 0.0000000000000000000, 0.0000000000000000000 ) ) ;
#277 = DIRECTION ( 'NONE',  ( 0.0000000000000000000, 0.0000000000000000000, 1.000000000000000000 ) ) ;
#278 = CARTESIAN_POINT ( 'NONE',  ( 0.0000000000000000000, 0.0000000000000000000, 0.0000000000000000000 ) ) ;
#279 = AXIS2_PLACEMENT_3D ( 'NONE', #278, #277, #276 ) ;
#280 = CIRCLE ( 'NONE', #279, 11.25000000000000200 ) ;
#281 = DIRECTION ( 'NONE',  ( 0.7071067811865474600, -0.7071067811865474600, 0.0000000000000000000 ) ) ;
#282 = VECTOR ( 'NONE', #281, 1000.000000000000100 ) ;
#283 = CARTESIAN_POINT ( 'NONE',  ( -7.071067811865474600, -1.387710543886695300E-015, 0.0000000000000000000 ) ) ;
#284 = LINE ( 'NONE', #283, #282 ) ;
#285 = DIRECTION ( 'NONE',  ( 1.000000000000000000, 0.0000000000000000000, 0.0000000000000000000 ) ) ;
#286 = PRODUCT_RELATED_PRODUCT_CATEGORY ( 'detail', '', ( #273 ) ) ;
#287 = CC_DESIGN_SECURITY_CLASSIFICATION ( #178, ( #197 ) ) ;
#288 = CC_DESIGN_APPROVAL ( #296, ( #178 ) ) ;
#289 = APPROVAL_DATE_TIME ( #290, #296 ) ;
#290 = DATE_AND_TIME ( #291, #292 ) ;
#291 = CALENDAR_DATE ( 2008, 16, 10 ) ;
#292 = LOCAL_TIME ( 16, 30, 16.00000000000000000, #293 ) ;
#293 = COORDINATED_UNIVERSAL_TIME_OFFSET ( 9, 0, .AHEAD. ) ;
#294 = APPROVAL_PERSON_ORGANIZATION ( #298, #296, #295 ) ;
#295 = APPROVAL_ROLE ( '' ) ;
#296 = APPROVAL ( #297, 'UNSPECIFIED' ) ;
#297 = APPROVAL_STATUS ( 'not_yet_approved' ) ;
#298 = PERSON_AND_ORGANIZATION ( #272, #247 ) ;
#299 = CC_DESIGN_DATE_AND_TIME_ASSIGNMENT ( #172, #300, ( #178 ) ) ;
#300 = DATE_TIME_ROLE ( 'classification_date' ) ;
#301 = CALENDAR_DATE ( 2008, 16, 10 ) ;
#302 =( LENGTH_UNIT ( ) NAMED_UNIT ( * ) SI_UNIT ( .MILLI., .METRE. ) );
#303 = CARTESIAN_POINT ( 'NONE',  ( 0.0000000000000000000, 0.0000000000000000000, 0.0000000000000000000 ) ) ;
#304 = CARTESIAN_POINT ( 'NONE',  ( 7.071067811865476400, 0.0000000000000000000, 0.0000000000000000000 ) ) ;
#305 = DIRECTION ( 'NONE',  ( -0.7071067811865477900, 0.7071067811865473500, 0.0000000000000000000 ) ) ;
#306 = CARTESIAN_POINT ( 'NONE',  ( 0.0000000000000000000, 0.0000000000000000000, -3.000000000000000000 ) ) ;
#307 = CARTESIAN_POINT ( 'NONE',  ( 11.25000000000000200, 0.0000000000000000000, -3.000000000000000000 ) ) ;
#308 = DIRECTION ( 'NONE',  ( 0.0000000000000000000, 0.0000000000000000000, 1.000000000000000000 ) ) ;
#309 = VECTOR ( 'NONE', #308, 1000.000000000000000 ) ;
#310 = CARTESIAN_POINT ( 'NONE',  ( -11.25000000000000200, 1.377727649040772600E-015, -3.000000000000000000 ) ) ;
#311 = DIRECTION ( 'NONE',  ( 1.000000000000000000, 0.0000000000000000000, 0.0000000000000000000 ) ) ;
ENDSEC;
END-ISO-10303-21;
