ISO-10303-21;
HEADER;
FILE_DESCRIPTION (( 'STEP AP203' ),
    '1' );
FILE_NAME ('sone3D.STEP',
    '2014-11-14T07:14:56',
    ( '' ),
    ( '' ),
    'SwSTEP 2.0',
    'SolidWorks 2012',
    '' );
FILE_SCHEMA (( 'CONFIG_CONTROL_DESIGN' ));
ENDSEC;

DATA;
#1 = CC_DESIGN_PERSON_AND_ORGANIZATION_ASSIGNMENT ( #146, #148, ( #70 ) ) ;
#2 = LOCAL_TIME ( 16, 14, 56.00000000000000000, #67 ) ;
#3 = APPROVAL ( #151, 'UNSPECIFIED' ) ;
#4 = LOCAL_TIME ( 16, 14, 56.00000000000000000, #79 ) ;
#5 = CC_DESIGN_PERSON_AND_ORGANIZATION_ASSIGNMENT ( #143, #144, ( #70 ) ) ;
#6 = CC_DESIGN_PERSON_AND_ORGANIZATION_ASSIGNMENT ( #119, #142, ( #69 ) ) ;
#7 = CC_DESIGN_DATE_AND_TIME_ASSIGNMENT ( #150, #149, ( #69 ) ) ;
#8 = PRODUCT_RELATED_PRODUCT_CATEGORY ( 'detail', '', ( #33 ) ) ;
#9 = LOCAL_TIME ( 16, 14, 56.00000000000000000, #78 ) ;
#10 =( GEOMETRIC_REPRESENTATION_CONTEXT ( 3 ) GLOBAL_UNCERTAINTY_ASSIGNED_CONTEXT ( ( #34 ) ) GLOBAL_UNIT_ASSIGNED_CONTEXT ( ( #90, #168, #173 ) ) REPRESENTATION_CONTEXT ( 'NONE', 'WORKASPACE' ) );
#11 = CIRCLE ( 'NONE', #52, 4.000000000000000000 ) ;
#12 = CC_DESIGN_PERSON_AND_ORGANIZATION_ASSIGNMENT ( #158, #154, ( #18 ) ) ;
#13 = CC_DESIGN_DATE_AND_TIME_ASSIGNMENT ( #159, #82, ( #18 ) ) ;
#14 = EDGE_CURVE ( 'NONE', #83, #116, #26, .T. ) ;
#15 = EDGE_CURVE ( 'NONE', #124, #138, #32, .T. ) ;
#16 = ADVANCED_FACE ( 'NONE', ( #58 ), #89, .F. ) ;
#17 = EDGE_CURVE ( 'NONE', #116, #83, #11, .T. ) ;
#18 = PRODUCT_DEFINITION ( 'UNKNOWN', '', #70, #39 ) ;
#19 = ADVANCED_FACE ( 'NONE', ( #45 ), #46, .T. ) ;
#20 = ADVANCED_FACE ( 'NONE', ( #55 ), #131, .T. ) ;
#21 = APPROVAL ( #122, 'UNSPECIFIED' ) ;
#22 = CC_DESIGN_PERSON_AND_ORGANIZATION_ASSIGNMENT ( #169, #125, ( #33 ) ) ;
#23 = ADVANCED_FACE ( 'NONE', ( #59 ), #43, .T. ) ;
#24 = APPROVAL ( #156, 'UNSPECIFIED' ) ;
#25 = EDGE_CURVE ( 'NONE', #83, #124, #87, .T. ) ;
#26 = CIRCLE ( 'NONE', #50, 4.000000000000000000 ) ;
#27 = EDGE_CURVE ( 'NONE', #138, #124, #28, .T. ) ;
#28 = CIRCLE ( 'NONE', #54, 4.000000000000000000 ) ;
#29 = LOCAL_TIME ( 16, 14, 56.00000000000000000, #75 ) ;
#30 = EDGE_CURVE ( 'NONE', #116, #138, #140, .T. ) ;
#31 = LOCAL_TIME ( 16, 14, 56.00000000000000000, #64 ) ;
#32 = CIRCLE ( 'NONE', #56, 4.000000000000000000 ) ;
#33 = PRODUCT ( 'sone3D', 'sone3D', '', ( #170 ) ) ;
#34 = UNCERTAINTY_MEASURE_WITH_UNIT (LENGTH_MEASURE( 1.000000000000000100E-005 ), #90, 'distance_accuracy_value', 'NONE');
#35 = ADVANCED_BREP_SHAPE_REPRESENTATION ( 'sone3D', ( #40, #49 ), #10 ) ;
#36 = PERSON ( 'UNSPECIFIED', 'UNSPECIFIED', 'UNSPECIFIED', ('UNSPECIFIED'), ('UNSPECIFIED'), ('UNSPECIFIED') ) ;
#37 = APPLICATION_CONTEXT ( 'configuration controlled 3d designs of mechanical parts and assemblies' ) ;
#38 = APPLICATION_CONTEXT ( 'configuration controlled 3d designs of mechanical parts and assemblies' ) ;
#39 = DESIGN_CONTEXT ( 'detailed design', #38, 'design' ) ;
#40 = MANIFOLD_SOLID_BREP ( 'ÎÞ½ - µoµ1', #53 ) ;
#41 = PRODUCT_DEFINITION_SHAPE ( 'NONE', 'NONE',  #18 ) ;
#42 = AXIS2_PLACEMENT_3D ( 'NONE', #107, #108, #109 ) ;
#43 = CYLINDRICAL_SURFACE ( 'NONE', #47, 4.000000000000000000 ) ;
#44 = VECTOR ( 'NONE', #93, 1000.000000000000000 ) ;
#45 = FACE_OUTER_BOUND ( 'NONE', #139, .T. ) ;
#46 = CYLINDRICAL_SURFACE ( 'NONE', #42, 4.000000000000000000 ) ;
#47 = AXIS2_PLACEMENT_3D ( 'NONE', #134, #135, #136 ) ;
#48 = AXIS2_PLACEMENT_3D ( 'NONE', #132, #133, #128 ) ;
#49 = AXIS2_PLACEMENT_3D ( 'NONE', #172, #171, #160 ) ;
#50 = AXIS2_PLACEMENT_3D ( 'NONE', #110, #111, #112 ) ;
#51 = AXIS2_PLACEMENT_3D ( 'NONE', #101, #102, #103 ) ;
#52 = AXIS2_PLACEMENT_3D ( 'NONE', #104, #105, #106 ) ;
#53 = CLOSED_SHELL ( 'NONE', ( #23, #19, #20, #16 ) ) ;
#54 = AXIS2_PLACEMENT_3D ( 'NONE', #95, #81, #97 ) ;
#55 = FACE_OUTER_BOUND ( 'NONE', #167, .T. ) ;
#56 = AXIS2_PLACEMENT_3D ( 'NONE', #98, #99, #100 ) ;
#57 = VECTOR ( 'NONE', #130, 1000.000000000000000 ) ;
#58 = FACE_OUTER_BOUND ( 'NONE', #137, .T. ) ;
#59 = FACE_OUTER_BOUND ( 'NONE', #175, .T. ) ;
#60 = CALENDAR_DATE ( 2014, 14, 11 ) ;
#61 = CC_DESIGN_APPROVAL ( #3, ( #69 ) ) ;
#62 = CC_DESIGN_APPROVAL ( #24, ( #70 ) ) ;
#63 = CALENDAR_DATE ( 2014, 14, 11 ) ;
#64 = COORDINATED_UNIVERSAL_TIME_OFFSET ( 9, 0, .AHEAD. ) ;
#65 = ORGANIZATION ( 'UNSPECIFIED', 'UNSPECIFIED', '' ) ;
#66 = CALENDAR_DATE ( 2014, 14, 11 ) ;
#67 = COORDINATED_UNIVERSAL_TIME_OFFSET ( 9, 0, .AHEAD. ) ;
#68 = APPROVAL_PERSON_ORGANIZATION ( #161, #21, #92 ) ;
#69 = SECURITY_CLASSIFICATION ( '', '', #147 ) ;
#70 = PRODUCT_DEFINITION_FORMATION_WITH_SPECIFIED_SOURCE ( 'ANY', '', #33, .NOT_KNOWN. ) ;
#71 = CALENDAR_DATE ( 2014, 14, 11 ) ;
#72 = APPROVAL_PERSON_ORGANIZATION ( #145, #3, #84 ) ;
#73 = CC_DESIGN_SECURITY_CLASSIFICATION ( #69, ( #70 ) ) ;
#74 = CALENDAR_DATE ( 2014, 14, 11 ) ;
#75 = COORDINATED_UNIVERSAL_TIME_OFFSET ( 9, 0, .AHEAD. ) ;
#76 = APPROVAL_PERSON_ORGANIZATION ( #80, #24, #114 ) ;
#77 = CC_DESIGN_APPROVAL ( #21, ( #18 ) ) ;
#78 = COORDINATED_UNIVERSAL_TIME_OFFSET ( 9, 0, .AHEAD. ) ;
#79 = COORDINATED_UNIVERSAL_TIME_OFFSET ( 9, 0, .AHEAD. ) ;
#80 = PERSON_AND_ORGANIZATION ( #36, #65 ) ;
#81 = DIRECTION ( 'NONE',  ( 0.0000000000000000000, 1.000000000000000000, 0.0000000000000000000 ) ) ;
#82 = DATE_TIME_ROLE ( 'creation_date' ) ;
#83 = VERTEX_POINT ( 'NONE', #94 ) ;
#84 = APPROVAL_ROLE ( '' ) ;
#85 = CARTESIAN_POINT ( 'NONE',  ( 0.0000000000000000000, -500.0000000000000000, -4.000000000000000000 ) ) ;
#86 = CARTESIAN_POINT ( 'NONE',  ( 0.0000000000000000000, 500.0000000000000000, -4.000000000000000000 ) ) ;
#87 = LINE ( 'NONE', #86, #44 ) ;
#88 = CARTESIAN_POINT ( 'NONE',  ( 4.898587196589412800E-016, -500.0000000000000000, 4.000000000000000000 ) ) ;
#89 = PLANE ( 'NONE',  #51 ) ;
#90 =( LENGTH_UNIT ( ) NAMED_UNIT ( * ) SI_UNIT ( .MILLI., .METRE. ) );
#91 = APPROVAL_DATE_TIME ( #126, #21 ) ;
#92 = APPROVAL_ROLE ( '' ) ;
#93 = DIRECTION ( 'NONE',  ( -0.0000000000000000000, -1.000000000000000000, -0.0000000000000000000 ) ) ;
#94 = CARTESIAN_POINT ( 'NONE',  ( 0.0000000000000000000, 500.0000000000000000, -4.000000000000000000 ) ) ;
#95 = CARTESIAN_POINT ( 'NONE',  ( 0.0000000000000000000, -500.0000000000000000, 0.0000000000000000000 ) ) ;
#96 = CARTESIAN_POINT ( 'NONE',  ( 4.898587196589412800E-016, 500.0000000000000000, 4.000000000000000000 ) ) ;
#97 = DIRECTION ( 'NONE',  ( 0.0000000000000000000, 0.0000000000000000000, 1.000000000000000000 ) ) ;
#98 = CARTESIAN_POINT ( 'NONE',  ( 0.0000000000000000000, -500.0000000000000000, 0.0000000000000000000 ) ) ;
#99 = DIRECTION ( 'NONE',  ( 0.0000000000000000000, 1.000000000000000000, 0.0000000000000000000 ) ) ;
#100 = DIRECTION ( 'NONE',  ( 0.0000000000000000000, 0.0000000000000000000, 1.000000000000000000 ) ) ;
#101 = CARTESIAN_POINT ( 'NONE',  ( 0.0000000000000000000, -500.0000000000000000, 0.0000000000000000000 ) ) ;
#102 = DIRECTION ( 'NONE',  ( 0.0000000000000000000, 1.000000000000000000, 0.0000000000000000000 ) ) ;
#103 = DIRECTION ( 'NONE',  ( 0.0000000000000000000, -0.0000000000000000000, 1.000000000000000000 ) ) ;
#104 = CARTESIAN_POINT ( 'NONE',  ( 0.0000000000000000000, 500.0000000000000000, 0.0000000000000000000 ) ) ;
#105 = DIRECTION ( 'NONE',  ( 0.0000000000000000000, 1.000000000000000000, 0.0000000000000000000 ) ) ;
#106 = DIRECTION ( 'NONE',  ( 0.0000000000000000000, 0.0000000000000000000, 1.000000000000000000 ) ) ;
#107 = CARTESIAN_POINT ( 'NONE',  ( 0.0000000000000000000, 500.0000000000000000, 0.0000000000000000000 ) ) ;
#108 = DIRECTION ( 'NONE',  ( -0.0000000000000000000, -1.000000000000000000, -0.0000000000000000000 ) ) ;
#109 = DIRECTION ( 'NONE',  ( 0.0000000000000000000, 0.0000000000000000000, -1.000000000000000000 ) ) ;
#110 = CARTESIAN_POINT ( 'NONE',  ( 0.0000000000000000000, 500.0000000000000000, 0.0000000000000000000 ) ) ;
#111 = DIRECTION ( 'NONE',  ( 0.0000000000000000000, 1.000000000000000000, 0.0000000000000000000 ) ) ;
#112 = DIRECTION ( 'NONE',  ( 0.0000000000000000000, 0.0000000000000000000, 1.000000000000000000 ) ) ;
#113 = ORIENTED_EDGE ( 'NONE', *, *, #25, .T. ) ;
#114 = APPROVAL_ROLE ( '' ) ;
#115 = APPLICATION_PROTOCOL_DEFINITION ( 'international standard', 'config_control_design', 1994, #38 ) ;
#116 = VERTEX_POINT ( 'NONE', #96 ) ;
#117 = ORIENTED_EDGE ( 'NONE', *, *, #15, .T. ) ;
#118 = ORIENTED_EDGE ( 'NONE', *, *, #27, .F. ) ;
#119 = PERSON_AND_ORGANIZATION ( #36, #65 ) ;
#120 = ORIENTED_EDGE ( 'NONE', *, *, #25, .F. ) ;
#121 = ORIENTED_EDGE ( 'NONE', *, *, #27, .T. ) ;
#122 = APPROVAL_STATUS ( 'not_yet_approved' ) ;
#123 = SHAPE_DEFINITION_REPRESENTATION ( #41, #35 ) ;
#124 = VERTEX_POINT ( 'NONE', #85 ) ;
#125 = PERSON_AND_ORGANIZATION_ROLE ( 'design_owner' ) ;
#126 = DATE_AND_TIME ( #66, #31 ) ;
#127 = ORIENTED_EDGE ( 'NONE', *, *, #15, .F. ) ;
#128 = DIRECTION ( 'NONE',  ( 0.0000000000000000000, -0.0000000000000000000, 1.000000000000000000 ) ) ;
#129 = APPROVAL_DATE_TIME ( #174, #3 ) ;
#130 = DIRECTION ( 'NONE',  ( -0.0000000000000000000, -1.000000000000000000, -0.0000000000000000000 ) ) ;
#131 = PLANE ( 'NONE',  #48 ) ;
#132 = CARTESIAN_POINT ( 'NONE',  ( 0.0000000000000000000, 500.0000000000000000, 0.0000000000000000000 ) ) ;
#133 = DIRECTION ( 'NONE',  ( 0.0000000000000000000, 1.000000000000000000, 0.0000000000000000000 ) ) ;
#134 = CARTESIAN_POINT ( 'NONE',  ( 0.0000000000000000000, 500.0000000000000000, 0.0000000000000000000 ) ) ;
#135 = DIRECTION ( 'NONE',  ( -0.0000000000000000000, -1.000000000000000000, -0.0000000000000000000 ) ) ;
#136 = DIRECTION ( 'NONE',  ( 0.0000000000000000000, 0.0000000000000000000, -1.000000000000000000 ) ) ;
#137 = EDGE_LOOP ( 'NONE', ( #127, #118 ) ) ;
#138 = VERTEX_POINT ( 'NONE', #88 ) ;
#139 = EDGE_LOOP ( 'NONE', ( #165, #164, #113, #117 ) ) ;
#140 = LINE ( 'NONE', #141, #57 ) ;
#141 = CARTESIAN_POINT ( 'NONE',  ( 4.898587196589412800E-016, 500.0000000000000000, 4.000000000000000000 ) ) ;
#142 = PERSON_AND_ORGANIZATION_ROLE ( 'classification_officer' ) ;
#143 = PERSON_AND_ORGANIZATION ( #36, #65 ) ;
#144 = PERSON_AND_ORGANIZATION_ROLE ( 'creator' ) ;
#145 = PERSON_AND_ORGANIZATION ( #36, #65 ) ;
#146 = PERSON_AND_ORGANIZATION ( #36, #65 ) ;
#147 = SECURITY_CLASSIFICATION_LEVEL ( 'unclassified' ) ;
#148 = PERSON_AND_ORGANIZATION_ROLE ( 'design_supplier' ) ;
#149 = DATE_TIME_ROLE ( 'classification_date' ) ;
#150 = DATE_AND_TIME ( #60, #2 ) ;
#151 = APPROVAL_STATUS ( 'not_yet_approved' ) ;
#152 = DATE_AND_TIME ( #71, #9 ) ;
#153 = ORIENTED_EDGE ( 'NONE', *, *, #14, .T. ) ;
#154 = PERSON_AND_ORGANIZATION_ROLE ( 'creator' ) ;
#155 = ORIENTED_EDGE ( 'NONE', *, *, #17, .F. ) ;
#156 = APPROVAL_STATUS ( 'not_yet_approved' ) ;
#157 = APPROVAL_DATE_TIME ( #152, #24 ) ;
#158 = PERSON_AND_ORGANIZATION ( #36, #65 ) ;
#159 = DATE_AND_TIME ( #63, #29 ) ;
#160 = DIRECTION ( 'NONE',  ( 1.000000000000000000, 0.0000000000000000000, 0.0000000000000000000 ) ) ;
#161 = PERSON_AND_ORGANIZATION ( #36, #65 ) ;
#162 = ORIENTED_EDGE ( 'NONE', *, *, #30, .T. ) ;
#163 = ORIENTED_EDGE ( 'NONE', *, *, #17, .T. ) ;
#164 = ORIENTED_EDGE ( 'NONE', *, *, #14, .F. ) ;
#165 = ORIENTED_EDGE ( 'NONE', *, *, #30, .F. ) ;
#166 = APPLICATION_PROTOCOL_DEFINITION ( 'international standard', 'config_control_design', 1994, #37 ) ;
#167 = EDGE_LOOP ( 'NONE', ( #153, #163 ) ) ;
#168 =( NAMED_UNIT ( * ) PLANE_ANGLE_UNIT ( ) SI_UNIT ( $, .RADIAN. ) );
#169 = PERSON_AND_ORGANIZATION ( #36, #65 ) ;
#170 = MECHANICAL_CONTEXT ( 'NONE', #37, 'mechanical' ) ;
#171 = DIRECTION ( 'NONE',  ( 0.0000000000000000000, 0.0000000000000000000, 1.000000000000000000 ) ) ;
#172 = CARTESIAN_POINT ( 'NONE',  ( 0.0000000000000000000, 0.0000000000000000000, 0.0000000000000000000 ) ) ;
#173 =( NAMED_UNIT ( * ) SI_UNIT ( $, .STERADIAN. ) SOLID_ANGLE_UNIT ( ) );
#174 = DATE_AND_TIME ( #74, #4 ) ;
#175 = EDGE_LOOP ( 'NONE', ( #155, #162, #121, #120 ) ) ;
ENDSEC;
END-ISO-10303-21;
