ISO-10303-21;
HEADER;
FILE_DESCRIPTION (( 'STEP AP203' ),
    '1' );
FILE_NAME ('AC-25-G-8.STEP',
    '2006-06-08T02:05:28',
    ( ' ' ),
    ( ' ' ),
    'SwSTEP 2.0',
    'SolidWorks 2005204',
    '' );
FILE_SCHEMA (( 'CONFIG_CONTROL_DESIGN' ));
ENDSEC;

DATA;
#1 = DIRECTION ( 'NONE',  ( 1.000000000000000000, 0.0000000000000000000, 0.0000000000000000000 ) ) ;
#2 = EDGE_CURVE ( 'NONE', #147, #144, #59, .T. ) ;
#3 = ADVANCED_FACE ( 'NONE', ( #92 ), #196, .T. ) ;
#4 = DIRECTION ( 'NONE',  ( 1.000000000000000000, 0.0000000000000000000, 0.0000000000000000000 ) ) ;
#5 = DIRECTION ( 'NONE',  ( 0.0000000000000000000, 0.0000000000000000000, 1.000000000000000000 ) ) ;
#6 = CARTESIAN_POINT ( 'NONE',  ( 0.0000000000000000000, 0.0000000000000000000, -4.097167540709725700 ) ) ;
#7 = AXIS2_PLACEMENT_3D ( 'NONE', #6, #5, #4 ) ;
#8 = TOROIDAL_SURFACE ( 'NONE', #7, 2.999999999999995600, 2.000000000000000000 ) ;
#9 = FACE_OUTER_BOUND ( 'NONE', #69, .T. ) ;
#10 = DIRECTION ( 'NONE',  ( -0.8433625210567554700, 0.0000000000000000000, -0.5373450084227020500 ) ) ;
#11 = VECTOR ( 'NONE', #10, 1000.000000000000000 ) ;
#12 = CARTESIAN_POINT ( 'NONE',  ( -4.074690016845401000, 0.0000000000000000000, -2.410442498596213400 ) ) ;
#13 = DIRECTION ( 'NONE',  ( 1.000000000000000000, 0.0000000000000000000, 0.0000000000000000000 ) ) ;
#14 = DIRECTION ( 'NONE',  ( 0.0000000000000000000, 0.0000000000000000000, 1.000000000000000000 ) ) ;
#15 = CARTESIAN_POINT ( 'NONE',  ( 0.0000000000000000000, 0.0000000000000000000, -0.1566374789432447000 ) ) ;
#16 = CYLINDRICAL_SURFACE ( 'NONE', #58, 4.000000000000000000 ) ;
#17 = FACE_OUTER_BOUND ( 'NONE', #79, .T. ) ;
#18 = CARTESIAN_POINT ( 'NONE',  ( -0.5373450084227020500, 0.0000000000000000000, -0.1566374789432447000 ) ) ;
#19 = DIRECTION ( 'NONE',  ( 1.000000000000000000, 0.0000000000000000000, 0.0000000000000000000 ) ) ;
#20 = DIRECTION ( 'NONE',  ( 0.0000000000000000000, 0.0000000000000000000, 1.000000000000000000 ) ) ;
#21 = CARTESIAN_POINT ( 'NONE',  ( 0.0000000000000000000, 0.0000000000000000000, -0.1566374789432447000 ) ) ;
#22 = AXIS2_PLACEMENT_3D ( 'NONE', #21, #20, #19 ) ;
#23 = CIRCLE ( 'NONE', #22, 0.5373450084227020500 ) ;
#24 = DIRECTION ( 'NONE',  ( -1.000000000000000000, 0.0000000000000000000, 0.0000000000000000000 ) ) ;
#25 = AXIS2_PLACEMENT_3D ( 'NONE', #195, #197, #24 ) ;
#26 = EDGE_LOOP ( 'NONE', ( #27, #175, #189, #192 ) ) ;
#27 = ORIENTED_EDGE ( 'NONE', *, *, #28, .T. ) ;
#28 = EDGE_CURVE ( 'NONE', #29, #174, #23, .T. ) ;
#29 = VERTEX_POINT ( 'NONE', #18 ) ;
#30 = EDGE_LOOP ( 'NONE', ( #31, #32, #33, #156 ) ) ;
#31 = ORIENTED_EDGE ( 'NONE', *, *, #188, .F. ) ;
#32 = ORIENTED_EDGE ( 'NONE', *, *, #103, .T. ) ;
#33 = ORIENTED_EDGE ( 'NONE', *, *, #154, .T. ) ;
#34 = AXIS2_PLACEMENT_3D ( 'NONE', #15, #14, #13 ) ;
#35 = CIRCLE ( 'NONE', #34, 0.5373450084227020500 ) ;
#36 = LINE ( 'NONE', #12, #11 ) ;
#37 = DIRECTION ( 'NONE',  ( 1.000000000000000000, 0.0000000000000000000, 0.0000000000000000000 ) ) ;
#38 = DIRECTION ( 'NONE',  ( 0.0000000000000000000, 0.0000000000000000000, 1.000000000000000000 ) ) ;
#39 = CARTESIAN_POINT ( 'NONE',  ( 0.0000000000000000000, 0.0000000000000000000, 5.167394680926404000 ) ) ;
#40 = AXIS2_PLACEMENT_3D ( 'NONE', #39, #38, #37 ) ;
#41 = CYLINDRICAL_SURFACE ( 'NONE', #40, 4.000000000000000000 ) ;
#42 = DIRECTION ( 'NONE',  ( 1.000000000000000000, 0.0000000000000000000, 0.0000000000000000000 ) ) ;
#43 = DIRECTION ( 'NONE',  ( 0.0000000000000000000, 0.0000000000000000000, 1.000000000000000000 ) ) ;
#44 = AXIS2_PLACEMENT_3D ( 'NONE', #47, #43, #42 ) ;
#45 = CYLINDRICAL_SURFACE ( 'NONE', #44, 4.999999999999997300 ) ;
#46 = FACE_OUTER_BOUND ( 'NONE', #72, .T. ) ;
#47 = CARTESIAN_POINT ( 'NONE',  ( 0.0000000000000000000, 0.0000000000000000000, 5.167394680926404000 ) ) ;
#48 = FACE_OUTER_BOUND ( 'NONE', #185, .T. ) ;
#49 = CARTESIAN_POINT ( 'NONE',  ( 4.000000000000000000, 0.0000000000000000000, -2.999999999999997300 ) ) ;
#50 = DIRECTION ( 'NONE',  ( 1.000000000000000000, 0.0000000000000000000, 0.0000000000000000000 ) ) ;
#51 = DIRECTION ( 'NONE',  ( 0.0000000000000000000, 0.0000000000000000000, 1.000000000000000000 ) ) ;
#52 = CARTESIAN_POINT ( 'NONE',  ( 0.0000000000000000000, 0.0000000000000000000, -2.999999999999997300 ) ) ;
#53 = AXIS2_PLACEMENT_3D ( 'NONE', #52, #51, #50 ) ;
#54 = CIRCLE ( 'NONE', #53, 4.000000000000000000 ) ;
#55 = DIRECTION ( 'NONE',  ( 1.000000000000000000, 0.0000000000000000000, 0.0000000000000000000 ) ) ;
#56 = DIRECTION ( 'NONE',  ( 0.0000000000000000000, 0.0000000000000000000, 1.000000000000000000 ) ) ;
#57 = CARTESIAN_POINT ( 'NONE',  ( 0.0000000000000000000, 0.0000000000000000000, 5.167394680926404000 ) ) ;
#58 = AXIS2_PLACEMENT_3D ( 'NONE', #57, #56, #55 ) ;
#59 = CIRCLE ( 'NONE', #201, 4.074690016845401000 ) ;
#60 = CLOSED_SHELL ( 'NONE', ( #119, #3, #68, #78, #109, #152, #133, #168, #158, #71, #61, #157 ) ) ;
#61 = ADVANCED_FACE ( 'NONE', ( #17 ), #16, .F. ) ;
#62 = ORIENTED_EDGE ( 'NONE', *, *, #161, .F. ) ;
#63 = ORIENTED_EDGE ( 'NONE', *, *, #64, .T. ) ;
#64 = EDGE_CURVE ( 'NONE', #184, #65, #54, .T. ) ;
#65 = VERTEX_POINT ( 'NONE', #49 ) ;
#66 = ORIENTED_EDGE ( 'NONE', *, *, #165, .T. ) ;
#67 = ORIENTED_EDGE ( 'NONE', *, *, #161, .T. ) ;
#68 = ADVANCED_FACE ( 'NONE', ( #48 ), #45, .T. ) ;
#69 = EDGE_LOOP ( 'NONE', ( #70, #149, #151, #137 ) ) ;
#70 = ORIENTED_EDGE ( 'NONE', *, *, #139, .T. ) ;
#71 = ADVANCED_FACE ( 'NONE', ( #46 ), #41, .F. ) ;
#72 = EDGE_LOOP ( 'NONE', ( #73, #164, #166, #167 ) ) ;
#73 = ORIENTED_EDGE ( 'NONE', *, *, #183, .F. ) ;
#74 = EDGE_CURVE ( 'NONE', #191, #29, #35, .T. ) ;
#75 = EDGE_LOOP ( 'NONE', ( #153, #142, #145, #130, #77 ) ) ;
#76 = EDGE_CURVE ( 'NONE', #29, #147, #36, .T. ) ;
#77 = ORIENTED_EDGE ( 'NONE', *, *, #74, .F. ) ;
#78 = ADVANCED_FACE ( 'NONE', ( #9 ), #8, .T. ) ;
#79 = EDGE_LOOP ( 'NONE', ( #62, #182, #63, #126 ) ) ;
#80 = EDGE_CURVE ( 'NONE', #148, #194, #102, .T. ) ;
#81 = DIRECTION ( 'NONE',  ( 0.0000000000000000000, 1.000000000000000000, 0.0000000000000000000 ) ) ;
#82 = DIRECTION ( 'NONE',  ( -1.000000000000000000, 0.0000000000000000000, 0.0000000000000000000 ) ) ;
#83 = AXIS2_PLACEMENT_3D ( 'NONE', #86, #82, #81 ) ;
#84 = SPHERICAL_SURFACE ( 'NONE', #83, 1.000000000000000000 ) ;
#85 = FACE_OUTER_BOUND ( 'NONE', #170, .T. ) ;
#86 = CARTESIAN_POINT ( 'NONE',  ( 0.0000000000000000000, 0.0000000000000000000, -1.000000000000000000 ) ) ;
#87 = FACE_OUTER_BOUND ( 'NONE', #26, .T. ) ;
#88 = DIRECTION ( 'NONE',  ( 0.0000000000000000000, 0.0000000000000000000, 1.000000000000000000 ) ) ;
#89 = VECTOR ( 'NONE', #88, 1000.000000000000000 ) ;
#90 = CARTESIAN_POINT ( 'NONE',  ( 4.000000000000000000, 0.0000000000000000000, 5.167394680926404000 ) ) ;
#91 = LINE ( 'NONE', #90, #89 ) ;
#92 = FACE_OUTER_BOUND ( 'NONE', #127, .T. ) ;
#93 = DIRECTION ( 'NONE',  ( 1.000000000000000000, 0.0000000000000000000, 0.0000000000000000000 ) ) ;
#94 = DIRECTION ( 'NONE',  ( 0.0000000000000000000, 0.0000000000000000000, 1.000000000000000000 ) ) ;
#95 = CARTESIAN_POINT ( 'NONE',  ( 0.0000000000000000000, 0.0000000000000000000, -0.1566374789432447000 ) ) ;
#96 = AXIS2_PLACEMENT_3D ( 'NONE', #95, #94, #93 ) ;
#97 = CIRCLE ( 'NONE', #96, 0.5373450084227020500 ) ;
#98 = DIRECTION ( 'NONE',  ( 1.000000000000000000, 0.0000000000000000000, 0.0000000000000000000 ) ) ;
#99 = DIRECTION ( 'NONE',  ( 0.0000000000000000000, 0.0000000000000000000, 1.000000000000000000 ) ) ;
#100 = CARTESIAN_POINT ( 'NONE',  ( 0.0000000000000000000, 0.0000000000000000000, -4.097167540709725700 ) ) ;
#101 = AXIS2_PLACEMENT_3D ( 'NONE', #100, #99, #98 ) ;
#102 = CIRCLE ( 'NONE', #101, 4.999999999999995600 ) ;
#103 = EDGE_CURVE ( 'NONE', #174, #155, #97, .T. ) ;
#104 = ORIENTED_EDGE ( 'NONE', *, *, #140, .T. ) ;
#105 = MANIFOLD_SOLID_BREP ( 'NONE', #60 ) ;
#106 = ORIENTED_EDGE ( 'NONE', *, *, #143, .F. ) ;
#107 = ORIENTED_EDGE ( 'NONE', *, *, #103, .F. ) ;
#108 = EDGE_CURVE ( 'NONE', #163, #65, #91, .T. ) ;
#109 = ADVANCED_FACE ( 'NONE', ( #87 ), #84, .T. ) ;
#110 = DIRECTION ( 'NONE',  ( 0.0000000000000000000, 0.0000000000000000000, 1.000000000000000000 ) ) ;
#111 = CARTESIAN_POINT ( 'NONE',  ( 0.0000000000000000000, 0.0000000000000000000, -2.999999999999997300 ) ) ;
#112 = AXIS2_PLACEMENT_3D ( 'NONE', #111, #110, #1 ) ;
#113 = CIRCLE ( 'NONE', #112, 4.000000000000000000 ) ;
#114 = DIRECTION ( 'NONE',  ( 1.000000000000000000, 0.0000000000000000000, 0.0000000000000000000 ) ) ;
#115 = DIRECTION ( 'NONE',  ( 0.0000000000000000000, 0.0000000000000000000, 1.000000000000000000 ) ) ;
#116 = CARTESIAN_POINT ( 'NONE',  ( 0.0000000000000000000, 0.0000000000000000000, -4.097167540709725700 ) ) ;
#117 = AXIS2_PLACEMENT_3D ( 'NONE', #116, #115, #114 ) ;
#118 = TOROIDAL_SURFACE ( 'NONE', #117, 2.999999999999995600, 2.000000000000000000 ) ;
#119 = ADVANCED_FACE ( 'NONE', ( #85 ), #118, .T. ) ;
#120 = ORIENTED_EDGE ( 'NONE', *, *, #150, .F. ) ;
#121 = ORIENTED_EDGE ( 'NONE', *, *, #80, .T. ) ;
#122 = EDGE_LOOP ( 'NONE', ( #123, #125 ) ) ;
#123 = ORIENTED_EDGE ( 'NONE', *, *, #124, .F. ) ;
#124 = EDGE_CURVE ( 'NONE', #65, #184, #113, .T. ) ;
#125 = ORIENTED_EDGE ( 'NONE', *, *, #64, .F. ) ;
#126 = ORIENTED_EDGE ( 'NONE', *, *, #108, .F. ) ;
#127 = EDGE_LOOP ( 'NONE', ( #106, #107, #141, #131, #132 ) ) ;
#128 = ORIENTED_EDGE ( 'NONE', *, *, #80, .F. ) ;
#129 = VERTEX_POINT ( 'NONE', #218 ) ;
#130 = ORIENTED_EDGE ( 'NONE', *, *, #76, .F. ) ;
#131 = ORIENTED_EDGE ( 'NONE', *, *, #76, .T. ) ;
#132 = ORIENTED_EDGE ( 'NONE', *, *, #2, .T. ) ;
#133 = ADVANCED_FACE ( 'NONE', ( #212 ), #223, .T. ) ;
#134 = EDGE_LOOP ( 'NONE', ( #159, #104, #193, #169 ) ) ;
#135 = VERTEX_POINT ( 'NONE', #224 ) ;
#136 = ORIENTED_EDGE ( 'NONE', *, *, #171, .T. ) ;
#137 = ORIENTED_EDGE ( 'NONE', *, *, #138, .F. ) ;
#138 = EDGE_CURVE ( 'NONE', #194, #144, #217, .T. ) ;
#139 = EDGE_CURVE ( 'NONE', #194, #148, #326, .T. ) ;
#140 = EDGE_CURVE ( 'NONE', #135, #148, #321, .T. ) ;
#141 = ORIENTED_EDGE ( 'NONE', *, *, #28, .F. ) ;
#142 = ORIENTED_EDGE ( 'NONE', *, *, #143, .T. ) ;
#143 = EDGE_CURVE ( 'NONE', #155, #144, #317, .T. ) ;
#144 = VERTEX_POINT ( 'NONE', #313 ) ;
#145 = ORIENTED_EDGE ( 'NONE', *, *, #146, .T. ) ;
#146 = EDGE_CURVE ( 'NONE', #144, #147, #311, .T. ) ;
#147 = VERTEX_POINT ( 'NONE', #306 ) ;
#148 = VERTEX_POINT ( 'NONE', #305 ) ;
#149 = ORIENTED_EDGE ( 'NONE', *, *, #150, .T. ) ;
#150 = EDGE_CURVE ( 'NONE', #148, #147, #303, .T. ) ;
#151 = ORIENTED_EDGE ( 'NONE', *, *, #146, .F. ) ;
#152 = ADVANCED_FACE ( 'NONE', ( #304 ), #288, .T. ) ;
#153 = ORIENTED_EDGE ( 'NONE', *, *, #154, .F. ) ;
#154 = EDGE_CURVE ( 'NONE', #155, #191, #285, .T. ) ;
#155 = VERTEX_POINT ( 'NONE', #281 ) ;
#156 = ORIENTED_EDGE ( 'NONE', *, *, #190, .T. ) ;
#157 = ADVANCED_FACE ( 'NONE', ( #280 ), #279, .F. ) ;
#158 = ADVANCED_FACE ( 'NONE', ( #278 ), #271, .T. ) ;
#159 = ORIENTED_EDGE ( 'NONE', *, *, #160, .T. ) ;
#160 = EDGE_CURVE ( 'NONE', #129, #135, #267, .T. ) ;
#161 = EDGE_CURVE ( 'NONE', #162, #163, #263, .T. ) ;
#162 = VERTEX_POINT ( 'NONE', #258 ) ;
#163 = VERTEX_POINT ( 'NONE', #257 ) ;
#164 = ORIENTED_EDGE ( 'NONE', *, *, #165, .F. ) ;
#165 = EDGE_CURVE ( 'NONE', #163, #162, #256, .T. ) ;
#166 = ORIENTED_EDGE ( 'NONE', *, *, #108, .T. ) ;
#167 = ORIENTED_EDGE ( 'NONE', *, *, #124, .T. ) ;
#168 = ADVANCED_FACE ( 'NONE', ( #251, #250 ), #249, .F. ) ;
#169 = ORIENTED_EDGE ( 'NONE', *, *, #171, .F. ) ;
#170 = EDGE_LOOP ( 'NONE', ( #120, #121, #172, #173 ) ) ;
#171 = EDGE_CURVE ( 'NONE', #129, #194, #244, .T. ) ;
#172 = ORIENTED_EDGE ( 'NONE', *, *, #138, .T. ) ;
#173 = ORIENTED_EDGE ( 'NONE', *, *, #2, .F. ) ;
#174 = VERTEX_POINT ( 'NONE', #240 ) ;
#175 = ORIENTED_EDGE ( 'NONE', *, *, #188, .T. ) ;
#176 = VERTEX_POINT ( 'NONE', #239 ) ;
#177 = EDGE_LOOP ( 'NONE', ( #178, #179 ) ) ;
#178 = ORIENTED_EDGE ( 'NONE', *, *, #160, .F. ) ;
#179 = ORIENTED_EDGE ( 'NONE', *, *, #180, .F. ) ;
#180 = EDGE_CURVE ( 'NONE', #135, #129, #238, .T. ) ;
#181 = EDGE_LOOP ( 'NONE', ( #66, #67 ) ) ;
#182 = ORIENTED_EDGE ( 'NONE', *, *, #183, .T. ) ;
#183 = EDGE_CURVE ( 'NONE', #162, #184, #233, .T. ) ;
#184 = VERTEX_POINT ( 'NONE', #229 ) ;
#185 = EDGE_LOOP ( 'NONE', ( #186, #187, #136, #128 ) ) ;
#186 = ORIENTED_EDGE ( 'NONE', *, *, #140, .F. ) ;
#187 = ORIENTED_EDGE ( 'NONE', *, *, #180, .T. ) ;
#188 = EDGE_CURVE ( 'NONE', #174, #176, #228, .T. ) ;
#189 = ORIENTED_EDGE ( 'NONE', *, *, #190, .F. ) ;
#190 = EDGE_CURVE ( 'NONE', #191, #176, #210, .T. ) ;
#191 = VERTEX_POINT ( 'NONE', #205 ) ;
#192 = ORIENTED_EDGE ( 'NONE', *, *, #74, .T. ) ;
#193 = ORIENTED_EDGE ( 'NONE', *, *, #139, .F. ) ;
#194 = VERTEX_POINT ( 'NONE', #204 ) ;
#195 = CARTESIAN_POINT ( 'NONE',  ( 0.0000000000000000000, 0.0000000000000000000, -2.410442498596213400 ) ) ;
#196 = CONICAL_SURFACE ( 'NONE', #25, 4.074690016845401000, 1.003510488600938300 ) ;
#197 = DIRECTION ( 'NONE',  ( 0.0000000000000000000, 0.0000000000000000000, -1.000000000000000000 ) ) ;
#198 = DIRECTION ( 'NONE',  ( 1.000000000000000000, 0.0000000000000000000, 0.0000000000000000000 ) ) ;
#199 = DIRECTION ( 'NONE',  ( 0.0000000000000000000, 0.0000000000000000000, 1.000000000000000000 ) ) ;
#200 = CARTESIAN_POINT ( 'NONE',  ( 0.0000000000000000000, 0.0000000000000000000, -2.410442498596213400 ) ) ;
#201 = AXIS2_PLACEMENT_3D ( 'NONE', #200, #199, #198 ) ;
#202 =( LENGTH_UNIT ( ) NAMED_UNIT ( * ) SI_UNIT ( .MILLI., .METRE. ) );
#203 = DIRECTION ( 'NONE',  ( 0.0000000000000000000, 0.0000000000000000000, 1.000000000000000000 ) ) ;
#204 = CARTESIAN_POINT ( 'NONE',  ( 4.999999999999995600, 0.0000000000000000000, -4.097167540709725700 ) ) ;
#205 = CARTESIAN_POINT ( 'NONE',  ( 0.0000000000000000000, 0.5373450084227020500, -0.1566374789432446500 ) ) ;
#206 = DIRECTION ( 'NONE',  ( 0.0000000000000000000, 0.0000000000000000000, -1.000000000000000000 ) ) ;
#207 = DIRECTION ( 'NONE',  ( 1.000000000000000000, 0.0000000000000000000, 0.0000000000000000000 ) ) ;
#208 = CARTESIAN_POINT ( 'NONE',  ( 0.0000000000000000000, 0.0000000000000000000, -1.000000000000000000 ) ) ;
#209 = AXIS2_PLACEMENT_3D ( 'NONE', #208, #207, #206 ) ;
#210 = CIRCLE ( 'NONE', #209, 1.000000000000000000 ) ;
#211 = DIRECTION ( 'NONE',  ( -1.224646799147353200E-016, -1.000000000000000000, 0.0000000000000000000 ) ) ;
#212 = FACE_OUTER_BOUND ( 'NONE', #30, .T. ) ;
#213 = DIRECTION ( 'NONE',  ( 0.0000000000000000000, 0.0000000000000000000, -1.000000000000000000 ) ) ;
#214 = DIRECTION ( 'NONE',  ( 0.0000000000000000000, -1.000000000000000000, 0.0000000000000000000 ) ) ;
#215 = CARTESIAN_POINT ( 'NONE',  ( 2.999999999999995600, 0.0000000000000000000, -4.097167540709725700 ) ) ;
#216 = AXIS2_PLACEMENT_3D ( 'NONE', #215, #214, #213 ) ;
#217 = CIRCLE ( 'NONE', #216, 2.000000000000000000 ) ;
#218 = CARTESIAN_POINT ( 'NONE',  ( 5.000000000000000000, 0.0000000000000000000, -43.00000000000000000 ) ) ;
#219 = DIRECTION ( 'NONE',  ( 0.0000000000000000000, 1.000000000000000000, 0.0000000000000000000 ) ) ;
#220 = DIRECTION ( 'NONE',  ( -1.000000000000000000, 0.0000000000000000000, 0.0000000000000000000 ) ) ;
#221 = CARTESIAN_POINT ( 'NONE',  ( 0.0000000000000000000, 0.0000000000000000000, -1.000000000000000000 ) ) ;
#222 = AXIS2_PLACEMENT_3D ( 'NONE', #221, #220, #219 ) ;
#223 = SPHERICAL_SURFACE ( 'NONE', #222, 1.000000000000000000 ) ;
#224 = CARTESIAN_POINT ( 'NONE',  ( -5.000000000000000000, 6.123233995736766300E-016, -43.00000000000000000 ) ) ;
#225 = DIRECTION ( 'NONE',  ( -1.000000000000000000, 1.224646799147353200E-016, 0.0000000000000000000 ) ) ;
#226 = CARTESIAN_POINT ( 'NONE',  ( 0.0000000000000000000, 0.0000000000000000000, -1.000000000000000000 ) ) ;
#227 = AXIS2_PLACEMENT_3D ( 'NONE', #226, #225, #211 ) ;
#228 = CIRCLE ( 'NONE', #227, 1.000000000000000000 ) ;
#229 = CARTESIAN_POINT ( 'NONE',  ( -4.000000000000000000, 4.898587196589412800E-016, -2.999999999999997300 ) ) ;
#230 = DIRECTION ( 'NONE',  ( 0.0000000000000000000, 0.0000000000000000000, 1.000000000000000000 ) ) ;
#231 = VECTOR ( 'NONE', #230, 1000.000000000000000 ) ;
#232 = CARTESIAN_POINT ( 'NONE',  ( -4.000000000000000000, 4.898587196589412800E-016, 5.167394680926404000 ) ) ;
#233 = LINE ( 'NONE', #232, #231 ) ;
#234 = DIRECTION ( 'NONE',  ( 1.000000000000000000, 0.0000000000000000000, 0.0000000000000000000 ) ) ;
#235 = DIRECTION ( 'NONE',  ( 0.0000000000000000000, 0.0000000000000000000, 1.000000000000000000 ) ) ;
#236 = CARTESIAN_POINT ( 'NONE',  ( 0.0000000000000000000, 0.0000000000000000000, -43.00000000000000000 ) ) ;
#237 = AXIS2_PLACEMENT_3D ( 'NONE', #236, #235, #234 ) ;
#238 = CIRCLE ( 'NONE', #237, 5.000000000000000000 ) ;
#239 = CARTESIAN_POINT ( 'NONE',  ( 0.0000000000000000000, 6.123233995736766000E-017, 0.0000000000000000000 ) ) ;
#240 = CARTESIAN_POINT ( 'NONE',  ( -6.580578446026696300E-017, -0.5373450084227020500, -0.1566374789432446500 ) ) ;
#241 = DIRECTION ( 'NONE',  ( 0.0000000000000000000, 0.0000000000000000000, 1.000000000000000000 ) ) ;
#242 = VECTOR ( 'NONE', #241, 1000.000000000000000 ) ;
#243 = CARTESIAN_POINT ( 'NONE',  ( 4.999999999999997300, 0.0000000000000000000, 5.167394680926404000 ) ) ;
#244 = LINE ( 'NONE', #243, #242 ) ;
#245 = DIRECTION ( 'NONE',  ( 1.000000000000000000, 0.0000000000000000000, 0.0000000000000000000 ) ) ;
#246 = DIRECTION ( 'NONE',  ( 0.0000000000000000000, 0.0000000000000000000, 1.000000000000000000 ) ) ;
#247 = CARTESIAN_POINT ( 'NONE',  ( 0.0000000000000000000, 4.000000000000000000, -43.00000000000000000 ) ) ;
#248 = AXIS2_PLACEMENT_3D ( 'NONE', #247, #246, #245 ) ;
#249 = PLANE ( 'NONE',  #248 ) ;
#250 = FACE_BOUND ( 'NONE', #181, .T. ) ;
#251 = FACE_OUTER_BOUND ( 'NONE', #177, .T. ) ;
#252 = DIRECTION ( 'NONE',  ( 1.000000000000000000, 0.0000000000000000000, 0.0000000000000000000 ) ) ;
#253 = DIRECTION ( 'NONE',  ( 0.0000000000000000000, 0.0000000000000000000, 1.000000000000000000 ) ) ;
#254 = CARTESIAN_POINT ( 'NONE',  ( 0.0000000000000000000, 0.0000000000000000000, -43.00000000000000000 ) ) ;
#255 = AXIS2_PLACEMENT_3D ( 'NONE', #254, #253, #252 ) ;
#256 = CIRCLE ( 'NONE', #255, 4.000000000000000000 ) ;
#257 = CARTESIAN_POINT ( 'NONE',  ( 4.000000000000000000, 0.0000000000000000000, -43.00000000000000000 ) ) ;
#258 = CARTESIAN_POINT ( 'NONE',  ( -4.000000000000000000, 4.898587196589412800E-016, -43.00000000000000000 ) ) ;
#259 = DIRECTION ( 'NONE',  ( 1.000000000000000000, 0.0000000000000000000, 0.0000000000000000000 ) ) ;
#260 = DIRECTION ( 'NONE',  ( 0.0000000000000000000, 0.0000000000000000000, 1.000000000000000000 ) ) ;
#261 = CARTESIAN_POINT ( 'NONE',  ( 0.0000000000000000000, 0.0000000000000000000, -43.00000000000000000 ) ) ;
#262 = AXIS2_PLACEMENT_3D ( 'NONE', #261, #260, #259 ) ;
#263 = CIRCLE ( 'NONE', #262, 4.000000000000000000 ) ;
#264 = DIRECTION ( 'NONE',  ( 1.000000000000000000, 0.0000000000000000000, 0.0000000000000000000 ) ) ;
#265 = DIRECTION ( 'NONE',  ( 0.0000000000000000000, 0.0000000000000000000, 1.000000000000000000 ) ) ;
#266 = AXIS2_PLACEMENT_3D ( 'NONE', #272, #265, #264 ) ;
#267 = CIRCLE ( 'NONE', #266, 5.000000000000000000 ) ;
#268 = DIRECTION ( 'NONE',  ( 1.000000000000000000, 0.0000000000000000000, 0.0000000000000000000 ) ) ;
#269 = DIRECTION ( 'NONE',  ( 0.0000000000000000000, 0.0000000000000000000, 1.000000000000000000 ) ) ;
#270 = AXIS2_PLACEMENT_3D ( 'NONE', #273, #269, #268 ) ;
#271 = CYLINDRICAL_SURFACE ( 'NONE', #270, 4.999999999999997300 ) ;
#272 = CARTESIAN_POINT ( 'NONE',  ( 0.0000000000000000000, 0.0000000000000000000, -43.00000000000000000 ) ) ;
#273 = CARTESIAN_POINT ( 'NONE',  ( 0.0000000000000000000, 0.0000000000000000000, 5.167394680926404000 ) ) ;
#274 = DIRECTION ( 'NONE',  ( 1.000000000000000000, 0.0000000000000000000, 0.0000000000000000000 ) ) ;
#275 = DIRECTION ( 'NONE',  ( 0.0000000000000000000, 0.0000000000000000000, 1.000000000000000000 ) ) ;
#276 = CARTESIAN_POINT ( 'NONE',  ( 0.0000000000000000000, 0.0000000000000000000, -2.999999999999997300 ) ) ;
#277 = AXIS2_PLACEMENT_3D ( 'NONE', #276, #275, #274 ) ;
#278 = FACE_OUTER_BOUND ( 'NONE', #134, .T. ) ;
#279 = PLANE ( 'NONE',  #277 ) ;
#280 = FACE_OUTER_BOUND ( 'NONE', #122, .T. ) ;
#281 = CARTESIAN_POINT ( 'NONE',  ( 0.5373450084227020500, 2.824056965625031300E-016, -0.1566374789432447000 ) ) ;
#282 = DIRECTION ( 'NONE',  ( 1.000000000000000000, 0.0000000000000000000, 0.0000000000000000000 ) ) ;
#283 = DIRECTION ( 'NONE',  ( 0.0000000000000000000, 0.0000000000000000000, 1.000000000000000000 ) ) ;
#284 = AXIS2_PLACEMENT_3D ( 'NONE', #297, #283, #282 ) ;
#285 = CIRCLE ( 'NONE', #284, 0.5373450084227020500 ) ;
#286 = DIRECTION ( 'NONE',  ( -1.000000000000000000, 0.0000000000000000000, 0.0000000000000000000 ) ) ;
#287 = AXIS2_PLACEMENT_3D ( 'NONE', #296, #298, #286 ) ;
#288 = CONICAL_SURFACE ( 'NONE', #287, 4.074690016845401000, 1.003510488600938300 ) ;
#289 = APPLICATION_PROTOCOL_DEFINITION ( 'international standard', 'config_control_design', 1994, #290 ) ;
#290 = APPLICATION_CONTEXT ( 'configuration controlled 3d designs of mechanical parts and assemblies' ) ;
#291 = DIRECTION ( 'NONE',  ( 1.000000000000000000, 0.0000000000000000000, 0.0000000000000000000 ) ) ;
#292 = CARTESIAN_POINT ( 'NONE',  ( 0.0000000000000000000, 0.0000000000000000000, 0.0000000000000000000 ) ) ;
#293 = AXIS2_PLACEMENT_3D ( 'NONE', #292, #203, #291 ) ;
#294 = SHAPE_DEFINITION_REPRESENTATION ( #312, #295 ) ;
#295 = ADVANCED_BREP_SHAPE_REPRESENTATION ( 'AC-25-G-8', ( #105, #293 ), #327 ) ;
#296 = CARTESIAN_POINT ( 'NONE',  ( 0.0000000000000000000, 0.0000000000000000000, -2.410442498596213400 ) ) ;
#297 = CARTESIAN_POINT ( 'NONE',  ( 0.0000000000000000000, 0.0000000000000000000, -0.1566374789432447000 ) ) ;
#298 = DIRECTION ( 'NONE',  ( 0.0000000000000000000, 0.0000000000000000000, -1.000000000000000000 ) ) ;
#299 = DIRECTION ( 'NONE',  ( -1.000000000000000000, 1.224646799147353000E-016, 0.0000000000000000000 ) ) ;
#300 = DIRECTION ( 'NONE',  ( 1.224646799147353200E-016, 1.000000000000000000, 0.0000000000000000000 ) ) ;
#301 = CARTESIAN_POINT ( 'NONE',  ( -2.999999999999995600, 3.673940397442054400E-016, -4.097167540709725700 ) ) ;
#302 = AXIS2_PLACEMENT_3D ( 'NONE', #301, #300, #299 ) ;
#303 = CIRCLE ( 'NONE', #302, 2.000000000000000000 ) ;
#304 = FACE_OUTER_BOUND ( 'NONE', #75, .T. ) ;
#305 = CARTESIAN_POINT ( 'NONE',  ( -4.999999999999995600, 6.123233995736760400E-016, -4.097167540709725700 ) ) ;
#306 = CARTESIAN_POINT ( 'NONE',  ( -4.074690016845401000, 5.556645041192077300E-016, -2.410442498596213400 ) ) ;
#307 = DIRECTION ( 'NONE',  ( 1.000000000000000000, 0.0000000000000000000, 0.0000000000000000000 ) ) ;
#308 = DIRECTION ( 'NONE',  ( 0.0000000000000000000, 0.0000000000000000000, 1.000000000000000000 ) ) ;
#309 = CARTESIAN_POINT ( 'NONE',  ( 0.0000000000000000000, 0.0000000000000000000, -2.410442498596213400 ) ) ;
#310 = AXIS2_PLACEMENT_3D ( 'NONE', #309, #308, #307 ) ;
#311 = CIRCLE ( 'NONE', #310, 4.074690016845401000 ) ;
#312 = PRODUCT_DEFINITION_SHAPE ( 'NONE', 'NONE',  #351 ) ;
#313 = CARTESIAN_POINT ( 'NONE',  ( 4.074690016845401000, 0.0000000000000000000, -2.410442498596213400 ) ) ;
#314 = DIRECTION ( 'NONE',  ( 0.8433625210567554700, 1.032821211932997800E-016, -0.5373450084227020500 ) ) ;
#315 = VECTOR ( 'NONE', #314, 1000.000000000000000 ) ;
#316 = CARTESIAN_POINT ( 'NONE',  ( 4.074690016845401000, 4.990056086647395200E-016, -2.410442498596213400 ) ) ;
#317 = LINE ( 'NONE', #316, #315 ) ;
#318 = DIRECTION ( 'NONE',  ( 0.0000000000000000000, 0.0000000000000000000, 1.000000000000000000 ) ) ;
#319 = VECTOR ( 'NONE', #318, 1000.000000000000000 ) ;
#320 = CARTESIAN_POINT ( 'NONE',  ( -4.999999999999997300, 6.123233995736763300E-016, 5.167394680926404000 ) ) ;
#321 = LINE ( 'NONE', #320, #319 ) ;
#322 = DIRECTION ( 'NONE',  ( 1.000000000000000000, 0.0000000000000000000, 0.0000000000000000000 ) ) ;
#323 = DIRECTION ( 'NONE',  ( 0.0000000000000000000, 0.0000000000000000000, 1.000000000000000000 ) ) ;
#324 = CARTESIAN_POINT ( 'NONE',  ( 0.0000000000000000000, 0.0000000000000000000, -4.097167540709725700 ) ) ;
#325 = AXIS2_PLACEMENT_3D ( 'NONE', #324, #323, #322 ) ;
#326 = CIRCLE ( 'NONE', #325, 4.999999999999995600 ) ;
#327 =( GEOMETRIC_REPRESENTATION_CONTEXT ( 3 ) GLOBAL_UNCERTAINTY_ASSIGNED_CONTEXT ( ( #328 ) ) GLOBAL_UNIT_ASSIGNED_CONTEXT ( ( #202, #330, #329 ) ) REPRESENTATION_CONTEXT ( 'NONE', 'WORKASPACE' ) );
#328 = UNCERTAINTY_MEASURE_WITH_UNIT (LENGTH_MEASURE( 1.000000000000000100E-005 ), #202, 'distance_accuracy_value', 'NONE');
#329 =( NAMED_UNIT ( * ) SI_UNIT ( $, .STERADIAN. ) SOLID_ANGLE_UNIT ( ) );
#330 =( NAMED_UNIT ( * ) PLANE_ANGLE_UNIT ( ) SI_UNIT ( $, .RADIAN. ) );
#331 = CC_DESIGN_DATE_AND_TIME_ASSIGNMENT ( #333, #332, ( #351 ) ) ;
#332 = DATE_TIME_ROLE ( 'creation_date' ) ;
#333 = DATE_AND_TIME ( #334, #335 ) ;
#334 = CALENDAR_DATE ( 2006, 8, 6 ) ;
#335 = LOCAL_TIME ( 11, 5, 28.00000000000000000, #336 ) ;
#336 = COORDINATED_UNIVERSAL_TIME_OFFSET ( 9, 0, .AHEAD. ) ;
#337 = CC_DESIGN_PERSON_AND_ORGANIZATION_ASSIGNMENT ( #339, #338, ( #351 ) ) ;
#338 = PERSON_AND_ORGANIZATION_ROLE ( 'creator' ) ;
#339 = PERSON_AND_ORGANIZATION ( #359, #358 ) ;
#340 = CC_DESIGN_APPROVAL ( #348, ( #351 ) ) ;
#341 = APPROVAL_DATE_TIME ( #342, #348 ) ;
#342 = DATE_AND_TIME ( #343, #344 ) ;
#343 = CALENDAR_DATE ( 2006, 8, 6 ) ;
#344 = LOCAL_TIME ( 11, 5, 28.00000000000000000, #345 ) ;
#345 = COORDINATED_UNIVERSAL_TIME_OFFSET ( 9, 0, .AHEAD. ) ;
#346 = APPROVAL_PERSON_ORGANIZATION ( #350, #348, #347 ) ;
#347 = APPROVAL_ROLE ( '' ) ;
#348 = APPROVAL ( #349, 'UNSPECIFIED' ) ;
#349 = APPROVAL_STATUS ( 'not_yet_approved' ) ;
#350 = PERSON_AND_ORGANIZATION ( #359, #358 ) ;
#351 = PRODUCT_DEFINITION ( 'UNKNOWN', '', #403, #352 ) ;
#352 = DESIGN_CONTEXT ( 'detailed design', #354, 'design' ) ;
#353 = APPLICATION_PROTOCOL_DEFINITION ( 'international standard', 'config_control_design', 1994, #354 ) ;
#354 = APPLICATION_CONTEXT ( 'configuration controlled 3d designs of mechanical parts and assemblies' ) ;
#355 = CC_DESIGN_PERSON_AND_ORGANIZATION_ASSIGNMENT ( #357, #356, ( #360 ) ) ;
#356 = PERSON_AND_ORGANIZATION_ROLE ( 'design_owner' ) ;
#357 = PERSON_AND_ORGANIZATION ( #359, #358 ) ;
#358 = ORGANIZATION ( 'UNSPECIFIED', 'UNSPECIFIED', '' ) ;
#359 = PERSON ( 'UNSPECIFIED', 'UNSPECIFIED', 'UNSPECIFIED', ('UNSPECIFIED'), ('UNSPECIFIED'), ('UNSPECIFIED') ) ;
#360 = PRODUCT ( 'AC-25-G-8', 'AC-25-G-8', '', ( #361 ) ) ;
#361 = MECHANICAL_CONTEXT ( 'NONE', #290, 'mechanical' ) ;
#362 = PRODUCT_RELATED_PRODUCT_CATEGORY ( 'detail', '', ( #360 ) ) ;
#363 = CC_DESIGN_SECURITY_CLASSIFICATION ( #384, ( #403 ) ) ;
#364 = CC_DESIGN_APPROVAL ( #372, ( #384 ) ) ;
#365 = APPROVAL_DATE_TIME ( #366, #372 ) ;
#366 = DATE_AND_TIME ( #367, #368 ) ;
#367 = CALENDAR_DATE ( 2006, 8, 6 ) ;
#368 = LOCAL_TIME ( 11, 5, 28.00000000000000000, #369 ) ;
#369 = COORDINATED_UNIVERSAL_TIME_OFFSET ( 9, 0, .AHEAD. ) ;
#370 = APPROVAL_PERSON_ORGANIZATION ( #374, #372, #371 ) ;
#371 = APPROVAL_ROLE ( '' ) ;
#372 = APPROVAL ( #373, 'UNSPECIFIED' ) ;
#373 = APPROVAL_STATUS ( 'not_yet_approved' ) ;
#374 = PERSON_AND_ORGANIZATION ( #359, #358 ) ;
#375 = CC_DESIGN_DATE_AND_TIME_ASSIGNMENT ( #377, #376, ( #384 ) ) ;
#376 = DATE_TIME_ROLE ( 'classification_date' ) ;
#377 = DATE_AND_TIME ( #378, #379 ) ;
#378 = CALENDAR_DATE ( 2006, 8, 6 ) ;
#379 = LOCAL_TIME ( 11, 5, 28.00000000000000000, #380 ) ;
#380 = COORDINATED_UNIVERSAL_TIME_OFFSET ( 9, 0, .AHEAD. ) ;
#381 = CC_DESIGN_PERSON_AND_ORGANIZATION_ASSIGNMENT ( #383, #382, ( #384 ) ) ;
#382 = PERSON_AND_ORGANIZATION_ROLE ( 'classification_officer' ) ;
#383 = PERSON_AND_ORGANIZATION ( #359, #358 ) ;
#384 = SECURITY_CLASSIFICATION ( '', '', #385 ) ;
#385 = SECURITY_CLASSIFICATION_LEVEL ( 'unclassified' ) ;
#386 = CC_DESIGN_PERSON_AND_ORGANIZATION_ASSIGNMENT ( #388, #387, ( #403 ) ) ;
#387 = PERSON_AND_ORGANIZATION_ROLE ( 'design_supplier' ) ;
#388 = PERSON_AND_ORGANIZATION ( #359, #358 ) ;
#389 = CC_DESIGN_PERSON_AND_ORGANIZATION_ASSIGNMENT ( #391, #390, ( #403 ) ) ;
#390 = PERSON_AND_ORGANIZATION_ROLE ( 'creator' ) ;
#391 = PERSON_AND_ORGANIZATION ( #359, #358 ) ;
#392 = CC_DESIGN_APPROVAL ( #400, ( #403 ) ) ;
#393 = APPROVAL_DATE_TIME ( #394, #400 ) ;
#394 = DATE_AND_TIME ( #395, #396 ) ;
#395 = CALENDAR_DATE ( 2006, 8, 6 ) ;
#396 = LOCAL_TIME ( 11, 5, 28.00000000000000000, #397 ) ;
#397 = COORDINATED_UNIVERSAL_TIME_OFFSET ( 9, 0, .AHEAD. ) ;
#398 = APPROVAL_PERSON_ORGANIZATION ( #402, #400, #399 ) ;
#399 = APPROVAL_ROLE ( '' ) ;
#400 = APPROVAL ( #401, 'UNSPECIFIED' ) ;
#401 = APPROVAL_STATUS ( 'not_yet_approved' ) ;
#402 = PERSON_AND_ORGANIZATION ( #359, #358 ) ;
#403 = PRODUCT_DEFINITION_FORMATION_WITH_SPECIFIED_SOURCE ( 'ANY', '', #360, .NOT_KNOWN. ) ;
ENDSEC;
END-ISO-10303-21;
