ISO-10303-21;
HEADER;
FILE_DESCRIPTION (( 'STEP AP203' ),
    '1' );
FILE_NAME ('AC-25-G-6.STEP',
    '2006-06-08T02:04:12',
    ( ' ' ),
    ( ' ' ),
    'SwSTEP 2.0',
    'SolidWorks 2005204',
    '' );
FILE_SCHEMA (( 'CONFIG_CONTROL_DESIGN' ));
ENDSEC;

DATA;
#1 = AXIS2_PLACEMENT_3D ( 'NONE', #4, #3, #2 ) ;
#2 = DIRECTION ( 'NONE',  ( 1.000000000000000000, 0.0000000000000000000, 0.0000000000000000000 ) ) ;
#3 = DIRECTION ( 'NONE',  ( 0.0000000000000000000, 0.0000000000000000000, 1.000000000000000000 ) ) ;
#4 = CARTESIAN_POINT ( 'NONE',  ( 0.0000000000000000000, 0.0000000000000000000, -43.00000000000000000 ) ) ;
#5 = CIRCLE ( 'NONE', #1, 3.000000000000000000 ) ;
#6 = DIRECTION ( 'NONE',  ( 1.000000000000000000, 0.0000000000000000000, 0.0000000000000000000 ) ) ;
#7 = DIRECTION ( 'NONE',  ( 0.0000000000000000000, 0.0000000000000000000, 1.000000000000000000 ) ) ;
#8 = AXIS2_PLACEMENT_3D ( 'NONE', #16, #7, #6 ) ;
#9 = CYLINDRICAL_SURFACE ( 'NONE', #8, 3.999999999999997300 ) ;
#10 = FACE_OUTER_BOUND ( 'NONE', #124, .T. ) ;
#11 = DIRECTION ( 'NONE',  ( 1.000000000000000000, 0.0000000000000000000, 0.0000000000000000000 ) ) ;
#12 = DIRECTION ( 'NONE',  ( 0.0000000000000000000, 0.0000000000000000000, 1.000000000000000000 ) ) ;
#13 = CARTESIAN_POINT ( 'NONE',  ( 0.0000000000000000000, 0.0000000000000000000, 5.167394680926404000 ) ) ;
#14 = AXIS2_PLACEMENT_3D ( 'NONE', #13, #12, #11 ) ;
#15 = CYLINDRICAL_SURFACE ( 'NONE', #14, 3.000000000000000000 ) ;
#16 = CARTESIAN_POINT ( 'NONE',  ( 0.0000000000000000000, 0.0000000000000000000, 5.167394680926404000 ) ) ;
#17 = FACE_OUTER_BOUND ( 'NONE', #120, .T. ) ;
#18 = DIRECTION ( 'NONE',  ( 0.0000000000000000000, 0.0000000000000000000, 1.000000000000000000 ) ) ;
#19 = VECTOR ( 'NONE', #18, 1000.000000000000000 ) ;
#20 = CARTESIAN_POINT ( 'NONE',  ( 3.999999999999997300, 0.0000000000000000000, 5.167394680926404000 ) ) ;
#21 = LINE ( 'NONE', #20, #19 ) ;
#22 = CARTESIAN_POINT ( 'NONE',  ( 3.999999999999994700, 0.0000000000000000000, -3.943559378304359400 ) ) ;
#23 = DIRECTION ( 'NONE',  ( 1.000000000000000000, 0.0000000000000000000, 0.0000000000000000000 ) ) ;
#24 = DIRECTION ( 'NONE',  ( 0.0000000000000000000, 0.0000000000000000000, 1.000000000000000000 ) ) ;
#25 = CARTESIAN_POINT ( 'NONE',  ( 0.0000000000000000000, 0.0000000000000000000, -3.943559378304359400 ) ) ;
#26 = AXIS2_PLACEMENT_3D ( 'NONE', #25, #24, #23 ) ;
#27 = CIRCLE ( 'NONE', #26, 3.999999999999994700 ) ;
#28 = CARTESIAN_POINT ( 'NONE',  ( -3.999999999999994700, 4.898587196589406900E-016, -3.943559378304359400 ) ) ;
#29 = DIRECTION ( 'NONE',  ( 0.0000000000000000000, 0.0000000000000000000, 1.000000000000000000 ) ) ;
#30 = VECTOR ( 'NONE', #29, 1000.000000000000000 ) ;
#31 = CARTESIAN_POINT ( 'NONE',  ( -3.999999999999997300, 4.898587196589409900E-016, 5.167394680926404000 ) ) ;
#32 = LINE ( 'NONE', #31, #30 ) ;
#33 = CARTESIAN_POINT ( 'NONE',  ( -4.000000000000000000, 4.898587196589412800E-016, -43.00000000000000000 ) ) ;
#34 = CARTESIAN_POINT ( 'NONE',  ( 4.000000000000000000, 0.0000000000000000000, -43.00000000000000000 ) ) ;
#35 = CARTESIAN_POINT ( 'NONE',  ( 0.0000000000000000000, 0.0000000000000000000, -43.00000000000000000 ) ) ;
#36 = AXIS2_PLACEMENT_3D ( 'NONE', #35, #200, #199 ) ;
#37 = DIRECTION ( 'NONE',  ( 1.000000000000000000, 0.0000000000000000000, 0.0000000000000000000 ) ) ;
#38 = DIRECTION ( 'NONE',  ( 0.0000000000000000000, 0.0000000000000000000, 1.000000000000000000 ) ) ;
#39 = CARTESIAN_POINT ( 'NONE',  ( 0.0000000000000000000, 0.0000000000000000000, 5.167394680926404000 ) ) ;
#40 = AXIS2_PLACEMENT_3D ( 'NONE', #39, #38, #37 ) ;
#41 = CIRCLE ( 'NONE', #36, 3.000000000000000000 ) ;
#42 = CYLINDRICAL_SURFACE ( 'NONE', #40, 3.000000000000000000 ) ;
#43 = FACE_OUTER_BOUND ( 'NONE', #72, .T. ) ;
#44 = DIRECTION ( 'NONE',  ( 1.000000000000000000, 0.0000000000000000000, 0.0000000000000000000 ) ) ;
#45 = DIRECTION ( 'NONE',  ( 0.0000000000000000000, 0.0000000000000000000, 1.000000000000000000 ) ) ;
#46 = CARTESIAN_POINT ( 'NONE',  ( 0.0000000000000000000, 0.0000000000000000000, -2.999999999999997300 ) ) ;
#47 = AXIS2_PLACEMENT_3D ( 'NONE', #46, #45, #44 ) ;
#48 = CIRCLE ( 'NONE', #47, 3.000000000000000000 ) ;
#49 = DIRECTION ( 'NONE',  ( 1.000000000000000000, 0.0000000000000000000, 0.0000000000000000000 ) ) ;
#50 = DIRECTION ( 'NONE',  ( 0.0000000000000000000, 0.0000000000000000000, 1.000000000000000000 ) ) ;
#51 = CARTESIAN_POINT ( 'NONE',  ( 0.0000000000000000000, 0.0000000000000000000, -2.999999999999997300 ) ) ;
#52 = AXIS2_PLACEMENT_3D ( 'NONE', #51, #50, #49 ) ;
#53 = PLANE ( 'NONE',  #52 ) ;
#54 = DIRECTION ( 'NONE',  ( 1.000000000000000000, 0.0000000000000000000, 0.0000000000000000000 ) ) ;
#55 = DIRECTION ( 'NONE',  ( 0.0000000000000000000, 0.0000000000000000000, 1.000000000000000000 ) ) ;
#56 = CARTESIAN_POINT ( 'NONE',  ( 0.0000000000000000000, 0.0000000000000000000, -0.2282203148539236300 ) ) ;
#57 = AXIS2_PLACEMENT_3D ( 'NONE', #56, #55, #54 ) ;
#58 = CIRCLE ( 'NONE', #57, 0.6358911364377841700 ) ;
#59 = FACE_OUTER_BOUND ( 'NONE', #67, .T. ) ;
#60 = ORIENTED_EDGE ( 'NONE', *, *, #61, .T. ) ;
#61 = EDGE_CURVE ( 'NONE', #203, #96, #58, .T. ) ;
#62 = ORIENTED_EDGE ( 'NONE', *, *, #98, .F. ) ;
#63 = ORIENTED_EDGE ( 'NONE', *, *, #233, .T. ) ;
#64 = ORIENTED_EDGE ( 'NONE', *, *, #93, .T. ) ;
#65 = ORIENTED_EDGE ( 'NONE', *, *, #101, .T. ) ;
#66 = ADVANCED_FACE ( 'NONE', ( #59 ), #53, .F. ) ;
#67 = EDGE_LOOP ( 'NONE', ( #68, #70 ) ) ;
#68 = ORIENTED_EDGE ( 'NONE', *, *, #69, .F. ) ;
#69 = EDGE_CURVE ( 'NONE', #133, #130, #48, .T. ) ;
#70 = ORIENTED_EDGE ( 'NONE', *, *, #132, .F. ) ;
#71 = ADVANCED_FACE ( 'NONE', ( #43 ), #42, .F. ) ;
#72 = EDGE_LOOP ( 'NONE', ( #73, #74, #76, #77 ) ) ;
#73 = ORIENTED_EDGE ( 'NONE', *, *, #129, .F. ) ;
#74 = ORIENTED_EDGE ( 'NONE', *, *, #75, .F. ) ;
#75 = EDGE_CURVE ( 'NONE', #127, #126, #41, .T. ) ;
#76 = ORIENTED_EDGE ( 'NONE', *, *, #135, .T. ) ;
#77 = ORIENTED_EDGE ( 'NONE', *, *, #69, .T. ) ;
#78 = ADVANCED_FACE ( 'NONE', ( #198, #197 ), #196, .F. ) ;
#79 = EDGE_LOOP ( 'NONE', ( #204, #205 ) ) ;
#80 = ORIENTED_EDGE ( 'NONE', *, *, #217, .T. ) ;
#81 = EDGE_LOOP ( 'NONE', ( #223, #224, #226, #227 ) ) ;
#82 = ORIENTED_EDGE ( 'NONE', *, *, #88, .F. ) ;
#83 = VERTEX_POINT ( 'NONE', #191 ) ;
#84 = ORIENTED_EDGE ( 'NONE', *, *, #104, .F. ) ;
#85 = ADVANCED_FACE ( 'NONE', ( #190 ), #189, .T. ) ;
#86 = EDGE_LOOP ( 'NONE', ( #219, #80, #218, #220 ) ) ;
#87 = EDGE_CURVE ( 'NONE', #91, #83, #184, .T. ) ;
#88 = EDGE_CURVE ( 'NONE', #203, #83, #179, .T. ) ;
#89 = ORIENTED_EDGE ( 'NONE', *, *, #87, .T. ) ;
#90 = VERTEX_POINT ( 'NONE', #175 ) ;
#91 = VERTEX_POINT ( 'NONE', #174 ) ;
#92 = ORIENTED_EDGE ( 'NONE', *, *, #93, .F. ) ;
#93 = EDGE_CURVE ( 'NONE', #90, #102, #172, .T. ) ;
#94 = EDGE_CURVE ( 'NONE', #90, #91, #167, .T. ) ;
#95 = ORIENTED_EDGE ( 'NONE', *, *, #94, .T. ) ;
#96 = VERTEX_POINT ( 'NONE', #164 ) ;
#97 = ORIENTED_EDGE ( 'NONE', *, *, #98, .T. ) ;
#98 = EDGE_CURVE ( 'NONE', #96, #99, #163, .T. ) ;
#99 = VERTEX_POINT ( 'NONE', #158 ) ;
#100 = ORIENTED_EDGE ( 'NONE', *, *, #101, .F. ) ;
#101 = EDGE_CURVE ( 'NONE', #102, #99, #157, .T. ) ;
#102 = VERTEX_POINT ( 'NONE', #152 ) ;
#103 = ORIENTED_EDGE ( 'NONE', *, *, #104, .T. ) ;
#104 = EDGE_CURVE ( 'NONE', #102, #203, #150, .T. ) ;
#105 = ADVANCED_FACE ( 'NONE', ( #151 ), #143, .T. ) ;
#106 = EDGE_LOOP ( 'NONE', ( #92, #95, #89, #82, #84 ) ) ;
#107 = ORIENTED_EDGE ( 'NONE', *, *, #108, .T. ) ;
#108 = EDGE_CURVE ( 'NONE', #109, #110, #139, .T. ) ;
#109 = VERTEX_POINT ( 'NONE', #34 ) ;
#110 = VERTEX_POINT ( 'NONE', #33 ) ;
#111 = ORIENTED_EDGE ( 'NONE', *, *, #112, .T. ) ;
#112 = EDGE_CURVE ( 'NONE', #110, #113, #32, .T. ) ;
#113 = VERTEX_POINT ( 'NONE', #28 ) ;
#114 = ORIENTED_EDGE ( 'NONE', *, *, #115, .F. ) ;
#115 = EDGE_CURVE ( 'NONE', #116, #113, #27, .T. ) ;
#116 = VERTEX_POINT ( 'NONE', #22 ) ;
#117 = ORIENTED_EDGE ( 'NONE', *, *, #118, .F. ) ;
#118 = EDGE_CURVE ( 'NONE', #109, #116, #21, .T. ) ;
#119 = ADVANCED_FACE ( 'NONE', ( #17 ), #15, .F. ) ;
#120 = EDGE_LOOP ( 'NONE', ( #121, #128, #131, #134 ) ) ;
#121 = ORIENTED_EDGE ( 'NONE', *, *, #125, .F. ) ;
#122 = MANIFOLD_SOLID_BREP ( 'NONE', #216 ) ;
#123 = ADVANCED_FACE ( 'NONE', ( #10 ), #9, .T. ) ;
#124 = EDGE_LOOP ( 'NONE', ( #107, #111, #114, #117 ) ) ;
#125 = EDGE_CURVE ( 'NONE', #126, #127, #5, .T. ) ;
#126 = VERTEX_POINT ( 'NONE', #328 ) ;
#127 = VERTEX_POINT ( 'NONE', #239 ) ;
#128 = ORIENTED_EDGE ( 'NONE', *, *, #129, .T. ) ;
#129 = EDGE_CURVE ( 'NONE', #126, #130, #306, .T. ) ;
#130 = VERTEX_POINT ( 'NONE', #318 ) ;
#131 = ORIENTED_EDGE ( 'NONE', *, *, #132, .T. ) ;
#132 = EDGE_CURVE ( 'NONE', #130, #133, #310, .T. ) ;
#133 = VERTEX_POINT ( 'NONE', #309 ) ;
#134 = ORIENTED_EDGE ( 'NONE', *, *, #135, .F. ) ;
#135 = EDGE_CURVE ( 'NONE', #127, #133, #277, .T. ) ;
#136 = DIRECTION ( 'NONE',  ( 1.000000000000000000, 0.0000000000000000000, 0.0000000000000000000 ) ) ;
#137 = DIRECTION ( 'NONE',  ( 0.0000000000000000000, 0.0000000000000000000, 1.000000000000000000 ) ) ;
#138 = AXIS2_PLACEMENT_3D ( 'NONE', #144, #137, #136 ) ;
#139 = CIRCLE ( 'NONE', #138, 4.000000000000000000 ) ;
#140 = DIRECTION ( 'NONE',  ( -1.000000000000000000, 0.0000000000000000000, 0.0000000000000000000 ) ) ;
#141 = DIRECTION ( 'NONE',  ( 0.0000000000000000000, 0.0000000000000000000, -1.000000000000000000 ) ) ;
#142 = AXIS2_PLACEMENT_3D ( 'NONE', #145, #141, #140 ) ;
#143 = CONICAL_SURFACE ( 'NONE', #142, 3.271780040096215400, 0.8816351490333748100 ) ;
#144 = CARTESIAN_POINT ( 'NONE',  ( 0.0000000000000000000, 0.0000000000000000000, -43.00000000000000000 ) ) ;
#145 = CARTESIAN_POINT ( 'NONE',  ( 0.0000000000000000000, 0.0000000000000000000, -2.400000008013453800 ) ) ;
#146 = DIRECTION ( 'NONE',  ( 1.000000000000000000, 0.0000000000000000000, 0.0000000000000000000 ) ) ;
#147 = DIRECTION ( 'NONE',  ( 0.0000000000000000000, 0.0000000000000000000, 1.000000000000000000 ) ) ;
#148 = CARTESIAN_POINT ( 'NONE',  ( 0.0000000000000000000, 0.0000000000000000000, -0.2282203148539236300 ) ) ;
#149 = AXIS2_PLACEMENT_3D ( 'NONE', #148, #147, #146 ) ;
#150 = CIRCLE ( 'NONE', #149, 0.6358911364377841700 ) ;
#151 = FACE_OUTER_BOUND ( 'NONE', #106, .T. ) ;
#152 = CARTESIAN_POINT ( 'NONE',  ( 0.0000000000000000000, 0.6358911364377840500, -0.2282203148539236100 ) ) ;
#153 = DIRECTION ( 'NONE',  ( 0.0000000000000000000, 0.0000000000000000000, -1.000000000000000000 ) ) ;
#154 = DIRECTION ( 'NONE',  ( 1.000000000000000000, 0.0000000000000000000, 0.0000000000000000000 ) ) ;
#155 = CARTESIAN_POINT ( 'NONE',  ( 0.0000000000000000000, 1.116389674389768600E-006, -0.9999999999993768300 ) ) ;
#156 = AXIS2_PLACEMENT_3D ( 'NONE', #155, #154, #153 ) ;
#157 = CIRCLE ( 'NONE', #156, 1.000000000000000000 ) ;
#158 = CARTESIAN_POINT ( 'NONE',  ( 0.0000000000000000000, 1.116389674451000800E-006, 6.231994087446679500E-013 ) ) ;
#159 = DIRECTION ( 'NONE',  ( -1.224646799147353200E-016, -1.000000000000000000, 0.0000000000000000000 ) ) ;
#160 = DIRECTION ( 'NONE',  ( -1.000000000000000000, 1.224646799147353200E-016, 0.0000000000000000000 ) ) ;
#161 = CARTESIAN_POINT ( 'NONE',  ( 0.0000000000000000000, 1.116389674389768600E-006, -0.9999999999993768300 ) ) ;
#162 = AXIS2_PLACEMENT_3D ( 'NONE', #161, #160, #159 ) ;
#163 = CIRCLE ( 'NONE', #162, 1.000000000000000000 ) ;
#164 = CARTESIAN_POINT ( 'NONE',  ( -7.787420448447050200E-017, -0.6358900200481096800, -0.2282203148539236100 ) ) ;
#165 = DIRECTION ( 'NONE',  ( 0.7717796851454528100, 9.451575210603308300E-017, -0.6358900200481099100 ) ) ;
#166 = VECTOR ( 'NONE', #165, 1000.000000000000000 ) ;
#167 = LINE ( 'NONE', #173, #166 ) ;
#168 = DIRECTION ( 'NONE',  ( 1.000000000000000000, 0.0000000000000000000, 0.0000000000000000000 ) ) ;
#169 = DIRECTION ( 'NONE',  ( 0.0000000000000000000, 0.0000000000000000000, 1.000000000000000000 ) ) ;
#170 = CARTESIAN_POINT ( 'NONE',  ( 0.0000000000000000000, 0.0000000000000000000, -0.2282203148539236300 ) ) ;
#171 = AXIS2_PLACEMENT_3D ( 'NONE', #170, #169, #168 ) ;
#172 = CIRCLE ( 'NONE', #171, 0.6358911364377841700 ) ;
#173 = CARTESIAN_POINT ( 'NONE',  ( 3.271780040096215400, 4.006774953618028600E-016, -2.400000008013453800 ) ) ;
#174 = CARTESIAN_POINT ( 'NONE',  ( 3.271780040096215400, 0.0000000000000000000, -2.400000008013453800 ) ) ;
#175 = CARTESIAN_POINT ( 'NONE',  ( 0.6358911364377841700, 2.392758499231366700E-016, -0.2282203148539236300 ) ) ;
#176 = DIRECTION ( 'NONE',  ( -0.7717796851454528100, 0.0000000000000000000, -0.6358900200481099100 ) ) ;
#177 = VECTOR ( 'NONE', #176, 1000.000000000000000 ) ;
#178 = CARTESIAN_POINT ( 'NONE',  ( -3.271780040096215400, 0.0000000000000000000, -2.400000008013453800 ) ) ;
#179 = LINE ( 'NONE', #178, #177 ) ;
#180 = DIRECTION ( 'NONE',  ( 1.000000000000000000, 0.0000000000000000000, 0.0000000000000000000 ) ) ;
#181 = DIRECTION ( 'NONE',  ( 0.0000000000000000000, 0.0000000000000000000, 1.000000000000000000 ) ) ;
#182 = CARTESIAN_POINT ( 'NONE',  ( 0.0000000000000000000, 0.0000000000000000000, -2.400000008013453800 ) ) ;
#183 = AXIS2_PLACEMENT_3D ( 'NONE', #182, #181, #180 ) ;
#184 = CIRCLE ( 'NONE', #183, 3.271780040096215400 ) ;
#185 = DIRECTION ( 'NONE',  ( 1.000000000000000000, 0.0000000000000000000, 0.0000000000000000000 ) ) ;
#186 = DIRECTION ( 'NONE',  ( 0.0000000000000000000, 0.0000000000000000000, 1.000000000000000000 ) ) ;
#187 = CARTESIAN_POINT ( 'NONE',  ( 0.0000000000000000000, 0.0000000000000000000, -3.943559378304359400 ) ) ;
#188 = AXIS2_PLACEMENT_3D ( 'NONE', #187, #186, #185 ) ;
#189 = TOROIDAL_SURFACE ( 'NONE', #188, 1.999999999999995300, 2.000000000000000000 ) ;
#190 = FACE_OUTER_BOUND ( 'NONE', #86, .T. ) ;
#191 = CARTESIAN_POINT ( 'NONE',  ( -3.271780040096215400, 4.452681075103717300E-016, -2.400000008013453800 ) ) ;
#192 = DIRECTION ( 'NONE',  ( 1.000000000000000000, 0.0000000000000000000, 0.0000000000000000000 ) ) ;
#193 = DIRECTION ( 'NONE',  ( 0.0000000000000000000, 0.0000000000000000000, 1.000000000000000000 ) ) ;
#194 = CARTESIAN_POINT ( 'NONE',  ( 0.0000000000000000000, 3.000000000000000000, -43.00000000000000000 ) ) ;
#195 = AXIS2_PLACEMENT_3D ( 'NONE', #194, #193, #192 ) ;
#196 = PLANE ( 'NONE',  #195 ) ;
#197 = FACE_BOUND ( 'NONE', #207, .T. ) ;
#198 = FACE_OUTER_BOUND ( 'NONE', #79, .T. ) ;
#199 = DIRECTION ( 'NONE',  ( 1.000000000000000000, 0.0000000000000000000, 0.0000000000000000000 ) ) ;
#200 = DIRECTION ( 'NONE',  ( 0.0000000000000000000, 0.0000000000000000000, 1.000000000000000000 ) ) ;
#201 = ADVANCED_FACE ( 'NONE', ( #315 ), #326, .T. ) ;
#202 = EDGE_LOOP ( 'NONE', ( #60, #97, #100, #103 ) ) ;
#203 = VERTEX_POINT ( 'NONE', #334 ) ;
#204 = ORIENTED_EDGE ( 'NONE', *, *, #108, .F. ) ;
#205 = ORIENTED_EDGE ( 'NONE', *, *, #206, .F. ) ;
#206 = EDGE_CURVE ( 'NONE', #110, #109, #313, .T. ) ;
#207 = EDGE_LOOP ( 'NONE', ( #208, #209 ) ) ;
#208 = ORIENTED_EDGE ( 'NONE', *, *, #75, .T. ) ;
#209 = ORIENTED_EDGE ( 'NONE', *, *, #125, .T. ) ;
#210 = ADVANCED_FACE ( 'NONE', ( #314 ), #297, .T. ) ;
#211 = EDGE_LOOP ( 'NONE', ( #212, #213, #214, #215 ) ) ;
#212 = ORIENTED_EDGE ( 'NONE', *, *, #112, .F. ) ;
#213 = ORIENTED_EDGE ( 'NONE', *, *, #206, .T. ) ;
#214 = ORIENTED_EDGE ( 'NONE', *, *, #118, .T. ) ;
#215 = ORIENTED_EDGE ( 'NONE', *, *, #225, .F. ) ;
#216 = CLOSED_SHELL ( 'NONE', ( #210, #123, #222, #78, #85, #229, #119, #71, #105, #201, #237, #66 ) ) ;
#217 = EDGE_CURVE ( 'NONE', #113, #83, #323, .T. ) ;
#218 = ORIENTED_EDGE ( 'NONE', *, *, #87, .F. ) ;
#219 = ORIENTED_EDGE ( 'NONE', *, *, #115, .T. ) ;
#220 = ORIENTED_EDGE ( 'NONE', *, *, #221, .F. ) ;
#221 = EDGE_CURVE ( 'NONE', #116, #91, #285, .T. ) ;
#222 = ADVANCED_FACE ( 'NONE', ( #280 ), #279, .T. ) ;
#223 = ORIENTED_EDGE ( 'NONE', *, *, #217, .F. ) ;
#224 = ORIENTED_EDGE ( 'NONE', *, *, #225, .T. ) ;
#225 = EDGE_CURVE ( 'NONE', #113, #116, #300, .T. ) ;
#226 = ORIENTED_EDGE ( 'NONE', *, *, #221, .T. ) ;
#227 = ORIENTED_EDGE ( 'NONE', *, *, #228, .F. ) ;
#228 = EDGE_CURVE ( 'NONE', #83, #91, #294, .T. ) ;
#229 = ADVANCED_FACE ( 'NONE', ( #289 ), #274, .T. ) ;
#230 = EDGE_LOOP ( 'NONE', ( #231, #232, #234, #235, #236 ) ) ;
#231 = ORIENTED_EDGE ( 'NONE', *, *, #94, .F. ) ;
#232 = ORIENTED_EDGE ( 'NONE', *, *, #233, .F. ) ;
#233 = EDGE_CURVE ( 'NONE', #96, #90, #269, .T. ) ;
#234 = ORIENTED_EDGE ( 'NONE', *, *, #61, .F. ) ;
#235 = ORIENTED_EDGE ( 'NONE', *, *, #88, .T. ) ;
#236 = ORIENTED_EDGE ( 'NONE', *, *, #228, .T. ) ;
#237 = ADVANCED_FACE ( 'NONE', ( #265 ), #263, .T. ) ;
#238 = EDGE_LOOP ( 'NONE', ( #62, #63, #64, #65 ) ) ;
#239 = CARTESIAN_POINT ( 'NONE',  ( 3.000000000000000000, 0.0000000000000000000, -43.00000000000000000 ) ) ;
#240 = DIRECTION ( 'NONE',  ( 0.0000000000000000000, 0.0000000000000000000, 1.000000000000000000 ) ) ;
#241 = CC_DESIGN_PERSON_AND_ORGANIZATION_ASSIGNMENT ( #243, #242, ( #251 ) ) ;
#242 = PERSON_AND_ORGANIZATION_ROLE ( 'design_owner' ) ;
#243 = PERSON_AND_ORGANIZATION ( #245, #244 ) ;
#244 = ORGANIZATION ( 'UNSPECIFIED', 'UNSPECIFIED', '' ) ;
#245 = PERSON ( 'UNSPECIFIED', 'UNSPECIFIED', 'UNSPECIFIED', ('UNSPECIFIED'), ('UNSPECIFIED'), ('UNSPECIFIED') ) ;
#246 = MECHANICAL_CONTEXT ( 'NONE', #252, 'mechanical' ) ;
#247 = APPLICATION_PROTOCOL_DEFINITION ( 'international standard', 'config_control_design', 1994, #252 ) ;
#248 = DIRECTION ( 'NONE',  ( 1.000000000000000000, 0.0000000000000000000, 0.0000000000000000000 ) ) ;
#249 = CARTESIAN_POINT ( 'NONE',  ( 0.0000000000000000000, 0.0000000000000000000, 0.0000000000000000000 ) ) ;
#250 = AXIS2_PLACEMENT_3D ( 'NONE', #249, #259, #248 ) ;
#251 = PRODUCT ( 'AC-25-G-6', 'AC-25-G-6', '', ( #246 ) ) ;
#252 = APPLICATION_CONTEXT ( 'configuration controlled 3d designs of mechanical parts and assemblies' ) ;
#253 = ADVANCED_BREP_SHAPE_REPRESENTATION ( 'AC-25-G-6', ( #122, #250 ), #254 ) ;
#254 =( GEOMETRIC_REPRESENTATION_CONTEXT ( 3 ) GLOBAL_UNCERTAINTY_ASSIGNED_CONTEXT ( ( #255 ) ) GLOBAL_UNIT_ASSIGNED_CONTEXT ( ( #258, #257, #256 ) ) REPRESENTATION_CONTEXT ( 'NONE', 'WORKASPACE' ) );
#255 = UNCERTAINTY_MEASURE_WITH_UNIT (LENGTH_MEASURE( 1.000000000000000100E-005 ), #258, 'distance_accuracy_value', 'NONE');
#256 =( NAMED_UNIT ( * ) SI_UNIT ( $, .STERADIAN. ) SOLID_ANGLE_UNIT ( ) );
#257 =( NAMED_UNIT ( * ) PLANE_ANGLE_UNIT ( ) SI_UNIT ( $, .RADIAN. ) );
#258 =( LENGTH_UNIT ( ) NAMED_UNIT ( * ) SI_UNIT ( .MILLI., .METRE. ) );
#259 = DIRECTION ( 'NONE',  ( 0.0000000000000000000, 0.0000000000000000000, 1.000000000000000000 ) ) ;
#260 = DIRECTION ( 'NONE',  ( 0.0000000000000000000, 1.000000000000000000, 0.0000000000000000000 ) ) ;
#261 = DIRECTION ( 'NONE',  ( -1.000000000000000000, 0.0000000000000000000, 0.0000000000000000000 ) ) ;
#262 = AXIS2_PLACEMENT_3D ( 'NONE', #264, #261, #260 ) ;
#263 = SPHERICAL_SURFACE ( 'NONE', #262, 1.000000000000000000 ) ;
#264 = CARTESIAN_POINT ( 'NONE',  ( 0.0000000000000000000, 1.116389674389768600E-006, -0.9999999999993768300 ) ) ;
#265 = FACE_OUTER_BOUND ( 'NONE', #238, .T. ) ;
#266 = DIRECTION ( 'NONE',  ( 1.000000000000000000, 0.0000000000000000000, 0.0000000000000000000 ) ) ;
#267 = DIRECTION ( 'NONE',  ( 0.0000000000000000000, 0.0000000000000000000, 1.000000000000000000 ) ) ;
#268 = AXIS2_PLACEMENT_3D ( 'NONE', #275, #267, #266 ) ;
#269 = CIRCLE ( 'NONE', #268, 0.6358911364377841700 ) ;
#270 = DIRECTION ( 'NONE',  ( -1.000000000000000000, 0.0000000000000000000, 0.0000000000000000000 ) ) ;
#271 = DIRECTION ( 'NONE',  ( 0.0000000000000000000, 0.0000000000000000000, -1.000000000000000000 ) ) ;
#272 = CARTESIAN_POINT ( 'NONE',  ( 0.0000000000000000000, 0.0000000000000000000, -2.400000008013453800 ) ) ;
#273 = AXIS2_PLACEMENT_3D ( 'NONE', #272, #271, #270 ) ;
#274 = CONICAL_SURFACE ( 'NONE', #273, 3.271780040096215400, 0.8816351490333748100 ) ;
#275 = CARTESIAN_POINT ( 'NONE',  ( 0.0000000000000000000, 0.0000000000000000000, -0.2282203148539236300 ) ) ;
#276 = CARTESIAN_POINT ( 'NONE',  ( 3.000000000000000000, 0.0000000000000000000, 5.167394680926404000 ) ) ;
#277 = LINE ( 'NONE', #276, #317 ) ;
#278 = CARTESIAN_POINT ( 'NONE',  ( 0.0000000000000000000, 1.116389674389768600E-006, -0.9999999999993768300 ) ) ;
#279 = TOROIDAL_SURFACE ( 'NONE', #304, 1.999999999999995300, 2.000000000000000000 ) ;
#280 = FACE_OUTER_BOUND ( 'NONE', #81, .T. ) ;
#281 = DIRECTION ( 'NONE',  ( 0.0000000000000000000, 0.0000000000000000000, -1.000000000000000000 ) ) ;
#282 = DIRECTION ( 'NONE',  ( 0.0000000000000000000, -1.000000000000000000, 0.0000000000000000000 ) ) ;
#283 = CARTESIAN_POINT ( 'NONE',  ( 1.999999999999995300, 0.0000000000000000000, -3.943559378304359400 ) ) ;
#284 = AXIS2_PLACEMENT_3D ( 'NONE', #283, #282, #281 ) ;
#285 = CIRCLE ( 'NONE', #284, 2.000000000000000000 ) ;
#286 = DIRECTION ( 'NONE',  ( 0.0000000000000000000, 1.000000000000000000, 0.0000000000000000000 ) ) ;
#287 = DIRECTION ( 'NONE',  ( -1.000000000000000000, 0.0000000000000000000, 0.0000000000000000000 ) ) ;
#288 = AXIS2_PLACEMENT_3D ( 'NONE', #278, #287, #286 ) ;
#289 = FACE_OUTER_BOUND ( 'NONE', #230, .T. ) ;
#290 = DIRECTION ( 'NONE',  ( 1.000000000000000000, 0.0000000000000000000, 0.0000000000000000000 ) ) ;
#291 = DIRECTION ( 'NONE',  ( 0.0000000000000000000, 0.0000000000000000000, 1.000000000000000000 ) ) ;
#292 = CARTESIAN_POINT ( 'NONE',  ( 0.0000000000000000000, 0.0000000000000000000, -2.400000008013453800 ) ) ;
#293 = AXIS2_PLACEMENT_3D ( 'NONE', #292, #291, #290 ) ;
#294 = CIRCLE ( 'NONE', #293, 3.271780040096215400 ) ;
#295 = DIRECTION ( 'NONE',  ( 1.000000000000000000, 0.0000000000000000000, 0.0000000000000000000 ) ) ;
#296 = AXIS2_PLACEMENT_3D ( 'NONE', #329, #325, #324 ) ;
#297 = CYLINDRICAL_SURFACE ( 'NONE', #296, 3.999999999999997300 ) ;
#298 = DIRECTION ( 'NONE',  ( 0.0000000000000000000, 0.0000000000000000000, 1.000000000000000000 ) ) ;
#299 = AXIS2_PLACEMENT_3D ( 'NONE', #305, #298, #295 ) ;
#300 = CIRCLE ( 'NONE', #299, 3.999999999999994700 ) ;
#301 = DIRECTION ( 'NONE',  ( 1.000000000000000000, 0.0000000000000000000, 0.0000000000000000000 ) ) ;
#302 = DIRECTION ( 'NONE',  ( 0.0000000000000000000, 0.0000000000000000000, 1.000000000000000000 ) ) ;
#303 = CARTESIAN_POINT ( 'NONE',  ( 0.0000000000000000000, 0.0000000000000000000, -3.943559378304359400 ) ) ;
#304 = AXIS2_PLACEMENT_3D ( 'NONE', #303, #302, #301 ) ;
#305 = CARTESIAN_POINT ( 'NONE',  ( 0.0000000000000000000, 0.0000000000000000000, -3.943559378304359400 ) ) ;
#306 = LINE ( 'NONE', #335, #327 ) ;
#307 = DIRECTION ( 'NONE',  ( 1.000000000000000000, 0.0000000000000000000, 0.0000000000000000000 ) ) ;
#308 = DIRECTION ( 'NONE',  ( 0.0000000000000000000, 0.0000000000000000000, 1.000000000000000000 ) ) ;
#309 = CARTESIAN_POINT ( 'NONE',  ( 3.000000000000000000, 0.0000000000000000000, -2.999999999999997300 ) ) ;
#310 = CIRCLE ( 'NONE', #333, 3.000000000000000000 ) ;
#311 = CARTESIAN_POINT ( 'NONE',  ( 0.0000000000000000000, 0.0000000000000000000, -43.00000000000000000 ) ) ;
#312 = AXIS2_PLACEMENT_3D ( 'NONE', #311, #331, #330 ) ;
#313 = CIRCLE ( 'NONE', #312, 4.000000000000000000 ) ;
#314 = FACE_OUTER_BOUND ( 'NONE', #211, .T. ) ;
#315 = FACE_OUTER_BOUND ( 'NONE', #202, .T. ) ;
#316 = DIRECTION ( 'NONE',  ( 0.0000000000000000000, 0.0000000000000000000, 1.000000000000000000 ) ) ;
#317 = VECTOR ( 'NONE', #316, 1000.000000000000000 ) ;
#318 = CARTESIAN_POINT ( 'NONE',  ( -3.000000000000000000, 3.673940397442059900E-016, -2.999999999999997300 ) ) ;
#319 = DIRECTION ( 'NONE',  ( -1.000000000000000000, 1.224646799147353500E-016, 0.0000000000000000000 ) ) ;
#320 = DIRECTION ( 'NONE',  ( 1.224646799147353200E-016, 1.000000000000000000, 0.0000000000000000000 ) ) ;
#321 = CARTESIAN_POINT ( 'NONE',  ( -1.999999999999995300, 2.449293598294700500E-016, -3.943559378304359400 ) ) ;
#322 = AXIS2_PLACEMENT_3D ( 'NONE', #321, #320, #319 ) ;
#323 = CIRCLE ( 'NONE', #322, 1.999999999999999600 ) ;
#324 = DIRECTION ( 'NONE',  ( 1.000000000000000000, 0.0000000000000000000, 0.0000000000000000000 ) ) ;
#325 = DIRECTION ( 'NONE',  ( 0.0000000000000000000, 0.0000000000000000000, 1.000000000000000000 ) ) ;
#326 = SPHERICAL_SURFACE ( 'NONE', #288, 1.000000000000000000 ) ;
#327 = VECTOR ( 'NONE', #240, 1000.000000000000000 ) ;
#328 = CARTESIAN_POINT ( 'NONE',  ( -3.000000000000000000, 3.673940397442059900E-016, -43.00000000000000000 ) ) ;
#329 = CARTESIAN_POINT ( 'NONE',  ( 0.0000000000000000000, 0.0000000000000000000, 5.167394680926404000 ) ) ;
#330 = DIRECTION ( 'NONE',  ( 1.000000000000000000, 0.0000000000000000000, 0.0000000000000000000 ) ) ;
#331 = DIRECTION ( 'NONE',  ( 0.0000000000000000000, 0.0000000000000000000, 1.000000000000000000 ) ) ;
#332 = CARTESIAN_POINT ( 'NONE',  ( 0.0000000000000000000, 0.0000000000000000000, -2.999999999999997300 ) ) ;
#333 = AXIS2_PLACEMENT_3D ( 'NONE', #332, #308, #307 ) ;
#334 = CARTESIAN_POINT ( 'NONE',  ( -0.6358911364377841700, 0.0000000000000000000, -0.2282203148539236300 ) ) ;
#335 = CARTESIAN_POINT ( 'NONE',  ( -3.000000000000000000, 3.673940397442059900E-016, 5.167394680926404000 ) ) ;
#336 = APPROVAL_DATE_TIME ( #337, #387 ) ;
#337 = DATE_AND_TIME ( #338, #339 ) ;
#338 = CALENDAR_DATE ( 2006, 8, 6 ) ;
#339 = LOCAL_TIME ( 11, 4, 12.00000000000000000, #340 ) ;
#340 = COORDINATED_UNIVERSAL_TIME_OFFSET ( 9, 0, .AHEAD. ) ;
#341 = APPROVAL_DATE_TIME ( #342, #348 ) ;
#342 = DATE_AND_TIME ( #343, #344 ) ;
#343 = CALENDAR_DATE ( 2006, 8, 6 ) ;
#344 = LOCAL_TIME ( 11, 4, 12.00000000000000000, #345 ) ;
#345 = COORDINATED_UNIVERSAL_TIME_OFFSET ( 9, 0, .AHEAD. ) ;
#346 = APPROVAL_PERSON_ORGANIZATION ( #350, #348, #347 ) ;
#347 = APPROVAL_ROLE ( '' ) ;
#348 = APPROVAL ( #349, 'UNSPECIFIED' ) ;
#349 = APPROVAL_STATUS ( 'not_yet_approved' ) ;
#350 = PERSON_AND_ORGANIZATION ( #245, #244 ) ;
#351 = CALENDAR_DATE ( 2006, 8, 6 ) ;
#352 = LOCAL_TIME ( 11, 4, 12.00000000000000000, #353 ) ;
#353 = COORDINATED_UNIVERSAL_TIME_OFFSET ( 9, 0, .AHEAD. ) ;
#354 = CC_DESIGN_PERSON_AND_ORGANIZATION_ASSIGNMENT ( #383, #382, ( #355 ) ) ;
#355 = PRODUCT_DEFINITION ( 'UNKNOWN', '', #400, #392 ) ;
#356 = SHAPE_DEFINITION_REPRESENTATION ( #357, #253 ) ;
#357 = PRODUCT_DEFINITION_SHAPE ( 'NONE', 'NONE',  #355 ) ;
#358 = PRODUCT_RELATED_PRODUCT_CATEGORY ( 'detail', '', ( #251 ) ) ;
#359 = CC_DESIGN_SECURITY_CLASSIFICATION ( #380, ( #400 ) ) ;
#360 = CC_DESIGN_APPROVAL ( #368, ( #380 ) ) ;
#361 = APPROVAL_DATE_TIME ( #362, #368 ) ;
#362 = DATE_AND_TIME ( #363, #364 ) ;
#363 = CALENDAR_DATE ( 2006, 8, 6 ) ;
#364 = LOCAL_TIME ( 11, 4, 12.00000000000000000, #365 ) ;
#365 = COORDINATED_UNIVERSAL_TIME_OFFSET ( 9, 0, .AHEAD. ) ;
#366 = APPROVAL_PERSON_ORGANIZATION ( #370, #368, #367 ) ;
#367 = APPROVAL_ROLE ( '' ) ;
#368 = APPROVAL ( #369, 'UNSPECIFIED' ) ;
#369 = APPROVAL_STATUS ( 'not_yet_approved' ) ;
#370 = PERSON_AND_ORGANIZATION ( #245, #244 ) ;
#371 = CC_DESIGN_DATE_AND_TIME_ASSIGNMENT ( #373, #372, ( #380 ) ) ;
#372 = DATE_TIME_ROLE ( 'classification_date' ) ;
#373 = DATE_AND_TIME ( #374, #375 ) ;
#374 = CALENDAR_DATE ( 2006, 8, 6 ) ;
#375 = LOCAL_TIME ( 11, 4, 12.00000000000000000, #376 ) ;
#376 = COORDINATED_UNIVERSAL_TIME_OFFSET ( 9, 0, .AHEAD. ) ;
#377 = CC_DESIGN_PERSON_AND_ORGANIZATION_ASSIGNMENT ( #379, #378, ( #380 ) ) ;
#378 = PERSON_AND_ORGANIZATION_ROLE ( 'classification_officer' ) ;
#379 = PERSON_AND_ORGANIZATION ( #245, #244 ) ;
#380 = SECURITY_CLASSIFICATION ( '', '', #381 ) ;
#381 = SECURITY_CLASSIFICATION_LEVEL ( 'unclassified' ) ;
#382 = PERSON_AND_ORGANIZATION_ROLE ( 'creator' ) ;
#383 = PERSON_AND_ORGANIZATION ( #245, #244 ) ;
#384 = CC_DESIGN_APPROVAL ( #387, ( #355 ) ) ;
#385 = APPROVAL_PERSON_ORGANIZATION ( #389, #387, #386 ) ;
#386 = APPROVAL_ROLE ( '' ) ;
#387 = APPROVAL ( #388, 'UNSPECIFIED' ) ;
#388 = APPROVAL_STATUS ( 'not_yet_approved' ) ;
#389 = PERSON_AND_ORGANIZATION ( #245, #244 ) ;
#390 = APPLICATION_PROTOCOL_DEFINITION ( 'international standard', 'config_control_design', 1994, #391 ) ;
#391 = APPLICATION_CONTEXT ( 'configuration controlled 3d designs of mechanical parts and assemblies' ) ;
#392 = DESIGN_CONTEXT ( 'detailed design', #391, 'design' ) ;
#393 = CC_DESIGN_PERSON_AND_ORGANIZATION_ASSIGNMENT ( #395, #394, ( #400 ) ) ;
#394 = PERSON_AND_ORGANIZATION_ROLE ( 'design_supplier' ) ;
#395 = PERSON_AND_ORGANIZATION ( #245, #244 ) ;
#396 = CC_DESIGN_PERSON_AND_ORGANIZATION_ASSIGNMENT ( #398, #397, ( #400 ) ) ;
#397 = PERSON_AND_ORGANIZATION_ROLE ( 'creator' ) ;
#398 = PERSON_AND_ORGANIZATION ( #245, #244 ) ;
#399 = CC_DESIGN_APPROVAL ( #348, ( #400 ) ) ;
#400 = PRODUCT_DEFINITION_FORMATION_WITH_SPECIFIED_SOURCE ( 'ANY', '', #251, .NOT_KNOWN. ) ;
#401 = CC_DESIGN_DATE_AND_TIME_ASSIGNMENT ( #403, #402, ( #355 ) ) ;
#402 = DATE_TIME_ROLE ( 'creation_date' ) ;
#403 = DATE_AND_TIME ( #351, #352 ) ;
ENDSEC;
END-ISO-10303-21;
