ISO-10303-21;
HEADER;
FILE_DESCRIPTION (( 'STEP AP203' ),
    '1' );
FILE_NAME ('AC-25-G-10.STEP',
    '2006-06-08T02:06:21',
    ( ' ' ),
    ( ' ' ),
    'SwSTEP 2.0',
    'SolidWorks 2005204',
    '' );
FILE_SCHEMA (( 'CONFIG_CONTROL_DESIGN' ));
ENDSEC;

DATA;
#1 = DIRECTION ( 'NONE',  ( -1.000000000000000000, 0.0000000000000000000, 0.0000000000000000000 ) ) ;
#2 = AXIS2_PLACEMENT_3D ( 'NONE', #4, #3, #1 ) ;
#3 = DIRECTION ( 'NONE',  ( 0.0000000000000000000, 0.0000000000000000000, -1.000000000000000000 ) ) ;
#4 = CARTESIAN_POINT ( 'NONE',  ( 0.0000000000000000000, 0.0000000000000000000, -2.431147370865414500 ) ) ;
#5 = DIRECTION ( 'NONE',  ( 1.000000000000000000, 0.0000000000000000000, 0.0000000000000000000 ) ) ;
#6 = DIRECTION ( 'NONE',  ( 1.000000000000000000, 0.0000000000000000000, 0.0000000000000000000 ) ) ;
#7 = DIRECTION ( 'NONE',  ( 0.0000000000000000000, 0.0000000000000000000, 1.000000000000000000 ) ) ;
#8 = CARTESIAN_POINT ( 'NONE',  ( 0.0000000000000000000, 0.0000000000000000000, -2.431147370865414500 ) ) ;
#9 = AXIS2_PLACEMENT_3D ( 'NONE', #8, #7, #6 ) ;
#10 = CIRCLE ( 'NONE', #9, 4.959165548461510500 ) ;
#11 = FACE_OUTER_BOUND ( 'NONE', #20, .T. ) ;
#12 = ORIENTED_EDGE ( 'NONE', *, *, #112, .T. ) ;
#13 = ORIENTED_EDGE ( 'NONE', *, *, #78, .T. ) ;
#14 = CLOSED_SHELL ( 'NONE', ( #119, #60, #19, #27, #98, #35, #122, #82, #56, #49, #86, #44 ) ) ;
#15 = ORIENTED_EDGE ( 'NONE', *, *, #39, .F. ) ;
#16 = ORIENTED_EDGE ( 'NONE', *, *, #34, .T. ) ;
#17 = ORIENTED_EDGE ( 'NONE', *, *, #18, .F. ) ;
#18 = EDGE_CURVE ( 'NONE', #94, #91, #10, .T. ) ;
#19 = ADVANCED_FACE ( 'NONE', ( #11 ), #176, .T. ) ;
#20 = EDGE_LOOP ( 'NONE', ( #21, #22, #24, #25, #26 ) ) ;
#21 = ORIENTED_EDGE ( 'NONE', *, *, #90, .F. ) ;
#22 = ORIENTED_EDGE ( 'NONE', *, *, #23, .F. ) ;
#23 = EDGE_CURVE ( 'NONE', #116, #65, #129, .T. ) ;
#24 = ORIENTED_EDGE ( 'NONE', *, *, #76, .F. ) ;
#25 = ORIENTED_EDGE ( 'NONE', *, *, #96, .T. ) ;
#26 = ORIENTED_EDGE ( 'NONE', *, *, #18, .T. ) ;
#27 = ADVANCED_FACE ( 'NONE', ( #130 ), #173, .T. ) ;
#28 = EDGE_LOOP ( 'NONE', ( #40, #41, #42, #43 ) ) ;
#29 = EDGE_CURVE ( 'NONE', #62, #118, #187, .T. ) ;
#30 = ORIENTED_EDGE ( 'NONE', *, *, #59, .T. ) ;
#31 = EDGE_CURVE ( 'NONE', #107, #94, #132, .T. ) ;
#32 = ORIENTED_EDGE ( 'NONE', *, *, #93, .F. ) ;
#33 = ORIENTED_EDGE ( 'NONE', *, *, #34, .F. ) ;
#34 = EDGE_CURVE ( 'NONE', #110, #91, #181, .T. ) ;
#35 = ADVANCED_FACE ( 'NONE', ( #182 ), #170, .T. ) ;
#36 = EDGE_LOOP ( 'NONE', ( #37, #38, #16, #17 ) ) ;
#37 = ORIENTED_EDGE ( 'NONE', *, *, #31, .F. ) ;
#38 = ORIENTED_EDGE ( 'NONE', *, *, #39, .T. ) ;
#39 = EDGE_CURVE ( 'NONE', #107, #110, #166, .T. ) ;
#40 = ORIENTED_EDGE ( 'NONE', *, *, #74, .F. ) ;
#41 = ORIENTED_EDGE ( 'NONE', *, *, #23, .T. ) ;
#42 = ORIENTED_EDGE ( 'NONE', *, *, #64, .T. ) ;
#43 = ORIENTED_EDGE ( 'NONE', *, *, #29, .T. ) ;
#44 = ADVANCED_FACE ( 'NONE', ( #161 ), #160, .F. ) ;
#45 = EDGE_LOOP ( 'NONE', ( #46, #48 ) ) ;
#46 = ORIENTED_EDGE ( 'NONE', *, *, #47, .F. ) ;
#47 = EDGE_CURVE ( 'NONE', #125, #99, #155, .T. ) ;
#48 = ORIENTED_EDGE ( 'NONE', *, *, #113, .F. ) ;
#49 = ADVANCED_FACE ( 'NONE', ( #150 ), #149, .F. ) ;
#50 = EDGE_LOOP ( 'NONE', ( #51, #52, #54, #55 ) ) ;
#51 = ORIENTED_EDGE ( 'NONE', *, *, #121, .F. ) ;
#52 = ORIENTED_EDGE ( 'NONE', *, *, #53, .F. ) ;
#53 = EDGE_CURVE ( 'NONE', #103, #101, #148, .T. ) ;
#54 = ORIENTED_EDGE ( 'NONE', *, *, #106, .T. ) ;
#55 = ORIENTED_EDGE ( 'NONE', *, *, #47, .T. ) ;
#56 = ADVANCED_FACE ( 'NONE', ( #192, #191 ), #189, .F. ) ;
#57 = EDGE_LOOP ( 'NONE', ( #58, #77 ) ) ;
#58 = ORIENTED_EDGE ( 'NONE', *, *, #70, .F. ) ;
#59 = EDGE_CURVE ( 'NONE', #62, #104, #197, .T. ) ;
#60 = ADVANCED_FACE ( 'NONE', ( #198 ), #193, .T. ) ;
#61 = EDGE_LOOP ( 'NONE', ( #63, #85, #92, #95, #97 ) ) ;
#62 = VERTEX_POINT ( 'NONE', #209 ) ;
#63 = ORIENTED_EDGE ( 'NONE', *, *, #64, .F. ) ;
#64 = EDGE_CURVE ( 'NONE', #65, #62, #308, .T. ) ;
#65 = VERTEX_POINT ( 'NONE', #273 ) ;
#66 = EDGE_LOOP ( 'NONE', ( #67, #68, #32, #33 ) ) ;
#67 = ORIENTED_EDGE ( 'NONE', *, *, #109, .T. ) ;
#68 = ORIENTED_EDGE ( 'NONE', *, *, #31, .T. ) ;
#69 = ORIENTED_EDGE ( 'NONE', *, *, #29, .F. ) ;
#70 = EDGE_CURVE ( 'NONE', #117, #71, #272, .T. ) ;
#71 = VERTEX_POINT ( 'NONE', #304 ) ;
#72 = ORIENTED_EDGE ( 'NONE', *, *, #73, .T. ) ;
#73 = EDGE_CURVE ( 'NONE', #71, #107, #303, .T. ) ;
#74 = EDGE_CURVE ( 'NONE', #116, #118, #208, .T. ) ;
#75 = ORIENTED_EDGE ( 'NONE', *, *, #76, .T. ) ;
#76 = EDGE_CURVE ( 'NONE', #104, #116, #203, .T. ) ;
#77 = ORIENTED_EDGE ( 'NONE', *, *, #78, .F. ) ;
#78 = EDGE_CURVE ( 'NONE', #71, #117, #293, .T. ) ;
#79 = EDGE_LOOP ( 'NONE', ( #80, #81 ) ) ;
#80 = ORIENTED_EDGE ( 'NONE', *, *, #53, .T. ) ;
#81 = ORIENTED_EDGE ( 'NONE', *, *, #89, .T. ) ;
#82 = ADVANCED_FACE ( 'NONE', ( #294 ), #233, .T. ) ;
#83 = EDGE_LOOP ( 'NONE', ( #84, #13, #12, #15 ) ) ;
#84 = ORIENTED_EDGE ( 'NONE', *, *, #73, .F. ) ;
#85 = ORIENTED_EDGE ( 'NONE', *, *, #90, .T. ) ;
#86 = ADVANCED_FACE ( 'NONE', ( #229 ), #228, .F. ) ;
#87 = EDGE_LOOP ( 'NONE', ( #88, #100, #105, #120 ) ) ;
#88 = ORIENTED_EDGE ( 'NONE', *, *, #89, .F. ) ;
#89 = EDGE_CURVE ( 'NONE', #101, #103, #223, .T. ) ;
#90 = EDGE_CURVE ( 'NONE', #65, #91, #219, .T. ) ;
#91 = VERTEX_POINT ( 'NONE', #215 ) ;
#92 = ORIENTED_EDGE ( 'NONE', *, *, #93, .T. ) ;
#93 = EDGE_CURVE ( 'NONE', #91, #94, #214, .T. ) ;
#94 = VERTEX_POINT ( 'NONE', #400 ) ;
#95 = ORIENTED_EDGE ( 'NONE', *, *, #96, .F. ) ;
#96 = EDGE_CURVE ( 'NONE', #104, #94, #399, .T. ) ;
#97 = ORIENTED_EDGE ( 'NONE', *, *, #59, .F. ) ;
#98 = ADVANCED_FACE ( 'NONE', ( #395 ), #393, .T. ) ;
#99 = VERTEX_POINT ( 'NONE', #389 ) ;
#100 = ORIENTED_EDGE ( 'NONE', *, *, #121, .T. ) ;
#101 = VERTEX_POINT ( 'NONE', #388 ) ;
#102 = MANIFOLD_SOLID_BREP ( 'NONE', #14 ) ;
#103 = VERTEX_POINT ( 'NONE', #387 ) ;
#104 = VERTEX_POINT ( 'NONE', #386 ) ;
#105 = ORIENTED_EDGE ( 'NONE', *, *, #113, .T. ) ;
#106 = EDGE_CURVE ( 'NONE', #103, #125, #385, .T. ) ;
#107 = VERTEX_POINT ( 'NONE', #381 ) ;
#108 = ORIENTED_EDGE ( 'NONE', *, *, #109, .F. ) ;
#109 = EDGE_CURVE ( 'NONE', #110, #107, #380, .T. ) ;
#110 = VERTEX_POINT ( 'NONE', #375 ) ;
#111 = ORIENTED_EDGE ( 'NONE', *, *, #112, .F. ) ;
#112 = EDGE_CURVE ( 'NONE', #117, #110, #374, .T. ) ;
#113 = EDGE_CURVE ( 'NONE', #99, #125, #343, .T. ) ;
#114 = ORIENTED_EDGE ( 'NONE', *, *, #74, .T. ) ;
#115 = EDGE_LOOP ( 'NONE', ( #75, #114, #69, #30 ) ) ;
#116 = VERTEX_POINT ( 'NONE', #338 ) ;
#117 = VERTEX_POINT ( 'NONE', #337 ) ;
#118 = VERTEX_POINT ( 'NONE', #336 ) ;
#119 = ADVANCED_FACE ( 'NONE', ( #335 ), #333, .T. ) ;
#120 = ORIENTED_EDGE ( 'NONE', *, *, #106, .F. ) ;
#121 = EDGE_CURVE ( 'NONE', #101, #99, #329, .T. ) ;
#122 = ADVANCED_FACE ( 'NONE', ( #325 ), #324, .T. ) ;
#123 = EDGE_LOOP ( 'NONE', ( #124, #72, #108, #111 ) ) ;
#124 = ORIENTED_EDGE ( 'NONE', *, *, #70, .T. ) ;
#125 = VERTEX_POINT ( 'NONE', #319 ) ;
#126 = DIRECTION ( 'NONE',  ( 0.0000000000000000000, 0.0000000000000000000, 1.000000000000000000 ) ) ;
#127 = CARTESIAN_POINT ( 'NONE',  ( 0.0000000000000000000, 0.0000000000000000000, -0.2450067092309099700 ) ) ;
#128 = AXIS2_PLACEMENT_3D ( 'NONE', #127, #126, #175 ) ;
#129 = CIRCLE ( 'NONE', #128, 0.9591655484615154700 ) ;
#130 = FACE_OUTER_BOUND ( 'NONE', #28, .T. ) ;
#131 = AXIS2_PLACEMENT_3D ( 'NONE', #188, #184, #183 ) ;
#132 = CIRCLE ( 'NONE', #131, 2.000000000000000000 ) ;
#133 = CARTESIAN_POINT ( 'NONE',  ( 3.999999999999994700, 0.0000000000000000000, -4.186140661634505400 ) ) ;
#134 = DIRECTION ( 'NONE',  ( 0.0000000000000000000, 0.0000000000000000000, -1.000000000000000000 ) ) ;
#135 = DIRECTION ( 'NONE',  ( 1.000000000000000000, 0.0000000000000000000, 0.0000000000000000000 ) ) ;
#136 = DIRECTION ( 'NONE',  ( 0.0000000000000000000, 1.000000000000000000, 0.0000000000000000000 ) ) ;
#137 = DIRECTION ( 'NONE',  ( -1.000000000000000000, 0.0000000000000000000, 0.0000000000000000000 ) ) ;
#138 = AXIS2_PLACEMENT_3D ( 'NONE', #174, #137, #136 ) ;
#139 = DIRECTION ( 'NONE',  ( -1.000000000000000000, 0.0000000000000000000, 0.0000000000000000000 ) ) ;
#140 = DIRECTION ( 'NONE',  ( 0.0000000000000000000, 0.0000000000000000000, -1.000000000000000000 ) ) ;
#141 = DIRECTION ( 'NONE',  ( 0.0000000000000000000, 0.0000000000000000000, 1.000000000000000000 ) ) ;
#142 = CARTESIAN_POINT ( 'NONE',  ( 0.0000000000000000000, 0.0000000000000000000, -43.00000000000000000 ) ) ;
#143 = AXIS2_PLACEMENT_3D ( 'NONE', #142, #141, #5 ) ;
#144 = DIRECTION ( 'NONE',  ( 1.000000000000000000, 0.0000000000000000000, 0.0000000000000000000 ) ) ;
#145 = DIRECTION ( 'NONE',  ( 0.0000000000000000000, 0.0000000000000000000, 1.000000000000000000 ) ) ;
#146 = CARTESIAN_POINT ( 'NONE',  ( 0.0000000000000000000, 0.0000000000000000000, 5.167394680926404000 ) ) ;
#147 = AXIS2_PLACEMENT_3D ( 'NONE', #146, #145, #144 ) ;
#148 = CIRCLE ( 'NONE', #143, 5.000000000000000000 ) ;
#149 = CYLINDRICAL_SURFACE ( 'NONE', #147, 5.000000000000000000 ) ;
#150 = FACE_OUTER_BOUND ( 'NONE', #50, .T. ) ;
#151 = DIRECTION ( 'NONE',  ( 1.000000000000000000, 0.0000000000000000000, 0.0000000000000000000 ) ) ;
#152 = DIRECTION ( 'NONE',  ( 0.0000000000000000000, 0.0000000000000000000, 1.000000000000000000 ) ) ;
#153 = CARTESIAN_POINT ( 'NONE',  ( 0.0000000000000000000, 0.0000000000000000000, -2.999999999999997300 ) ) ;
#154 = AXIS2_PLACEMENT_3D ( 'NONE', #153, #152, #151 ) ;
#155 = CIRCLE ( 'NONE', #154, 5.000000000000000000 ) ;
#156 = DIRECTION ( 'NONE',  ( 1.000000000000000000, 0.0000000000000000000, 0.0000000000000000000 ) ) ;
#157 = DIRECTION ( 'NONE',  ( 0.0000000000000000000, 0.0000000000000000000, 1.000000000000000000 ) ) ;
#158 = CARTESIAN_POINT ( 'NONE',  ( 0.0000000000000000000, 0.0000000000000000000, -2.999999999999997300 ) ) ;
#159 = AXIS2_PLACEMENT_3D ( 'NONE', #158, #157, #156 ) ;
#160 = PLANE ( 'NONE',  #159 ) ;
#161 = FACE_OUTER_BOUND ( 'NONE', #45, .T. ) ;
#162 = DIRECTION ( 'NONE',  ( 1.000000000000000000, 0.0000000000000000000, 0.0000000000000000000 ) ) ;
#163 = DIRECTION ( 'NONE',  ( 0.0000000000000000000, 0.0000000000000000000, 1.000000000000000000 ) ) ;
#164 = CARTESIAN_POINT ( 'NONE',  ( 0.0000000000000000000, 0.0000000000000000000, -4.186140661634505400 ) ) ;
#165 = AXIS2_PLACEMENT_3D ( 'NONE', #164, #163, #162 ) ;
#166 = CIRCLE ( 'NONE', #165, 5.999999999999994700 ) ;
#167 = DIRECTION ( 'NONE',  ( 1.000000000000000000, 0.0000000000000000000, 0.0000000000000000000 ) ) ;
#168 = DIRECTION ( 'NONE',  ( 0.0000000000000000000, 0.0000000000000000000, 1.000000000000000000 ) ) ;
#169 = AXIS2_PLACEMENT_3D ( 'NONE', #171, #168, #167 ) ;
#170 = TOROIDAL_SURFACE ( 'NONE', #169, 3.999999999999994700, 2.000000000000000000 ) ;
#171 = CARTESIAN_POINT ( 'NONE',  ( 0.0000000000000000000, 0.0000000000000000000, -4.186140661634505400 ) ) ;
#172 = DIRECTION ( 'NONE',  ( 0.0000000000000000000, 0.0000000000000000000, -1.000000000000000000 ) ) ;
#173 = SPHERICAL_SURFACE ( 'NONE', #138, 2.000000000000000000 ) ;
#174 = CARTESIAN_POINT ( 'NONE',  ( 0.0000000000000000000, 0.0000000000000000000, -2.000000000000000000 ) ) ;
#175 = DIRECTION ( 'NONE',  ( 1.000000000000000000, 0.0000000000000000000, 0.0000000000000000000 ) ) ;
#176 = CONICAL_SURFACE ( 'NONE', #178, 4.959165548461510500, 1.070617148982884400 ) ;
#177 = CARTESIAN_POINT ( 'NONE',  ( 0.0000000000000000000, 0.0000000000000000000, -2.431147370865414500 ) ) ;
#178 = AXIS2_PLACEMENT_3D ( 'NONE', #177, #140, #139 ) ;
#179 = DIRECTION ( 'NONE',  ( 0.0000000000000000000, -1.000000000000000000, 0.0000000000000000000 ) ) ;
#180 = AXIS2_PLACEMENT_3D ( 'NONE', #133, #179, #172 ) ;
#181 = CIRCLE ( 'NONE', #180, 2.000000000000000000 ) ;
#182 = FACE_OUTER_BOUND ( 'NONE', #36, .T. ) ;
#183 = DIRECTION ( 'NONE',  ( -1.000000000000000000, 1.224646799147353000E-016, 0.0000000000000000000 ) ) ;
#184 = DIRECTION ( 'NONE',  ( 1.224646799147353200E-016, 1.000000000000000000, 0.0000000000000000000 ) ) ;
#185 = CARTESIAN_POINT ( 'NONE',  ( 0.0000000000000000000, 0.0000000000000000000, -2.000000000000000000 ) ) ;
#186 = AXIS2_PLACEMENT_3D ( 'NONE', #185, #135, #134 ) ;
#187 = CIRCLE ( 'NONE', #186, 2.000000000000000000 ) ;
#188 = CARTESIAN_POINT ( 'NONE',  ( -3.999999999999994700, 4.898587196589406900E-016, -4.186140661634505400 ) ) ;
#189 = PLANE ( 'NONE',  #190 ) ;
#190 = AXIS2_PLACEMENT_3D ( 'NONE', #201, #200, #199 ) ;
#191 = FACE_BOUND ( 'NONE', #79, .T. ) ;
#192 = FACE_OUTER_BOUND ( 'NONE', #57, .T. ) ;
#193 = CONICAL_SURFACE ( 'NONE', #2, 4.959165548461510500, 1.070617148982884400 ) ;
#194 = DIRECTION ( 'NONE',  ( 1.000000000000000000, 0.0000000000000000000, 0.0000000000000000000 ) ) ;
#195 = DIRECTION ( 'NONE',  ( 0.0000000000000000000, 0.0000000000000000000, 1.000000000000000000 ) ) ;
#196 = AXIS2_PLACEMENT_3D ( 'NONE', #202, #195, #194 ) ;
#197 = CIRCLE ( 'NONE', #196, 0.9591655484615154700 ) ;
#198 = FACE_OUTER_BOUND ( 'NONE', #61, .T. ) ;
#199 = DIRECTION ( 'NONE',  ( 1.000000000000000000, 0.0000000000000000000, 0.0000000000000000000 ) ) ;
#200 = DIRECTION ( 'NONE',  ( 0.0000000000000000000, 0.0000000000000000000, 1.000000000000000000 ) ) ;
#201 = CARTESIAN_POINT ( 'NONE',  ( 0.0000000000000000000, 5.000000000000000000, -43.00000000000000000 ) ) ;
#202 = CARTESIAN_POINT ( 'NONE',  ( 0.0000000000000000000, 0.0000000000000000000, -0.2450067092309099700 ) ) ;
#203 = CIRCLE ( 'NONE', #298, 0.9591655484615154700 ) ;
#204 = DIRECTION ( 'NONE',  ( -1.224646799147353200E-016, -1.000000000000000000, 0.0000000000000000000 ) ) ;
#205 = DIRECTION ( 'NONE',  ( -1.000000000000000000, 1.224646799147353200E-016, 0.0000000000000000000 ) ) ;
#206 = CARTESIAN_POINT ( 'NONE',  ( 0.0000000000000000000, 0.0000000000000000000, -2.000000000000000000 ) ) ;
#207 = AXIS2_PLACEMENT_3D ( 'NONE', #206, #205, #204 ) ;
#208 = CIRCLE ( 'NONE', #207, 2.000000000000000000 ) ;
#209 = CARTESIAN_POINT ( 'NONE',  ( 0.0000000000000000000, 0.9591655484615155800, -0.2450067092309098600 ) ) ;
#210 = DIRECTION ( 'NONE',  ( 1.000000000000000000, 0.0000000000000000000, 0.0000000000000000000 ) ) ;
#211 = CARTESIAN_POINT ( 'NONE',  ( 0.0000000000000000000, 0.0000000000000000000, -43.00000000000000000 ) ) ;
#212 = AXIS2_PLACEMENT_3D ( 'NONE', #211, #306, #305 ) ;
#213 = CARTESIAN_POINT ( 'NONE',  ( 0.0000000000000000000, 0.0000000000000000000, -2.431147370865414500 ) ) ;
#214 = CIRCLE ( 'NONE', #403, 4.959165548461510500 ) ;
#215 = CARTESIAN_POINT ( 'NONE',  ( 4.959165548461510500, 0.0000000000000000000, -2.431147370865414500 ) ) ;
#216 = DIRECTION ( 'NONE',  ( 0.8774966453845451900, 1.074623458032723300E-016, -0.4795827742307575100 ) ) ;
#217 = VECTOR ( 'NONE', #216, 1000.000000000000000 ) ;
#218 = CARTESIAN_POINT ( 'NONE',  ( 4.959165548461510500, 6.073226215365216700E-016, -2.431147370865414500 ) ) ;
#219 = LINE ( 'NONE', #218, #217 ) ;
#220 = DIRECTION ( 'NONE',  ( 1.000000000000000000, 0.0000000000000000000, 0.0000000000000000000 ) ) ;
#221 = DIRECTION ( 'NONE',  ( 0.0000000000000000000, 0.0000000000000000000, 1.000000000000000000 ) ) ;
#222 = AXIS2_PLACEMENT_3D ( 'NONE', #227, #221, #220 ) ;
#223 = CIRCLE ( 'NONE', #222, 5.000000000000000000 ) ;
#224 = DIRECTION ( 'NONE',  ( 1.000000000000000000, 0.0000000000000000000, 0.0000000000000000000 ) ) ;
#225 = DIRECTION ( 'NONE',  ( 0.0000000000000000000, 0.0000000000000000000, 1.000000000000000000 ) ) ;
#226 = AXIS2_PLACEMENT_3D ( 'NONE', #234, #225, #224 ) ;
#227 = CARTESIAN_POINT ( 'NONE',  ( 0.0000000000000000000, 0.0000000000000000000, -43.00000000000000000 ) ) ;
#228 = CYLINDRICAL_SURFACE ( 'NONE', #226, 5.000000000000000000 ) ;
#229 = FACE_OUTER_BOUND ( 'NONE', #87, .T. ) ;
#230 = DIRECTION ( 'NONE',  ( 1.000000000000000000, 0.0000000000000000000, 0.0000000000000000000 ) ) ;
#231 = DIRECTION ( 'NONE',  ( 0.0000000000000000000, 0.0000000000000000000, 1.000000000000000000 ) ) ;
#232 = AXIS2_PLACEMENT_3D ( 'NONE', #235, #231, #230 ) ;
#233 = CYLINDRICAL_SURFACE ( 'NONE', #232, 5.999999999999997300 ) ;
#234 = CARTESIAN_POINT ( 'NONE',  ( 0.0000000000000000000, 0.0000000000000000000, 5.167394680926404000 ) ) ;
#235 = CARTESIAN_POINT ( 'NONE',  ( 0.0000000000000000000, 0.0000000000000000000, 5.167394680926404000 ) ) ;
#236 = DIRECTION ( 'NONE',  ( 1.000000000000000000, 0.0000000000000000000, 0.0000000000000000000 ) ) ;
#237 = DIRECTION ( 'NONE',  ( 0.0000000000000000000, 0.0000000000000000000, 1.000000000000000000 ) ) ;
#238 = PRODUCT_DEFINITION_SHAPE ( 'NONE', 'NONE',  #358 ) ;
#239 = PRODUCT_RELATED_PRODUCT_CATEGORY ( 'detail', '', ( #367 ) ) ;
#240 = CC_DESIGN_SECURITY_CLASSIFICATION ( #261, ( #284 ) ) ;
#241 = CC_DESIGN_APPROVAL ( #249, ( #261 ) ) ;
#242 = APPROVAL_DATE_TIME ( #243, #249 ) ;
#243 = DATE_AND_TIME ( #244, #245 ) ;
#244 = CALENDAR_DATE ( 2006, 8, 6 ) ;
#245 = LOCAL_TIME ( 11, 6, 21.00000000000000000, #246 ) ;
#246 = COORDINATED_UNIVERSAL_TIME_OFFSET ( 9, 0, .AHEAD. ) ;
#247 = APPROVAL_PERSON_ORGANIZATION ( #251, #249, #248 ) ;
#248 = APPROVAL_ROLE ( '' ) ;
#249 = APPROVAL ( #250, 'UNSPECIFIED' ) ;
#250 = APPROVAL_STATUS ( 'not_yet_approved' ) ;
#251 = PERSON_AND_ORGANIZATION ( #366, #365 ) ;
#252 = CC_DESIGN_DATE_AND_TIME_ASSIGNMENT ( #254, #253, ( #261 ) ) ;
#253 = DATE_TIME_ROLE ( 'classification_date' ) ;
#254 = DATE_AND_TIME ( #255, #256 ) ;
#255 = CALENDAR_DATE ( 2006, 8, 6 ) ;
#256 = LOCAL_TIME ( 11, 6, 21.00000000000000000, #257 ) ;
#257 = COORDINATED_UNIVERSAL_TIME_OFFSET ( 9, 0, .AHEAD. ) ;
#258 = CC_DESIGN_PERSON_AND_ORGANIZATION_ASSIGNMENT ( #260, #259, ( #261 ) ) ;
#259 = PERSON_AND_ORGANIZATION_ROLE ( 'classification_officer' ) ;
#260 = PERSON_AND_ORGANIZATION ( #366, #365 ) ;
#261 = SECURITY_CLASSIFICATION ( '', '', #262 ) ;
#262 = SECURITY_CLASSIFICATION_LEVEL ( 'unclassified' ) ;
#263 = CC_DESIGN_PERSON_AND_ORGANIZATION_ASSIGNMENT ( #265, #264, ( #284 ) ) ;
#264 = PERSON_AND_ORGANIZATION_ROLE ( 'design_supplier' ) ;
#265 = PERSON_AND_ORGANIZATION ( #366, #365 ) ;
#266 = CC_DESIGN_PERSON_AND_ORGANIZATION_ASSIGNMENT ( #268, #267, ( #284 ) ) ;
#267 = PERSON_AND_ORGANIZATION_ROLE ( 'creator' ) ;
#268 = PERSON_AND_ORGANIZATION ( #366, #365 ) ;
#269 = CC_DESIGN_APPROVAL ( #281, ( #284 ) ) ;
#270 = APPROVAL_DATE_TIME ( #276, #281 ) ;
#271 = CALENDAR_DATE ( 2006, 8, 6 ) ;
#272 = CIRCLE ( 'NONE', #212, 6.000000000000000000 ) ;
#273 = CARTESIAN_POINT ( 'NONE',  ( 0.9591655484615154700, 3.623932617070513800E-016, -0.2450067092309099700 ) ) ;
#274 = DIRECTION ( 'NONE',  ( 1.000000000000000000, 0.0000000000000000000, 0.0000000000000000000 ) ) ;
#275 = DIRECTION ( 'NONE',  ( 0.0000000000000000000, 0.0000000000000000000, 1.000000000000000000 ) ) ;
#276 = DATE_AND_TIME ( #271, #277 ) ;
#277 = LOCAL_TIME ( 11, 6, 21.00000000000000000, #278 ) ;
#278 = COORDINATED_UNIVERSAL_TIME_OFFSET ( 9, 0, .AHEAD. ) ;
#279 = APPROVAL_PERSON_ORGANIZATION ( #283, #281, #280 ) ;
#280 = APPROVAL_ROLE ( '' ) ;
#281 = APPROVAL ( #282, 'UNSPECIFIED' ) ;
#282 = APPROVAL_STATUS ( 'not_yet_approved' ) ;
#283 = PERSON_AND_ORGANIZATION ( #366, #365 ) ;
#284 = PRODUCT_DEFINITION_FORMATION_WITH_SPECIFIED_SOURCE ( 'ANY', '', #367, .NOT_KNOWN. ) ;
#285 = CC_DESIGN_DATE_AND_TIME_ASSIGNMENT ( #287, #286, ( #358 ) ) ;
#286 = DATE_TIME_ROLE ( 'creation_date' ) ;
#287 = DATE_AND_TIME ( #288, #289 ) ;
#288 = CALENDAR_DATE ( 2006, 8, 6 ) ;
#289 = LOCAL_TIME ( 11, 6, 21.00000000000000000, #290 ) ;
#290 = COORDINATED_UNIVERSAL_TIME_OFFSET ( 9, 0, .AHEAD. ) ;
#291 = CARTESIAN_POINT ( 'NONE',  ( 0.0000000000000000000, 0.0000000000000000000, -43.00000000000000000 ) ) ;
#292 = AXIS2_PLACEMENT_3D ( 'NONE', #291, #237, #236 ) ;
#293 = CIRCLE ( 'NONE', #292, 6.000000000000000000 ) ;
#294 = FACE_OUTER_BOUND ( 'NONE', #83, .T. ) ;
#295 = DIRECTION ( 'NONE',  ( 1.000000000000000000, 0.0000000000000000000, 0.0000000000000000000 ) ) ;
#296 = DIRECTION ( 'NONE',  ( 0.0000000000000000000, 0.0000000000000000000, 1.000000000000000000 ) ) ;
#297 = CARTESIAN_POINT ( 'NONE',  ( 0.0000000000000000000, 0.0000000000000000000, -0.2450067092309099700 ) ) ;
#298 = AXIS2_PLACEMENT_3D ( 'NONE', #297, #296, #295 ) ;
#299 = CARTESIAN_POINT ( 'NONE',  ( 0.0000000000000000000, 0.0000000000000000000, -0.2450067092309099700 ) ) ;
#300 = DIRECTION ( 'NONE',  ( 0.0000000000000000000, 0.0000000000000000000, 1.000000000000000000 ) ) ;
#301 = VECTOR ( 'NONE', #300, 1000.000000000000000 ) ;
#302 = CARTESIAN_POINT ( 'NONE',  ( -5.999999999999997300, 7.347880794884116800E-016, 5.167394680926404000 ) ) ;
#303 = LINE ( 'NONE', #302, #301 ) ;
#304 = CARTESIAN_POINT ( 'NONE',  ( -6.000000000000000000, 7.347880794884119700E-016, -43.00000000000000000 ) ) ;
#305 = DIRECTION ( 'NONE',  ( 1.000000000000000000, 0.0000000000000000000, 0.0000000000000000000 ) ) ;
#306 = DIRECTION ( 'NONE',  ( 0.0000000000000000000, 0.0000000000000000000, 1.000000000000000000 ) ) ;
#307 = AXIS2_PLACEMENT_3D ( 'NONE', #299, #275, #274 ) ;
#308 = CIRCLE ( 'NONE', #307, 0.9591655484615154700 ) ;
#309 = DIRECTION ( 'NONE',  ( 0.0000000000000000000, 0.0000000000000000000, 1.000000000000000000 ) ) ;
#310 = CARTESIAN_POINT ( 'NONE',  ( 0.0000000000000000000, 0.0000000000000000000, 0.0000000000000000000 ) ) ;
#311 = AXIS2_PLACEMENT_3D ( 'NONE', #310, #309, #210 ) ;
#312 = SHAPE_DEFINITION_REPRESENTATION ( #238, #313 ) ;
#313 = ADVANCED_BREP_SHAPE_REPRESENTATION ( 'AC-25-G-10', ( #102, #311 ), #314 ) ;
#314 =( GEOMETRIC_REPRESENTATION_CONTEXT ( 3 ) GLOBAL_UNCERTAINTY_ASSIGNED_CONTEXT ( ( #315 ) ) GLOBAL_UNIT_ASSIGNED_CONTEXT ( ( #318, #317, #316 ) ) REPRESENTATION_CONTEXT ( 'NONE', 'WORKASPACE' ) );
#315 = UNCERTAINTY_MEASURE_WITH_UNIT (LENGTH_MEASURE( 1.000000000000000100E-005 ), #318, 'distance_accuracy_value', 'NONE');
#316 =( NAMED_UNIT ( * ) SI_UNIT ( $, .STERADIAN. ) SOLID_ANGLE_UNIT ( ) );
#317 =( NAMED_UNIT ( * ) PLANE_ANGLE_UNIT ( ) SI_UNIT ( $, .RADIAN. ) );
#318 =( LENGTH_UNIT ( ) NAMED_UNIT ( * ) SI_UNIT ( .MILLI., .METRE. ) );
#319 = CARTESIAN_POINT ( 'NONE',  ( 5.000000000000000000, 0.0000000000000000000, -2.999999999999997300 ) ) ;
#320 = DIRECTION ( 'NONE',  ( 1.000000000000000000, 0.0000000000000000000, 0.0000000000000000000 ) ) ;
#321 = DIRECTION ( 'NONE',  ( 0.0000000000000000000, 0.0000000000000000000, 1.000000000000000000 ) ) ;
#322 = CARTESIAN_POINT ( 'NONE',  ( 0.0000000000000000000, 0.0000000000000000000, 5.167394680926404000 ) ) ;
#323 = AXIS2_PLACEMENT_3D ( 'NONE', #322, #321, #320 ) ;
#324 = CYLINDRICAL_SURFACE ( 'NONE', #323, 5.999999999999997300 ) ;
#325 = FACE_OUTER_BOUND ( 'NONE', #123, .T. ) ;
#326 = DIRECTION ( 'NONE',  ( 0.0000000000000000000, 0.0000000000000000000, 1.000000000000000000 ) ) ;
#327 = VECTOR ( 'NONE', #326, 1000.000000000000000 ) ;
#328 = CARTESIAN_POINT ( 'NONE',  ( -5.000000000000000000, 6.123233995736766300E-016, 5.167394680926404000 ) ) ;
#329 = LINE ( 'NONE', #328, #327 ) ;
#330 = DIRECTION ( 'NONE',  ( 0.0000000000000000000, 1.000000000000000000, 0.0000000000000000000 ) ) ;
#331 = DIRECTION ( 'NONE',  ( -1.000000000000000000, 0.0000000000000000000, 0.0000000000000000000 ) ) ;
#332 = AXIS2_PLACEMENT_3D ( 'NONE', #334, #331, #330 ) ;
#333 = SPHERICAL_SURFACE ( 'NONE', #332, 2.000000000000000000 ) ;
#334 = CARTESIAN_POINT ( 'NONE',  ( 0.0000000000000000000, 0.0000000000000000000, -2.000000000000000000 ) ) ;
#335 = FACE_OUTER_BOUND ( 'NONE', #115, .T. ) ;
#336 = CARTESIAN_POINT ( 'NONE',  ( 0.0000000000000000000, 1.224646799147353200E-016, 0.0000000000000000000 ) ) ;
#337 = CARTESIAN_POINT ( 'NONE',  ( 6.000000000000000000, 0.0000000000000000000, -43.00000000000000000 ) ) ;
#338 = CARTESIAN_POINT ( 'NONE',  ( -1.174639018775810300E-016, -0.9591655484615155800, -0.2450067092309098600 ) ) ;
#339 = DIRECTION ( 'NONE',  ( 1.000000000000000000, 0.0000000000000000000, 0.0000000000000000000 ) ) ;
#340 = DIRECTION ( 'NONE',  ( 0.0000000000000000000, 0.0000000000000000000, 1.000000000000000000 ) ) ;
#341 = CARTESIAN_POINT ( 'NONE',  ( 0.0000000000000000000, 0.0000000000000000000, -2.999999999999997300 ) ) ;
#342 = AXIS2_PLACEMENT_3D ( 'NONE', #341, #340, #339 ) ;
#343 = CIRCLE ( 'NONE', #342, 5.000000000000000000 ) ;
#344 = CC_DESIGN_PERSON_AND_ORGANIZATION_ASSIGNMENT ( #346, #345, ( #358 ) ) ;
#345 = PERSON_AND_ORGANIZATION_ROLE ( 'creator' ) ;
#346 = PERSON_AND_ORGANIZATION ( #366, #365 ) ;
#347 = CC_DESIGN_APPROVAL ( #355, ( #358 ) ) ;
#348 = APPROVAL_DATE_TIME ( #349, #355 ) ;
#349 = DATE_AND_TIME ( #350, #351 ) ;
#350 = CALENDAR_DATE ( 2006, 8, 6 ) ;
#351 = LOCAL_TIME ( 11, 6, 21.00000000000000000, #352 ) ;
#352 = COORDINATED_UNIVERSAL_TIME_OFFSET ( 9, 0, .AHEAD. ) ;
#353 = APPROVAL_PERSON_ORGANIZATION ( #357, #355, #354 ) ;
#354 = APPROVAL_ROLE ( '' ) ;
#355 = APPROVAL ( #356, 'UNSPECIFIED' ) ;
#356 = APPROVAL_STATUS ( 'not_yet_approved' ) ;
#357 = PERSON_AND_ORGANIZATION ( #366, #365 ) ;
#358 = PRODUCT_DEFINITION ( 'UNKNOWN', '', #284, #359 ) ;
#359 = DESIGN_CONTEXT ( 'detailed design', #361, 'design' ) ;
#360 = APPLICATION_PROTOCOL_DEFINITION ( 'international standard', 'config_control_design', 1994, #361 ) ;
#361 = APPLICATION_CONTEXT ( 'configuration controlled 3d designs of mechanical parts and assemblies' ) ;
#362 = CC_DESIGN_PERSON_AND_ORGANIZATION_ASSIGNMENT ( #364, #363, ( #367 ) ) ;
#363 = PERSON_AND_ORGANIZATION_ROLE ( 'design_owner' ) ;
#364 = PERSON_AND_ORGANIZATION ( #366, #365 ) ;
#365 = ORGANIZATION ( 'UNSPECIFIED', 'UNSPECIFIED', '' ) ;
#366 = PERSON ( 'UNSPECIFIED', 'UNSPECIFIED', 'UNSPECIFIED', ('UNSPECIFIED'), ('UNSPECIFIED'), ('UNSPECIFIED') ) ;
#367 = PRODUCT ( 'AC-25-G-10', 'AC-25-G-10', '', ( #368 ) ) ;
#368 = MECHANICAL_CONTEXT ( 'NONE', #370, 'mechanical' ) ;
#369 = APPLICATION_PROTOCOL_DEFINITION ( 'international standard', 'config_control_design', 1994, #370 ) ;
#370 = APPLICATION_CONTEXT ( 'configuration controlled 3d designs of mechanical parts and assemblies' ) ;
#371 = DIRECTION ( 'NONE',  ( 0.0000000000000000000, 0.0000000000000000000, 1.000000000000000000 ) ) ;
#372 = VECTOR ( 'NONE', #371, 1000.000000000000000 ) ;
#373 = CARTESIAN_POINT ( 'NONE',  ( 5.999999999999997300, 0.0000000000000000000, 5.167394680926404000 ) ) ;
#374 = LINE ( 'NONE', #373, #372 ) ;
#375 = CARTESIAN_POINT ( 'NONE',  ( 5.999999999999994700, 0.0000000000000000000, -4.186140661634505400 ) ) ;
#376 = DIRECTION ( 'NONE',  ( 1.000000000000000000, 0.0000000000000000000, 0.0000000000000000000 ) ) ;
#377 = DIRECTION ( 'NONE',  ( 0.0000000000000000000, 0.0000000000000000000, 1.000000000000000000 ) ) ;
#378 = CARTESIAN_POINT ( 'NONE',  ( 0.0000000000000000000, 0.0000000000000000000, -4.186140661634505400 ) ) ;
#379 = AXIS2_PLACEMENT_3D ( 'NONE', #378, #377, #376 ) ;
#380 = CIRCLE ( 'NONE', #379, 5.999999999999994700 ) ;
#381 = CARTESIAN_POINT ( 'NONE',  ( -5.999999999999994700, 7.347880794884112800E-016, -4.186140661634505400 ) ) ;
#382 = DIRECTION ( 'NONE',  ( 0.0000000000000000000, 0.0000000000000000000, 1.000000000000000000 ) ) ;
#383 = VECTOR ( 'NONE', #382, 1000.000000000000000 ) ;
#384 = CARTESIAN_POINT ( 'NONE',  ( 5.000000000000000000, 0.0000000000000000000, 5.167394680926404000 ) ) ;
#385 = LINE ( 'NONE', #384, #383 ) ;
#386 = CARTESIAN_POINT ( 'NONE',  ( -0.9591655484615154700, 0.0000000000000000000, -0.2450067092309099700 ) ) ;
#387 = CARTESIAN_POINT ( 'NONE',  ( 5.000000000000000000, 0.0000000000000000000, -43.00000000000000000 ) ) ;
#388 = CARTESIAN_POINT ( 'NONE',  ( -5.000000000000000000, 6.123233995736766300E-016, -43.00000000000000000 ) ) ;
#389 = CARTESIAN_POINT ( 'NONE',  ( -5.000000000000000000, 6.123233995736766300E-016, -2.999999999999997300 ) ) ;
#390 = DIRECTION ( 'NONE',  ( 1.000000000000000000, 0.0000000000000000000, 0.0000000000000000000 ) ) ;
#391 = DIRECTION ( 'NONE',  ( 0.0000000000000000000, 0.0000000000000000000, 1.000000000000000000 ) ) ;
#392 = AXIS2_PLACEMENT_3D ( 'NONE', #394, #391, #390 ) ;
#393 = TOROIDAL_SURFACE ( 'NONE', #392, 3.999999999999994700, 2.000000000000000000 ) ;
#394 = CARTESIAN_POINT ( 'NONE',  ( 0.0000000000000000000, 0.0000000000000000000, -4.186140661634505400 ) ) ;
#395 = FACE_OUTER_BOUND ( 'NONE', #66, .T. ) ;
#396 = DIRECTION ( 'NONE',  ( -0.8774966453845451900, 0.0000000000000000000, -0.4795827742307575100 ) ) ;
#397 = VECTOR ( 'NONE', #396, 1000.000000000000000 ) ;
#398 = CARTESIAN_POINT ( 'NONE',  ( -4.959165548461510500, 0.0000000000000000000, -2.431147370865414500 ) ) ;
#399 = LINE ( 'NONE', #398, #397 ) ;
#400 = CARTESIAN_POINT ( 'NONE',  ( -4.959165548461510500, 6.710553505124663800E-016, -2.431147370865414500 ) ) ;
#401 = DIRECTION ( 'NONE',  ( 1.000000000000000000, 0.0000000000000000000, 0.0000000000000000000 ) ) ;
#402 = DIRECTION ( 'NONE',  ( 0.0000000000000000000, 0.0000000000000000000, 1.000000000000000000 ) ) ;
#403 = AXIS2_PLACEMENT_3D ( 'NONE', #213, #402, #401 ) ;
ENDSEC;
END-ISO-10303-21;
