ISO-10303-21;
HEADER;
FILE_DESCRIPTION (( 'STEP AP203' ),
    '1' );
FILE_NAME ('AC-25-8.STEP',
    '2009-05-01T00:56:29',
    ( ' ' ),
    ( ' ' ),
    'SwSTEP 2.0',
    'SolidWorks 2007',
    '' );
FILE_SCHEMA (( 'CONFIG_CONTROL_DESIGN' ));
ENDSEC;

DATA;
#1 = ORIENTED_EDGE ( 'NONE', *, *, #218, .F. ) ;
#2 = EDGE_CURVE ( 'NONE', #225, #61, #151, .T. ) ;
#3 = ORIENTED_EDGE ( 'NONE', *, *, #2, .F. ) ;
#4 = ORIENTED_EDGE ( 'NONE', *, *, #224, .T. ) ;
#5 = ORIENTED_EDGE ( 'NONE', *, *, #8, .F. ) ;
#6 = ADVANCED_FACE ( 'NONE', ( #147 ), #145, .T. ) ;
#7 = ADVANCED_FACE ( 'NONE', ( #146 ), #140, .T. ) ;
#8 = EDGE_CURVE ( 'NONE', #222, #26, #236, .T. ) ;
#9 = ORIENTED_EDGE ( 'NONE', *, *, #27, .F. ) ;
#10 = ORIENTED_EDGE ( 'NONE', *, *, #220, .T. ) ;
#11 = ORIENTED_EDGE ( 'NONE', *, *, #8, .T. ) ;
#12 = EDGE_LOOP ( 'NONE', ( #21, #24, #10, #11 ) ) ;
#13 = ORIENTED_EDGE ( 'NONE', *, *, #186, .T. ) ;
#14 = ORIENTED_EDGE ( 'NONE', *, *, #16, .T. ) ;
#15 = ORIENTED_EDGE ( 'NONE', *, *, #227, .T. ) ;
#16 = EDGE_CURVE ( 'NONE', #228, #54, #260, .T. ) ;
#17 = ORIENTED_EDGE ( 'NONE', *, *, #16, .F. ) ;
#18 = EDGE_LOOP ( 'NONE', ( #1, #3, #4, #22 ) ) ;
#19 = EDGE_LOOP ( 'NONE', ( #9, #5, #13, #14 ) ) ;
#20 = ADVANCED_FACE ( 'NONE', ( #256 ), #254, .T. ) ;
#21 = ORIENTED_EDGE ( 'NONE', *, *, #25, .F. ) ;
#22 = ORIENTED_EDGE ( 'NONE', *, *, #23, .T. ) ;
#23 = EDGE_CURVE ( 'NONE', #221, #50, #255, .T. ) ;
#24 = ORIENTED_EDGE ( 'NONE', *, *, #23, .F. ) ;
#25 = EDGE_CURVE ( 'NONE', #50, #26, #246, .T. ) ;
#26 = VERTEX_POINT ( 'NONE', #242 ) ;
#27 = EDGE_CURVE ( 'NONE', #26, #54, #241, .T. ) ;
#28 = EDGE_LOOP ( 'NONE', ( #29, #30, #32, #34 ) ) ;
#29 = ORIENTED_EDGE ( 'NONE', *, *, #211, .T. ) ;
#30 = ORIENTED_EDGE ( 'NONE', *, *, #31, .F. ) ;
#31 = EDGE_CURVE ( 'NONE', #166, #209, #237, .T. ) ;
#32 = ORIENTED_EDGE ( 'NONE', *, *, #183, .F. ) ;
#33 = EDGE_LOOP ( 'NONE', ( #36, #55, #56, #57 ) ) ;
#34 = ORIENTED_EDGE ( 'NONE', *, *, #44, .T. ) ;
#35 = ADVANCED_FACE ( 'NONE', ( #202 ), #200, .F. ) ;
#36 = ORIENTED_EDGE ( 'NONE', *, *, #208, .T. ) ;
#37 = ORIENTED_EDGE ( 'NONE', *, *, #38, .T. ) ;
#38 = EDGE_CURVE ( 'NONE', #54, #61, #201, .T. ) ;
#39 = ORIENTED_EDGE ( 'NONE', *, *, #25, .T. ) ;
#40 = ADVANCED_FACE ( 'NONE', ( #192 ), #80, .F. ) ;
#41 = EDGE_LOOP ( 'NONE', ( #42, #43, #51, #52 ) ) ;
#42 = ORIENTED_EDGE ( 'NONE', *, *, #214, .T. ) ;
#43 = ORIENTED_EDGE ( 'NONE', *, *, #44, .F. ) ;
#44 = EDGE_CURVE ( 'NONE', #181, #212, #86, .T. ) ;
#45 = ORIENTED_EDGE ( 'NONE', *, *, #153, .F. ) ;
#46 = ORIENTED_EDGE ( 'NONE', *, *, #176, .F. ) ;
#47 = ORIENTED_EDGE ( 'NONE', *, *, #48, .T. ) ;
#48 = EDGE_CURVE ( 'NONE', #177, #190, #66, .T. ) ;
#49 = ORIENTED_EDGE ( 'NONE', *, *, #206, .T. ) ;
#50 = VERTEX_POINT ( 'NONE', #101 ) ;
#51 = ORIENTED_EDGE ( 'NONE', *, *, #180, .F. ) ;
#52 = ORIENTED_EDGE ( 'NONE', *, *, #173, .T. ) ;
#53 = ADVANCED_FACE ( 'NONE', ( #100 ), #88, .T. ) ;
#54 = VERTEX_POINT ( 'NONE', #104 ) ;
#55 = ORIENTED_EDGE ( 'NONE', *, *, #48, .F. ) ;
#56 = ORIENTED_EDGE ( 'NONE', *, *, #168, .F. ) ;
#57 = ORIENTED_EDGE ( 'NONE', *, *, #31, .T. ) ;
#58 = ADVANCED_FACE ( 'NONE', ( #99 ), #98, .T. ) ;
#59 = EDGE_LOOP ( 'NONE', ( #45, #46, #47, #49 ) ) ;
#60 = ORIENTED_EDGE ( 'NONE', *, *, #27, .T. ) ;
#61 = VERTEX_POINT ( 'NONE', #106 ) ;
#62 = ADVANCED_FACE ( 'NONE', ( #108 ), #90, .T. ) ;
#63 = VECTOR ( 'NONE', #71, 1000.000000000000000 ) ;
#64 = DIRECTION ( 'NONE',  ( 0.0000000000000000000, 0.0000000000000000000, 1.000000000000000000 ) ) ;
#65 = LINE ( 'NONE', #77, #76 ) ;
#66 = LINE ( 'NONE', #69, #63 ) ;
#67 = DIRECTION ( 'NONE',  ( 0.0000000000000000000, 0.0000000000000000000, -1.000000000000000000 ) ) ;
#68 = VECTOR ( 'NONE', #67, 1000.000000000000000 ) ;
#69 = CARTESIAN_POINT ( 'NONE',  ( -30.83333333333333200, 4.930066485916345400, 1.600000000000000100 ) ) ;
#70 = CARTESIAN_POINT ( 'NONE',  ( -34.99999999999999300, 0.0000000000000000000, 1.600000000000000100 ) ) ;
#71 = DIRECTION ( 'NONE',  ( 0.0000000000000000000, 0.0000000000000000000, -1.000000000000000000 ) ) ;
#72 = DIRECTION ( 'NONE',  ( 1.000000000000000000, 0.0000000000000000000, 0.0000000000000000000 ) ) ;
#73 = AXIS2_PLACEMENT_3D ( 'NONE', #75, #64, #72 ) ;
#74 = CIRCLE ( 'NONE', #73, 4.999999999999997300 ) ;
#75 = CARTESIAN_POINT ( 'NONE',  ( -30.00000000000000000, 0.0000000000000000000, 1.600000000000000100 ) ) ;
#76 = VECTOR ( 'NONE', #78, 1000.000000000000100 ) ;
#77 = CARTESIAN_POINT ( 'NONE',  ( -30.83333333333333200, -4.930066485916344600, 1.600000000000000100 ) ) ;
#78 = DIRECTION ( 'NONE',  ( 0.9860132971832692400, -0.1666666666666667700, 0.0000000000000000000 ) ) ;
#79 = DIRECTION ( 'NONE',  ( -0.9860132971832692400, 0.1666666666666668000, 0.0000000000000000000 ) ) ;
#80 = PLANE ( 'NONE',  #81 ) ;
#81 = AXIS2_PLACEMENT_3D ( 'NONE', #83, #82, #79 ) ;
#82 = DIRECTION ( 'NONE',  ( 0.1666666666666668200, 0.9860132971832693500, 0.0000000000000000000 ) ) ;
#83 = CARTESIAN_POINT ( 'NONE',  ( -30.83333333333333200, -4.930066485916344600, 1.600000000000000100 ) ) ;
#84 = VECTOR ( 'NONE', #87, 1000.000000000000000 ) ;
#85 = CARTESIAN_POINT ( 'NONE',  ( -1.666666666666672700, -9.860132971832692700, 1.600000000000000100 ) ) ;
#86 = LINE ( 'NONE', #85, #84 ) ;
#87 = DIRECTION ( 'NONE',  ( 0.0000000000000000000, 0.0000000000000000000, -1.000000000000000000 ) ) ;
#88 = CYLINDRICAL_SURFACE ( 'NONE', #102, 10.00000000000000000 ) ;
#89 = CARTESIAN_POINT ( 'NONE',  ( -5.656854249492380600, -7.724940478959219100E-016, 1.600000000000000100 ) ) ;
#90 = PLANE ( 'NONE',  #97 ) ;
#91 = DIRECTION ( 'NONE',  ( 0.0000000000000000000, 0.0000000000000000000, -1.000000000000000000 ) ) ;
#92 = CARTESIAN_POINT ( 'NONE',  ( -30.00000000000000000, 0.0000000000000000000, 1.600000000000000100 ) ) ;
#93 = AXIS2_PLACEMENT_3D ( 'NONE', #92, #91, #107 ) ;
#94 = CARTESIAN_POINT ( 'NONE',  ( 0.0000000000000000000, 0.0000000000000000000, 1.600000000000000100 ) ) ;
#95 = DIRECTION ( 'NONE',  ( 0.7071067811865474600, 0.7071067811865474600, 0.0000000000000000000 ) ) ;
#96 = DIRECTION ( 'NONE',  ( 0.7071067811865475700, -0.7071067811865475700, 0.0000000000000000000 ) ) ;
#97 = AXIS2_PLACEMENT_3D ( 'NONE', #89, #96, #95 ) ;
#98 = CYLINDRICAL_SURFACE ( 'NONE', #93, 4.999999999999997300 ) ;
#99 = FACE_OUTER_BOUND ( 'NONE', #59, .T. ) ;
#100 = FACE_OUTER_BOUND ( 'NONE', #28, .T. ) ;
#101 = CARTESIAN_POINT ( 'NONE',  ( 3.022213555803343600E-015, -5.656854249492380600, 0.0000000000000000000 ) ) ;
#102 = AXIS2_PLACEMENT_3D ( 'NONE', #94, #109, #105 ) ;
#103 = LINE ( 'NONE', #70, #68 ) ;
#104 = CARTESIAN_POINT ( 'NONE',  ( 0.0000000000000000000, 5.656854249492378800, 0.0000000000000000000 ) ) ;
#105 = DIRECTION ( 'NONE',  ( -1.000000000000000000, 0.0000000000000000000, 0.0000000000000000000 ) ) ;
#106 = CARTESIAN_POINT ( 'NONE',  ( -5.656854249492380600, 0.0000000000000000000, 0.0000000000000000000 ) ) ;
#107 = DIRECTION ( 'NONE',  ( -1.000000000000000000, 0.0000000000000000000, 0.0000000000000000000 ) ) ;
#108 = FACE_OUTER_BOUND ( 'NONE', #184, .T. ) ;
#109 = DIRECTION ( 'NONE',  ( 0.0000000000000000000, 0.0000000000000000000, -1.000000000000000000 ) ) ;
#110 = DIRECTION ( 'NONE',  ( -1.000000000000000000, 0.0000000000000000000, 0.0000000000000000000 ) ) ;
#111 = DIRECTION ( 'NONE',  ( 0.0000000000000000000, 0.0000000000000000000, -1.000000000000000000 ) ) ;
#112 = AXIS2_PLACEMENT_3D ( 'NONE', #114, #111, #110 ) ;
#113 = CYLINDRICAL_SURFACE ( 'NONE', #112, 4.999999999999997300 ) ;
#114 = CARTESIAN_POINT ( 'NONE',  ( -30.00000000000000000, 0.0000000000000000000, 1.600000000000000100 ) ) ;
#115 = DIRECTION ( 'NONE',  ( 1.000000000000000000, 0.0000000000000000000, 0.0000000000000000000 ) ) ;
#116 = CARTESIAN_POINT ( 'NONE',  ( -34.99999999999999300, 0.0000000000000000000, 0.0000000000000000000 ) ) ;
#117 = DIRECTION ( 'NONE',  ( 0.0000000000000000000, 0.0000000000000000000, 1.000000000000000000 ) ) ;
#118 = CARTESIAN_POINT ( 'NONE',  ( -30.00000000000000000, 0.0000000000000000000, 0.0000000000000000000 ) ) ;
#119 = FACE_OUTER_BOUND ( 'NONE', #158, .T. ) ;
#120 = AXIS2_PLACEMENT_3D ( 'NONE', #118, #117, #115 ) ;
#121 = CIRCLE ( 'NONE', #120, 4.999999999999997300 ) ;
#122 = DIRECTION ( 'NONE',  ( -0.9860132971832692400, -0.1666666666666667400, 0.0000000000000000000 ) ) ;
#123 = VECTOR ( 'NONE', #122, 1000.000000000000100 ) ;
#124 = CARTESIAN_POINT ( 'NONE',  ( -30.83333333333333200, 4.930066485916345400, 1.600000000000000100 ) ) ;
#125 = CARTESIAN_POINT ( 'NONE',  ( -1.666666666666667400, 9.860132971832694400, 1.600000000000000100 ) ) ;
#126 = CARTESIAN_POINT ( 'NONE',  ( -34.99999999999999300, 0.0000000000000000000, 1.600000000000000100 ) ) ;
#127 = CARTESIAN_POINT ( 'NONE',  ( -30.83333333333333200, -4.930066485916344600, 1.600000000000000100 ) ) ;
#128 = LINE ( 'NONE', #124, #123 ) ;
#129 = CARTESIAN_POINT ( 'NONE',  ( -30.83333333333333200, -4.930066485916344600, 0.0000000000000000000 ) ) ;
#130 = VECTOR ( 'NONE', #133, 1000.000000000000000 ) ;
#131 = CARTESIAN_POINT ( 'NONE',  ( -30.83333333333333200, -4.930066485916344600, 1.600000000000000100 ) ) ;
#132 = LINE ( 'NONE', #131, #130 ) ;
#133 = DIRECTION ( 'NONE',  ( 0.0000000000000000000, 0.0000000000000000000, -1.000000000000000000 ) ) ;
#134 = CARTESIAN_POINT ( 'NONE',  ( -30.83333333333333200, 4.930066485916345400, 1.600000000000000100 ) ) ;
#135 = DIRECTION ( 'NONE',  ( 1.000000000000000000, 0.0000000000000000000, 0.0000000000000000000 ) ) ;
#136 = DIRECTION ( 'NONE',  ( 0.0000000000000000000, 0.0000000000000000000, 1.000000000000000000 ) ) ;
#137 = CARTESIAN_POINT ( 'NONE',  ( -30.00000000000000000, 0.0000000000000000000, 1.600000000000000100 ) ) ;
#138 = AXIS2_PLACEMENT_3D ( 'NONE', #137, #136, #135 ) ;
#139 = CIRCLE ( 'NONE', #138, 4.999999999999997300 ) ;
#140 = PLANE ( 'NONE',  #235 ) ;
#141 = DIRECTION ( 'NONE',  ( -0.7071067811865477900, 0.7071067811865473500, 0.0000000000000000000 ) ) ;
#142 = DIRECTION ( 'NONE',  ( 0.7071067811865473500, 0.7071067811865477900, 0.0000000000000000000 ) ) ;
#143 = CARTESIAN_POINT ( 'NONE',  ( -5.656854249492380600, -7.724940478959219100E-016, 1.600000000000000100 ) ) ;
#144 = AXIS2_PLACEMENT_3D ( 'NONE', #143, #142, #141 ) ;
#145 = PLANE ( 'NONE',  #144 ) ;
#146 = FACE_OUTER_BOUND ( 'NONE', #19, .T. ) ;
#147 = FACE_OUTER_BOUND ( 'NONE', #18, .T. ) ;
#148 = DIRECTION ( 'NONE',  ( 0.0000000000000000000, 0.0000000000000000000, -1.000000000000000000 ) ) ;
#149 = VECTOR ( 'NONE', #148, 1000.000000000000000 ) ;
#150 = CARTESIAN_POINT ( 'NONE',  ( -5.656854249492380600, -7.724940478959219100E-016, 1.600000000000000100 ) ) ;
#151 = LINE ( 'NONE', #150, #149 ) ;
#152 = ORIENTED_EDGE ( 'NONE', *, *, #153, .T. ) ;
#153 = EDGE_CURVE ( 'NONE', #164, #154, #103, .T. ) ;
#154 = VERTEX_POINT ( 'NONE', #116 ) ;
#155 = ORIENTED_EDGE ( 'NONE', *, *, #156, .T. ) ;
#156 = EDGE_CURVE ( 'NONE', #154, #171, #121, .T. ) ;
#157 = EDGE_LOOP ( 'NONE', ( #175, #178, #179, #182, #167 ) ) ;
#158 = EDGE_LOOP ( 'NONE', ( #162, #152, #155, #172 ) ) ;
#159 = ORIENTED_EDGE ( 'NONE', *, *, #2, .T. ) ;
#160 = ORIENTED_EDGE ( 'NONE', *, *, #38, .F. ) ;
#161 = ADVANCED_FACE ( 'NONE', ( #119 ), #113, .T. ) ;
#162 = ORIENTED_EDGE ( 'NONE', *, *, #163, .F. ) ;
#163 = EDGE_CURVE ( 'NONE', #164, #165, #74, .T. ) ;
#164 = VERTEX_POINT ( 'NONE', #126 ) ;
#165 = VERTEX_POINT ( 'NONE', #127 ) ;
#166 = VERTEX_POINT ( 'NONE', #125 ) ;
#167 = ORIENTED_EDGE ( 'NONE', *, *, #168, .T. ) ;
#168 = EDGE_CURVE ( 'NONE', #166, #177, #128, .T. ) ;
#169 = EDGE_LOOP ( 'NONE', ( #219, #223, #226, #185 ) ) ;
#170 = MANIFOLD_SOLID_BREP ( 'NONE', #174 ) ;
#171 = VERTEX_POINT ( 'NONE', #129 ) ;
#172 = ORIENTED_EDGE ( 'NONE', *, *, #173, .F. ) ;
#173 = EDGE_CURVE ( 'NONE', #165, #171, #132, .T. ) ;
#174 = CLOSED_SHELL ( 'NONE', ( #161, #191, #187, #58, #40, #53, #35, #6, #20, #7, #62 ) ) ;
#175 = ORIENTED_EDGE ( 'NONE', *, *, #176, .T. ) ;
#176 = EDGE_CURVE ( 'NONE', #177, #164, #139, .T. ) ;
#177 = VERTEX_POINT ( 'NONE', #134 ) ;
#178 = ORIENTED_EDGE ( 'NONE', *, *, #163, .T. ) ;
#179 = ORIENTED_EDGE ( 'NONE', *, *, #180, .T. ) ;
#180 = EDGE_CURVE ( 'NONE', #165, #181, #65, .T. ) ;
#181 = VERTEX_POINT ( 'NONE', #403 ) ;
#182 = ORIENTED_EDGE ( 'NONE', *, *, #183, .T. ) ;
#183 = EDGE_CURVE ( 'NONE', #181, #166, #337, .T. ) ;
#184 = EDGE_LOOP ( 'NONE', ( #160, #17, #15, #159 ) ) ;
#185 = ORIENTED_EDGE ( 'NONE', *, *, #186, .F. ) ;
#186 = EDGE_CURVE ( 'NONE', #222, #228, #408, .T. ) ;
#187 = ADVANCED_FACE ( 'NONE', ( #404, #336 ), #409, .F. ) ;
#188 = EDGE_LOOP ( 'NONE', ( #189, #207, #210, #213, #215 ) ) ;
#189 = ORIENTED_EDGE ( 'NONE', *, *, #206, .F. ) ;
#190 = VERTEX_POINT ( 'NONE', #331 ) ;
#191 = ADVANCED_FACE ( 'NONE', ( #378, #377 ), #376, .T. ) ;
#192 = FACE_OUTER_BOUND ( 'NONE', #41, .T. ) ;
#193 = DIRECTION ( 'NONE',  ( -0.7071067811865475700, -0.7071067811865474600, 0.0000000000000000000 ) ) ;
#194 = VECTOR ( 'NONE', #193, 1000.000000000000000 ) ;
#195 = CARTESIAN_POINT ( 'NONE',  ( -5.656854249492380600, -7.724940478959219100E-016, 0.0000000000000000000 ) ) ;
#196 = DIRECTION ( 'NONE',  ( 0.9860132971832692400, 0.1666666666666667400, 0.0000000000000000000 ) ) ;
#197 = DIRECTION ( 'NONE',  ( 0.1666666666666667700, -0.9860132971832693500, 0.0000000000000000000 ) ) ;
#198 = CARTESIAN_POINT ( 'NONE',  ( -30.83333333333333200, 4.930066485916345400, 1.600000000000000100 ) ) ;
#199 = AXIS2_PLACEMENT_3D ( 'NONE', #198, #197, #196 ) ;
#200 = PLANE ( 'NONE',  #199 ) ;
#201 = LINE ( 'NONE', #195, #194 ) ;
#202 = FACE_OUTER_BOUND ( 'NONE', #33, .T. ) ;
#203 = DIRECTION ( 'NONE',  ( 0.0000000000000000000, 0.0000000000000000000, -1.000000000000000000 ) ) ;
#204 = VECTOR ( 'NONE', #203, 1000.000000000000000 ) ;
#205 = CARTESIAN_POINT ( 'NONE',  ( -1.666666666666667400, 9.860132971832694400, 1.600000000000000100 ) ) ;
#206 = EDGE_CURVE ( 'NONE', #190, #154, #321, .T. ) ;
#207 = ORIENTED_EDGE ( 'NONE', *, *, #208, .F. ) ;
#208 = EDGE_CURVE ( 'NONE', #209, #190, #317, .T. ) ;
#209 = VERTEX_POINT ( 'NONE', #313 ) ;
#210 = ORIENTED_EDGE ( 'NONE', *, *, #211, .F. ) ;
#211 = EDGE_CURVE ( 'NONE', #212, #209, #312, .T. ) ;
#212 = VERTEX_POINT ( 'NONE', #307 ) ;
#213 = ORIENTED_EDGE ( 'NONE', *, *, #214, .F. ) ;
#214 = EDGE_CURVE ( 'NONE', #171, #212, #306, .T. ) ;
#215 = ORIENTED_EDGE ( 'NONE', *, *, #156, .F. ) ;
#216 = EDGE_LOOP ( 'NONE', ( #217, #39, #60, #37 ) ) ;
#217 = ORIENTED_EDGE ( 'NONE', *, *, #218, .T. ) ;
#218 = EDGE_CURVE ( 'NONE', #61, #50, #268, .T. ) ;
#219 = ORIENTED_EDGE ( 'NONE', *, *, #220, .F. ) ;
#220 = EDGE_CURVE ( 'NONE', #221, #222, #264, .T. ) ;
#221 = VERTEX_POINT ( 'NONE', #302 ) ;
#222 = VERTEX_POINT ( 'NONE', #301 ) ;
#223 = ORIENTED_EDGE ( 'NONE', *, *, #224, .F. ) ;
#224 = EDGE_CURVE ( 'NONE', #225, #221, #300, .T. ) ;
#225 = VERTEX_POINT ( 'NONE', #296 ) ;
#226 = ORIENTED_EDGE ( 'NONE', *, *, #227, .F. ) ;
#227 = EDGE_CURVE ( 'NONE', #228, #225, #295, .T. ) ;
#228 = VERTEX_POINT ( 'NONE', #291 ) ;
#229 = DIRECTION ( 'NONE',  ( 0.0000000000000000000, 0.0000000000000000000, -1.000000000000000000 ) ) ;
#230 = VECTOR ( 'NONE', #229, 1000.000000000000000 ) ;
#231 = CARTESIAN_POINT ( 'NONE',  ( 5.656854249492378800, 0.0000000000000000000, 1.600000000000000100 ) ) ;
#232 = DIRECTION ( 'NONE',  ( 0.7071067811865474600, -0.7071067811865474600, 0.0000000000000000000 ) ) ;
#233 = DIRECTION ( 'NONE',  ( -0.7071067811865475700, -0.7071067811865475700, 0.0000000000000000000 ) ) ;
#234 = CARTESIAN_POINT ( 'NONE',  ( 0.0000000000000000000, 5.656854249492378800, 1.600000000000000100 ) ) ;
#235 = AXIS2_PLACEMENT_3D ( 'NONE', #234, #233, #232 ) ;
#236 = LINE ( 'NONE', #231, #230 ) ;
#237 = LINE ( 'NONE', #205, #204 ) ;
#238 = DIRECTION ( 'NONE',  ( -0.7071067811865474600, 0.7071067811865474600, 0.0000000000000000000 ) ) ;
#239 = VECTOR ( 'NONE', #238, 1000.000000000000100 ) ;
#240 = CARTESIAN_POINT ( 'NONE',  ( 0.0000000000000000000, 5.656854249492378800, 0.0000000000000000000 ) ) ;
#241 = LINE ( 'NONE', #240, #239 ) ;
#242 = CARTESIAN_POINT ( 'NONE',  ( 5.656854249492378800, 0.0000000000000000000, 0.0000000000000000000 ) ) ;
#243 = DIRECTION ( 'NONE',  ( 0.7071067811865472400, 0.7071067811865479100, 0.0000000000000000000 ) ) ;
#244 = VECTOR ( 'NONE', #243, 999.9999999999998900 ) ;
#245 = CARTESIAN_POINT ( 'NONE',  ( 3.022213555803343600E-015, -5.656854249492380600, 0.0000000000000000000 ) ) ;
#246 = LINE ( 'NONE', #245, #244 ) ;
#247 = DIRECTION ( 'NONE',  ( 0.0000000000000000000, 0.0000000000000000000, -1.000000000000000000 ) ) ;
#248 = VECTOR ( 'NONE', #247, 1000.000000000000000 ) ;
#249 = CARTESIAN_POINT ( 'NONE',  ( 3.022213555803343600E-015, -5.656854249492380600, 1.600000000000000100 ) ) ;
#250 = DIRECTION ( 'NONE',  ( -0.7071067811865472400, -0.7071067811865479100, 0.0000000000000000000 ) ) ;
#251 = DIRECTION ( 'NONE',  ( -0.7071067811865479100, 0.7071067811865472400, 0.0000000000000000000 ) ) ;
#252 = CARTESIAN_POINT ( 'NONE',  ( 3.022213555803343600E-015, -5.656854249492380600, 1.600000000000000100 ) ) ;
#253 = AXIS2_PLACEMENT_3D ( 'NONE', #252, #251, #250 ) ;
#254 = PLANE ( 'NONE',  #253 ) ;
#255 = LINE ( 'NONE', #249, #248 ) ;
#256 = FACE_OUTER_BOUND ( 'NONE', #12, .T. ) ;
#257 = DIRECTION ( 'NONE',  ( 0.0000000000000000000, 0.0000000000000000000, -1.000000000000000000 ) ) ;
#258 = VECTOR ( 'NONE', #257, 1000.000000000000000 ) ;
#259 = CARTESIAN_POINT ( 'NONE',  ( 0.0000000000000000000, 5.656854249492378800, 1.600000000000000100 ) ) ;
#260 = LINE ( 'NONE', #259, #258 ) ;
#261 = DIRECTION ( 'NONE',  ( 0.7071067811865472400, 0.7071067811865479100, 0.0000000000000000000 ) ) ;
#262 = VECTOR ( 'NONE', #261, 999.9999999999998900 ) ;
#263 = CARTESIAN_POINT ( 'NONE',  ( 3.022213555803343600E-015, -5.656854249492380600, 1.600000000000000100 ) ) ;
#264 = LINE ( 'NONE', #263, #262 ) ;
#265 = DIRECTION ( 'NONE',  ( 0.7071067811865477900, -0.7071067811865473500, 0.0000000000000000000 ) ) ;
#266 = VECTOR ( 'NONE', #265, 1000.000000000000000 ) ;
#267 = CARTESIAN_POINT ( 'NONE',  ( -5.656854249492380600, -7.724940478959219100E-016, 0.0000000000000000000 ) ) ;
#268 = LINE ( 'NONE', #267, #266 ) ;
#269 = PRODUCT_DEFINITION_SHAPE ( 'NONE', 'NONE',  #358 ) ;
#270 = PRODUCT_RELATED_PRODUCT_CATEGORY ( 'detail', '', ( #367 ) ) ;
#271 = CC_DESIGN_SECURITY_CLASSIFICATION ( #382, ( #401 ) ) ;
#272 = CC_DESIGN_APPROVAL ( #280, ( #382 ) ) ;
#273 = APPROVAL_DATE_TIME ( #274, #280 ) ;
#274 = DATE_AND_TIME ( #275, #276 ) ;
#275 = CALENDAR_DATE ( 2009, 1, 5 ) ;
#276 = LOCAL_TIME ( 9, 56, 29.00000000000000000, #277 ) ;
#277 = COORDINATED_UNIVERSAL_TIME_OFFSET ( 9, 0, .AHEAD. ) ;
#278 = APPROVAL_PERSON_ORGANIZATION ( #282, #280, #279 ) ;
#279 = APPROVAL_ROLE ( '' ) ;
#280 = APPROVAL ( #281, 'UNSPECIFIED' ) ;
#281 = APPROVAL_STATUS ( 'not_yet_approved' ) ;
#282 = PERSON_AND_ORGANIZATION ( #366, #365 ) ;
#283 = CC_DESIGN_DATE_AND_TIME_ASSIGNMENT ( #285, #284, ( #382 ) ) ;
#284 = DATE_TIME_ROLE ( 'classification_date' ) ;
#285 = DATE_AND_TIME ( #286, #287 ) ;
#286 = CALENDAR_DATE ( 2009, 1, 5 ) ;
#287 = LOCAL_TIME ( 9, 56, 29.00000000000000000, #288 ) ;
#288 = COORDINATED_UNIVERSAL_TIME_OFFSET ( 9, 0, .AHEAD. ) ;
#289 =( LENGTH_UNIT ( ) NAMED_UNIT ( * ) SI_UNIT ( .MILLI., .METRE. ) );
#290 = DIRECTION ( 'NONE',  ( 0.0000000000000000000, 0.0000000000000000000, 1.000000000000000000 ) ) ;
#291 = CARTESIAN_POINT ( 'NONE',  ( -3.469446951953614200E-015, 5.656854249492377900, 1.600000000000000100 ) ) ;
#292 = DIRECTION ( 'NONE',  ( -0.7071067811865475700, -0.7071067811865474600, 0.0000000000000000000 ) ) ;
#293 = VECTOR ( 'NONE', #292, 1000.000000000000000 ) ;
#294 = CARTESIAN_POINT ( 'NONE',  ( -5.656854249492380600, -7.724940478959219100E-016, 1.600000000000000100 ) ) ;
#295 = LINE ( 'NONE', #294, #293 ) ;
#296 = CARTESIAN_POINT ( 'NONE',  ( -5.656854249492380600, -7.724940478959219100E-016, 1.600000000000000100 ) ) ;
#297 = DIRECTION ( 'NONE',  ( 0.7071067811865477900, -0.7071067811865473500, 0.0000000000000000000 ) ) ;
#298 = VECTOR ( 'NONE', #297, 1000.000000000000000 ) ;
#299 = CARTESIAN_POINT ( 'NONE',  ( -5.656854249492380600, -7.724940478959219100E-016, 1.600000000000000100 ) ) ;
#300 = LINE ( 'NONE', #299, #298 ) ;
#301 = CARTESIAN_POINT ( 'NONE',  ( 5.656854249492378800, 0.0000000000000000000, 1.600000000000000100 ) ) ;
#302 = CARTESIAN_POINT ( 'NONE',  ( 3.022213555803343600E-015, -5.656854249492380600, 1.600000000000000100 ) ) ;
#303 = DIRECTION ( 'NONE',  ( 0.9860132971832692400, -0.1666666666666667700, 0.0000000000000000000 ) ) ;
#304 = VECTOR ( 'NONE', #303, 1000.000000000000100 ) ;
#305 = CARTESIAN_POINT ( 'NONE',  ( -30.83333333333333200, -4.930066485916344600, 0.0000000000000000000 ) ) ;
#306 = LINE ( 'NONE', #305, #304 ) ;
#307 = CARTESIAN_POINT ( 'NONE',  ( -1.666666666666672700, -9.860132971832692700, 0.0000000000000000000 ) ) ;
#308 = DIRECTION ( 'NONE',  ( 1.000000000000000000, 0.0000000000000000000, 0.0000000000000000000 ) ) ;
#309 = DIRECTION ( 'NONE',  ( 0.0000000000000000000, 0.0000000000000000000, 1.000000000000000000 ) ) ;
#310 = CARTESIAN_POINT ( 'NONE',  ( 0.0000000000000000000, 0.0000000000000000000, 0.0000000000000000000 ) ) ;
#311 = AXIS2_PLACEMENT_3D ( 'NONE', #310, #309, #308 ) ;
#312 = CIRCLE ( 'NONE', #311, 10.00000000000000000 ) ;
#313 = CARTESIAN_POINT ( 'NONE',  ( -1.666666666666667400, 9.860132971832694400, 0.0000000000000000000 ) ) ;
#314 = DIRECTION ( 'NONE',  ( -0.9860132971832692400, -0.1666666666666667400, 0.0000000000000000000 ) ) ;
#315 = VECTOR ( 'NONE', #314, 1000.000000000000100 ) ;
#316 = CARTESIAN_POINT ( 'NONE',  ( -30.83333333333333200, 4.930066485916345400, 0.0000000000000000000 ) ) ;
#317 = LINE ( 'NONE', #316, #315 ) ;
#318 = DIRECTION ( 'NONE',  ( 1.000000000000000000, 0.0000000000000000000, 0.0000000000000000000 ) ) ;
#319 = DIRECTION ( 'NONE',  ( 0.0000000000000000000, 0.0000000000000000000, 1.000000000000000000 ) ) ;
#320 = AXIS2_PLACEMENT_3D ( 'NONE', #375, #319, #318 ) ;
#321 = CIRCLE ( 'NONE', #320, 4.999999999999997300 ) ;
#322 = DIRECTION ( 'NONE',  ( 1.000000000000000000, 0.0000000000000000000, 0.0000000000000000000 ) ) ;
#323 = CARTESIAN_POINT ( 'NONE',  ( 0.0000000000000000000, 0.0000000000000000000, 0.0000000000000000000 ) ) ;
#324 = AXIS2_PLACEMENT_3D ( 'NONE', #323, #290, #322 ) ;
#325 = SHAPE_DEFINITION_REPRESENTATION ( #269, #326 ) ;
#326 = ADVANCED_BREP_SHAPE_REPRESENTATION ( 'AC-25-8', ( #170, #324 ), #327 ) ;
#327 =( GEOMETRIC_REPRESENTATION_CONTEXT ( 3 ) GLOBAL_UNCERTAINTY_ASSIGNED_CONTEXT ( ( #328 ) ) GLOBAL_UNIT_ASSIGNED_CONTEXT ( ( #289, #330, #329 ) ) REPRESENTATION_CONTEXT ( 'NONE', 'WORKASPACE' ) );
#328 = UNCERTAINTY_MEASURE_WITH_UNIT (LENGTH_MEASURE( 1.000000000000000100E-005 ), #289, 'distance_accuracy_value', 'NONE');
#329 =( NAMED_UNIT ( * ) SI_UNIT ( $, .STERADIAN. ) SOLID_ANGLE_UNIT ( ) );
#330 =( NAMED_UNIT ( * ) PLANE_ANGLE_UNIT ( ) SI_UNIT ( $, .RADIAN. ) );
#331 = CARTESIAN_POINT ( 'NONE',  ( -30.83333333333333200, 4.930066485916345400, 0.0000000000000000000 ) ) ;
#332 = DIRECTION ( 'NONE',  ( 1.000000000000000000, 0.0000000000000000000, 0.0000000000000000000 ) ) ;
#333 = DIRECTION ( 'NONE',  ( 0.0000000000000000000, 0.0000000000000000000, 1.000000000000000000 ) ) ;
#334 = CARTESIAN_POINT ( 'NONE',  ( -30.00000000000000000, 0.0000000000000000000, 0.0000000000000000000 ) ) ;
#335 = AXIS2_PLACEMENT_3D ( 'NONE', #334, #333, #332 ) ;
#336 = FACE_BOUND ( 'NONE', #216, .T. ) ;
#337 = CIRCLE ( 'NONE', #412, 10.00000000000000000 ) ;
#338 = CC_DESIGN_DATE_AND_TIME_ASSIGNMENT ( #340, #339, ( #358 ) ) ;
#339 = DATE_TIME_ROLE ( 'creation_date' ) ;
#340 = DATE_AND_TIME ( #341, #342 ) ;
#341 = CALENDAR_DATE ( 2009, 1, 5 ) ;
#342 = LOCAL_TIME ( 9, 56, 29.00000000000000000, #343 ) ;
#343 = COORDINATED_UNIVERSAL_TIME_OFFSET ( 9, 0, .AHEAD. ) ;
#344 = CC_DESIGN_PERSON_AND_ORGANIZATION_ASSIGNMENT ( #346, #345, ( #358 ) ) ;
#345 = PERSON_AND_ORGANIZATION_ROLE ( 'creator' ) ;
#346 = PERSON_AND_ORGANIZATION ( #366, #365 ) ;
#347 = CC_DESIGN_APPROVAL ( #355, ( #358 ) ) ;
#348 = APPROVAL_DATE_TIME ( #349, #355 ) ;
#349 = DATE_AND_TIME ( #350, #351 ) ;
#350 = CALENDAR_DATE ( 2009, 1, 5 ) ;
#351 = LOCAL_TIME ( 9, 56, 29.00000000000000000, #352 ) ;
#352 = COORDINATED_UNIVERSAL_TIME_OFFSET ( 9, 0, .AHEAD. ) ;
#353 = APPROVAL_PERSON_ORGANIZATION ( #357, #355, #354 ) ;
#354 = APPROVAL_ROLE ( '' ) ;
#355 = APPROVAL ( #356, 'UNSPECIFIED' ) ;
#356 = APPROVAL_STATUS ( 'not_yet_approved' ) ;
#357 = PERSON_AND_ORGANIZATION ( #366, #365 ) ;
#358 = PRODUCT_DEFINITION ( 'UNKNOWN', '', #401, #359 ) ;
#359 = DESIGN_CONTEXT ( 'detailed design', #361, 'design' ) ;
#360 = APPLICATION_PROTOCOL_DEFINITION ( 'international standard', 'config_control_design', 1994, #361 ) ;
#361 = APPLICATION_CONTEXT ( 'configuration controlled 3d designs of mechanical parts and assemblies' ) ;
#362 = CC_DESIGN_PERSON_AND_ORGANIZATION_ASSIGNMENT ( #364, #363, ( #367 ) ) ;
#363 = PERSON_AND_ORGANIZATION_ROLE ( 'design_owner' ) ;
#364 = PERSON_AND_ORGANIZATION ( #366, #365 ) ;
#365 = ORGANIZATION ( 'UNSPECIFIED', 'UNSPECIFIED', '' ) ;
#366 = PERSON ( 'UNSPECIFIED', 'UNSPECIFIED', 'UNSPECIFIED', ('UNSPECIFIED'), ('UNSPECIFIED'), ('UNSPECIFIED') ) ;
#367 = PRODUCT ( 'AC-25-8', 'AC-25-8', '', ( #368 ) ) ;
#368 = MECHANICAL_CONTEXT ( 'NONE', #370, 'mechanical' ) ;
#369 = APPLICATION_PROTOCOL_DEFINITION ( 'international standard', 'config_control_design', 1994, #370 ) ;
#370 = APPLICATION_CONTEXT ( 'configuration controlled 3d designs of mechanical parts and assemblies' ) ;
#371 = DIRECTION ( 'NONE',  ( 1.000000000000000000, 0.0000000000000000000, 0.0000000000000000000 ) ) ;
#372 = DIRECTION ( 'NONE',  ( 0.0000000000000000000, 0.0000000000000000000, 1.000000000000000000 ) ) ;
#373 = CARTESIAN_POINT ( 'NONE',  ( -30.00000000000000000, 0.0000000000000000000, 1.600000000000000100 ) ) ;
#374 = AXIS2_PLACEMENT_3D ( 'NONE', #373, #372, #371 ) ;
#375 = CARTESIAN_POINT ( 'NONE',  ( -30.00000000000000000, 0.0000000000000000000, 0.0000000000000000000 ) ) ;
#376 = PLANE ( 'NONE',  #374 ) ;
#377 = FACE_BOUND ( 'NONE', #169, .T. ) ;
#378 = FACE_OUTER_BOUND ( 'NONE', #157, .T. ) ;
#379 = CC_DESIGN_PERSON_AND_ORGANIZATION_ASSIGNMENT ( #381, #380, ( #382 ) ) ;
#380 = PERSON_AND_ORGANIZATION_ROLE ( 'classification_officer' ) ;
#381 = PERSON_AND_ORGANIZATION ( #366, #365 ) ;
#382 = SECURITY_CLASSIFICATION ( '', '', #383 ) ;
#383 = SECURITY_CLASSIFICATION_LEVEL ( 'unclassified' ) ;
#384 = CC_DESIGN_PERSON_AND_ORGANIZATION_ASSIGNMENT ( #386, #385, ( #401 ) ) ;
#385 = PERSON_AND_ORGANIZATION_ROLE ( 'design_supplier' ) ;
#386 = PERSON_AND_ORGANIZATION ( #366, #365 ) ;
#387 = CC_DESIGN_PERSON_AND_ORGANIZATION_ASSIGNMENT ( #389, #388, ( #401 ) ) ;
#388 = PERSON_AND_ORGANIZATION_ROLE ( 'creator' ) ;
#389 = PERSON_AND_ORGANIZATION ( #366, #365 ) ;
#390 = CC_DESIGN_APPROVAL ( #398, ( #401 ) ) ;
#391 = APPROVAL_DATE_TIME ( #392, #398 ) ;
#392 = DATE_AND_TIME ( #393, #394 ) ;
#393 = CALENDAR_DATE ( 2009, 1, 5 ) ;
#394 = LOCAL_TIME ( 9, 56, 29.00000000000000000, #395 ) ;
#395 = COORDINATED_UNIVERSAL_TIME_OFFSET ( 9, 0, .AHEAD. ) ;
#396 = APPROVAL_PERSON_ORGANIZATION ( #400, #398, #397 ) ;
#397 = APPROVAL_ROLE ( '' ) ;
#398 = APPROVAL ( #399, 'UNSPECIFIED' ) ;
#399 = APPROVAL_STATUS ( 'not_yet_approved' ) ;
#400 = PERSON_AND_ORGANIZATION ( #366, #365 ) ;
#401 = PRODUCT_DEFINITION_FORMATION_WITH_SPECIFIED_SOURCE ( 'ANY', '', #367, .NOT_KNOWN. ) ;
#402 = DIRECTION ( 'NONE',  ( 1.000000000000000000, 0.0000000000000000000, 0.0000000000000000000 ) ) ;
#403 = CARTESIAN_POINT ( 'NONE',  ( -1.666666666666672700, -9.860132971832692700, 1.600000000000000100 ) ) ;
#404 = FACE_OUTER_BOUND ( 'NONE', #188, .T. ) ;
#405 = DIRECTION ( 'NONE',  ( -0.7071067811865474600, 0.7071067811865474600, 0.0000000000000000000 ) ) ;
#406 = VECTOR ( 'NONE', #405, 1000.000000000000100 ) ;
#407 = CARTESIAN_POINT ( 'NONE',  ( 0.0000000000000000000, 5.656854249492378800, 1.600000000000000100 ) ) ;
#408 = LINE ( 'NONE', #407, #406 ) ;
#409 = PLANE ( 'NONE',  #335 ) ;
#410 = DIRECTION ( 'NONE',  ( 0.0000000000000000000, 0.0000000000000000000, 1.000000000000000000 ) ) ;
#411 = CARTESIAN_POINT ( 'NONE',  ( 0.0000000000000000000, 0.0000000000000000000, 1.600000000000000100 ) ) ;
#412 = AXIS2_PLACEMENT_3D ( 'NONE', #411, #410, #402 ) ;
ENDSEC;
END-ISO-10303-21;
