ISO-10303-21;
HEADER;
FILE_DESCRIPTION (( 'STEP AP203' ),
    '1' );
FILE_NAME ('AC-25-7.STEP',
    '2009-04-08T04:32:05',
    ( ' ' ),
    ( ' ' ),
    'SwSTEP 2.0',
    'SolidWorks 2007',
    '' );
FILE_SCHEMA (( 'CONFIG_CONTROL_DESIGN' ));
ENDSEC;

DATA;
#1 = EDGE_LOOP ( 'NONE', ( #7, #3, #6, #5 ) ) ;
#2 = EDGE_CURVE ( 'NONE', #50, #337, #323, .T. ) ;
#3 = ORIENTED_EDGE ( 'NONE', *, *, #2, .F. ) ;
#4 = ADVANCED_FACE ( 'NONE', ( #319 ), #318, .F. ) ;
#5 = ORIENTED_EDGE ( 'NONE', *, *, #11, .T. ) ;
#6 = ORIENTED_EDGE ( 'NONE', *, *, #49, .F. ) ;
#7 = ORIENTED_EDGE ( 'NONE', *, *, #339, .T. ) ;
#8 = ADVANCED_FACE ( 'NONE', ( #313 ), #312, .T. ) ;
#9 = ORIENTED_EDGE ( 'NONE', *, *, #11, .F. ) ;
#10 = ORIENTED_EDGE ( 'NONE', *, *, #36, .T. ) ;
#11 = EDGE_CURVE ( 'NONE', #23, #110, #311, .T. ) ;
#12 = ORIENTED_EDGE ( 'NONE', *, *, #26, .F. ) ;
#13 = ORIENTED_EDGE ( 'NONE', *, *, #107, .T. ) ;
#14 = EDGE_CURVE ( 'NONE', #25, #17, #303, .T. ) ;
#15 = ORIENTED_EDGE ( 'NONE', *, *, #14, .T. ) ;
#16 = ORIENTED_EDGE ( 'NONE', *, *, #35, .T. ) ;
#17 = VERTEX_POINT ( 'NONE', #299 ) ;
#18 = EDGE_LOOP ( 'NONE', ( #22, #15, #16, #37 ) ) ;
#19 = EDGE_CURVE ( 'NONE', #25, #24, #298, .T. ) ;
#20 = ADVANCED_FACE ( 'NONE', ( #293 ), #292, .T. ) ;
#21 = MANIFOLD_SOLID_BREP ( 'NONE', #85 ) ;
#22 = ORIENTED_EDGE ( 'NONE', *, *, #19, .F. ) ;
#23 = VERTEX_POINT ( 'NONE', #287 ) ;
#24 = VERTEX_POINT ( 'NONE', #286 ) ;
#25 = VERTEX_POINT ( 'NONE', #285 ) ;
#26 = EDGE_CURVE ( 'NONE', #24, #23, #284, .T. ) ;
#27 = ADVANCED_FACE ( 'NONE', ( #280, #279 ), #278, .T. ) ;
#28 = EDGE_LOOP ( 'NONE', ( #31, #33, #30, #48, #51 ) ) ;
#29 = VERTEX_POINT ( 'NONE', #273 ) ;
#30 = ORIENTED_EDGE ( 'NONE', *, *, #26, .T. ) ;
#31 = ORIENTED_EDGE ( 'NONE', *, *, #32, .T. ) ;
#32 = EDGE_CURVE ( 'NONE', #34, #25, #272, .T. ) ;
#33 = ORIENTED_EDGE ( 'NONE', *, *, #19, .T. ) ;
#34 = VERTEX_POINT ( 'NONE', #267 ) ;
#35 = EDGE_CURVE ( 'NONE', #17, #38, #265, .T. ) ;
#36 = EDGE_CURVE ( 'NONE', #24, #38, #266, .T. ) ;
#37 = ORIENTED_EDGE ( 'NONE', *, *, #36, .F. ) ;
#38 = VERTEX_POINT ( 'NONE', #257 ) ;
#39 = VERTEX_POINT ( 'NONE', #256 ) ;
#40 = ORIENTED_EDGE ( 'NONE', *, *, #41, .F. ) ;
#41 = EDGE_CURVE ( 'NONE', #43, #46, #255, .T. ) ;
#42 = EDGE_LOOP ( 'NONE', ( #40, #45, #326, #328 ) ) ;
#43 = VERTEX_POINT ( 'NONE', #251 ) ;
#44 = EDGE_CURVE ( 'NONE', #39, #43, #250, .T. ) ;
#45 = ORIENTED_EDGE ( 'NONE', *, *, #44, .F. ) ;
#46 = VERTEX_POINT ( 'NONE', #246 ) ;
#47 = EDGE_CURVE ( 'NONE', #50, #34, #245, .T. ) ;
#48 = ORIENTED_EDGE ( 'NONE', *, *, #49, .T. ) ;
#49 = EDGE_CURVE ( 'NONE', #23, #50, #241, .T. ) ;
#50 = VERTEX_POINT ( 'NONE', #236 ) ;
#51 = ORIENTED_EDGE ( 'NONE', *, *, #47, .T. ) ;
#52 = EDGE_LOOP ( 'NONE', ( #53, #54, #55, #56 ) ) ;
#53 = ORIENTED_EDGE ( 'NONE', *, *, #336, .T. ) ;
#54 = ORIENTED_EDGE ( 'NONE', *, *, #93, .F. ) ;
#55 = ORIENTED_EDGE ( 'NONE', *, *, #47, .F. ) ;
#56 = ORIENTED_EDGE ( 'NONE', *, *, #2, .T. ) ;
#57 = ADVANCED_FACE ( 'NONE', ( #235 ), #234, .T. ) ;
#58 = EDGE_LOOP ( 'NONE', ( #59, #60, #62, #63 ) ) ;
#59 = ORIENTED_EDGE ( 'NONE', *, *, #106, .F. ) ;
#60 = ORIENTED_EDGE ( 'NONE', *, *, #61, .F. ) ;
#61 = EDGE_CURVE ( 'NONE', #39, #105, #233, .T. ) ;
#62 = ORIENTED_EDGE ( 'NONE', *, *, #44, .T. ) ;
#63 = ORIENTED_EDGE ( 'NONE', *, *, #64, .T. ) ;
#64 = EDGE_CURVE ( 'NONE', #43, #104, #225, .T. ) ;
#65 = ADVANCED_FACE ( 'NONE', ( #221 ), #220, .T. ) ;
#66 = EDGE_LOOP ( 'NONE', ( #67, #68, #69, #70 ) ) ;
#67 = ORIENTED_EDGE ( 'NONE', *, *, #99, .F. ) ;
#68 = ORIENTED_EDGE ( 'NONE', *, *, #64, .F. ) ;
#69 = ORIENTED_EDGE ( 'NONE', *, *, #41, .T. ) ;
#70 = ORIENTED_EDGE ( 'NONE', *, *, #71, .T. ) ;
#71 = EDGE_CURVE ( 'NONE', #46, #96, #215, .T. ) ;
#72 = ADVANCED_FACE ( 'NONE', ( #210 ), #211, .T. ) ;
#73 = EDGE_LOOP ( 'NONE', ( #74, #75, #76, #77 ) ) ;
#74 = ORIENTED_EDGE ( 'NONE', *, *, #100, .F. ) ;
#75 = ORIENTED_EDGE ( 'NONE', *, *, #71, .F. ) ;
#76 = ORIENTED_EDGE ( 'NONE', *, *, #329, .T. ) ;
#77 = ORIENTED_EDGE ( 'NONE', *, *, #78, .T. ) ;
#78 = EDGE_CURVE ( 'NONE', #29, #97, #205, .T. ) ;
#79 = ADVANCED_FACE ( 'NONE', ( #201 ), #200, .T. ) ;
#80 = EDGE_LOOP ( 'NONE', ( #81, #82, #83, #84 ) ) ;
#81 = ORIENTED_EDGE ( 'NONE', *, *, #95, .F. ) ;
#82 = ORIENTED_EDGE ( 'NONE', *, *, #78, .F. ) ;
#83 = ORIENTED_EDGE ( 'NONE', *, *, #327, .T. ) ;
#84 = ORIENTED_EDGE ( 'NONE', *, *, #61, .T. ) ;
#85 = CLOSED_SHELL ( 'NONE', ( #20, #27, #330, #86, #91, #8, #4, #57, #65, #72, #79 ) ) ;
#86 = ADVANCED_FACE ( 'NONE', ( #195 ), #194, .T. ) ;
#87 = EDGE_LOOP ( 'NONE', ( #88, #89, #92, #90 ) ) ;
#88 = ORIENTED_EDGE ( 'NONE', *, *, #14, .F. ) ;
#89 = ORIENTED_EDGE ( 'NONE', *, *, #32, .F. ) ;
#90 = ORIENTED_EDGE ( 'NONE', *, *, #333, .T. ) ;
#91 = ADVANCED_FACE ( 'NONE', ( #193 ), #188, .F. ) ;
#92 = ORIENTED_EDGE ( 'NONE', *, *, #93, .T. ) ;
#93 = EDGE_CURVE ( 'NONE', #34, #334, #183, .T. ) ;
#94 = EDGE_LOOP ( 'NONE', ( #13, #9, #12, #10 ) ) ;
#95 = EDGE_CURVE ( 'NONE', #97, #105, #179, .T. ) ;
#96 = VERTEX_POINT ( 'NONE', #175 ) ;
#97 = VERTEX_POINT ( 'NONE', #174 ) ;
#98 = ORIENTED_EDGE ( 'NONE', *, *, #100, .T. ) ;
#99 = EDGE_CURVE ( 'NONE', #104, #96, #173, .T. ) ;
#100 = EDGE_CURVE ( 'NONE', #96, #97, #169, .T. ) ;
#101 = ORIENTED_EDGE ( 'NONE', *, *, #95, .T. ) ;
#102 = ORIENTED_EDGE ( 'NONE', *, *, #99, .T. ) ;
#103 = ORIENTED_EDGE ( 'NONE', *, *, #106, .T. ) ;
#104 = VERTEX_POINT ( 'NONE', #165 ) ;
#105 = VERTEX_POINT ( 'NONE', #164 ) ;
#106 = EDGE_CURVE ( 'NONE', #105, #104, #163, .T. ) ;
#107 = EDGE_CURVE ( 'NONE', #38, #110, #159, .T. ) ;
#108 = ORIENTED_EDGE ( 'NONE', *, *, #35, .F. ) ;
#109 = ORIENTED_EDGE ( 'NONE', *, *, #107, .F. ) ;
#110 = VERTEX_POINT ( 'NONE', #155 ) ;
#111 = EDGE_LOOP ( 'NONE', ( #103, #102, #98, #101 ) ) ;
#112 = PRODUCT ( 'AC-25-7', 'AC-25-7', '', ( #113 ) ) ;
#113 = MECHANICAL_CONTEXT ( 'NONE', #115, 'mechanical' ) ;
#114 = APPLICATION_PROTOCOL_DEFINITION ( 'international standard', 'config_control_design', 1994, #115 ) ;
#115 = APPLICATION_CONTEXT ( 'configuration controlled 3d designs of mechanical parts and assemblies' ) ;
#116 = DIRECTION ( 'NONE',  ( 1.000000000000000000, 0.0000000000000000000, 0.0000000000000000000 ) ) ;
#117 = CARTESIAN_POINT ( 'NONE',  ( 0.0000000000000000000, 0.0000000000000000000, 0.0000000000000000000 ) ) ;
#118 = AXIS2_PLACEMENT_3D ( 'NONE', #117, #325, #116 ) ;
#119 = ADVANCED_BREP_SHAPE_REPRESENTATION ( 'AC-25-7', ( #21, #118 ), #120 ) ;
#120 =( GEOMETRIC_REPRESENTATION_CONTEXT ( 3 ) GLOBAL_UNCERTAINTY_ASSIGNED_CONTEXT ( ( #121 ) ) GLOBAL_UNIT_ASSIGNED_CONTEXT ( ( #324, #123, #122 ) ) REPRESENTATION_CONTEXT ( 'NONE', 'WORKASPACE' ) );
#121 = UNCERTAINTY_MEASURE_WITH_UNIT (LENGTH_MEASURE( 1.000000000000000100E-005 ), #324, 'distance_accuracy_value', 'NONE');
#122 =( NAMED_UNIT ( * ) SI_UNIT ( $, .STERADIAN. ) SOLID_ANGLE_UNIT ( ) );
#123 =( NAMED_UNIT ( * ) PLANE_ANGLE_UNIT ( ) SI_UNIT ( $, .RADIAN. ) );
#124 = DIRECTION ( 'NONE',  ( -1.000000000000000000, 0.0000000000000000000, 0.0000000000000000000 ) ) ;
#125 = DIRECTION ( 'NONE',  ( 0.0000000000000000000, 0.0000000000000000000, 1.000000000000000000 ) ) ;
#126 = CARTESIAN_POINT ( 'NONE',  ( 45.00000000000000700, 0.0000000000000000000, -1.000000000000000000 ) ) ;
#127 = AXIS2_PLACEMENT_3D ( 'NONE', #126, #125, #124 ) ;
#128 = CIRCLE ( 'NONE', #127, 4.999999999999997300 ) ;
#129 = CARTESIAN_POINT ( 'NONE',  ( 45.55555555555555700, 4.969039949999531900, -1.000000000000000000 ) ) ;
#130 = DIRECTION ( 'NONE',  ( -0.9938079899999064900, 0.1111111111111111200, 0.0000000000000000000 ) ) ;
#131 = VECTOR ( 'NONE', #130, 1000.000000000000100 ) ;
#132 = CARTESIAN_POINT ( 'NONE',  ( 1.111111111111111200, 9.938079899999065600, -1.000000000000000000 ) ) ;
#133 = LINE ( 'NONE', #132, #131 ) ;
#134 = CARTESIAN_POINT ( 'NONE',  ( 1.111111111111111200, 9.938079899999065600, -1.000000000000000000 ) ) ;
#135 = DIRECTION ( 'NONE',  ( 1.000000000000000000, 0.0000000000000000000, 0.0000000000000000000 ) ) ;
#136 = DIRECTION ( 'NONE',  ( 0.0000000000000000000, 0.0000000000000000000, 1.000000000000000000 ) ) ;
#137 = CARTESIAN_POINT ( 'NONE',  ( 0.0000000000000000000, 0.0000000000000000000, -1.000000000000000000 ) ) ;
#138 = AXIS2_PLACEMENT_3D ( 'NONE', #137, #136, #135 ) ;
#139 = CIRCLE ( 'NONE', #138, 10.00000000000000000 ) ;
#140 = DIRECTION ( 'NONE',  ( 1.000000000000000000, 0.0000000000000000000, 0.0000000000000000000 ) ) ;
#141 = DIRECTION ( 'NONE',  ( 0.0000000000000000000, 0.0000000000000000000, 1.000000000000000000 ) ) ;
#142 = CARTESIAN_POINT ( 'NONE',  ( 0.0000000000000000000, 0.0000000000000000000, -1.000000000000000000 ) ) ;
#143 = AXIS2_PLACEMENT_3D ( 'NONE', #142, #141, #140 ) ;
#144 = PLANE ( 'NONE',  #143 ) ;
#145 = FACE_BOUND ( 'NONE', #111, .T. ) ;
#146 = FACE_OUTER_BOUND ( 'NONE', #331, .T. ) ;
#147 = DIRECTION ( 'NONE',  ( 0.7071067811865476800, -0.7071067811865474600, 0.0000000000000000000 ) ) ;
#148 = VECTOR ( 'NONE', #147, 1000.000000000000000 ) ;
#149 = CARTESIAN_POINT ( 'NONE',  ( -5.727564927611035200, -1.734723475976807100E-015, 1.000000000000000000 ) ) ;
#150 = LINE ( 'NONE', #149, #148 ) ;
#151 = DIRECTION ( 'NONE',  ( 0.7071067811865473500, 0.7071067811865477900, 0.0000000000000000000 ) ) ;
#152 = VECTOR ( 'NONE', #151, 999.9999999999998900 ) ;
#153 = CARTESIAN_POINT ( 'NONE',  ( 3.322618927781068600E-018, -5.727564927611034300, 1.000000000000000000 ) ) ;
#154 = LINE ( 'NONE', #153, #152 ) ;
#155 = CARTESIAN_POINT ( 'NONE',  ( 45.55555555555555700, -4.969039949999531900, -1.000000000000000000 ) ) ;
#156 = DIRECTION ( 'NONE',  ( 0.9938079899999064900, 0.1111111111111111000, 0.0000000000000000000 ) ) ;
#157 = VECTOR ( 'NONE', #156, 1000.000000000000100 ) ;
#158 = CARTESIAN_POINT ( 'NONE',  ( 1.111111111111111200, -9.938079899999065600, -1.000000000000000000 ) ) ;
#159 = LINE ( 'NONE', #158, #157 ) ;
#160 = DIRECTION ( 'NONE',  ( -0.7071067811865477900, 0.7071067811865473500, 0.0000000000000000000 ) ) ;
#161 = VECTOR ( 'NONE', #160, 999.9999999999998900 ) ;
#162 = CARTESIAN_POINT ( 'NONE',  ( 5.727564927611033400, 1.734723475976807100E-015, -1.000000000000000000 ) ) ;
#163 = LINE ( 'NONE', #162, #161 ) ;
#164 = CARTESIAN_POINT ( 'NONE',  ( 5.727564927611032500, 2.168404344971008900E-015, -1.000000000000000000 ) ) ;
#165 = CARTESIAN_POINT ( 'NONE',  ( 3.322618927781068600E-018, 5.727564927611032500, -1.000000000000000000 ) ) ;
#166 = DIRECTION ( 'NONE',  ( 0.7071067811865476800, -0.7071067811865474600, 0.0000000000000000000 ) ) ;
#167 = VECTOR ( 'NONE', #166, 1000.000000000000000 ) ;
#168 = CARTESIAN_POINT ( 'NONE',  ( -5.727564927611035200, -1.734723475976807100E-015, -1.000000000000000000 ) ) ;
#169 = LINE ( 'NONE', #168, #167 ) ;
#170 = DIRECTION ( 'NONE',  ( -0.7071067811865475700, -0.7071067811865474600, 0.0000000000000000000 ) ) ;
#171 = VECTOR ( 'NONE', #170, 1000.000000000000000 ) ;
#172 = CARTESIAN_POINT ( 'NONE',  ( 3.322618927781068600E-018, 5.727564927611032500, -1.000000000000000000 ) ) ;
#173 = LINE ( 'NONE', #172, #171 ) ;
#174 = CARTESIAN_POINT ( 'NONE',  ( 3.322618927781068600E-018, -5.727564927611034300, -1.000000000000000000 ) ) ;
#175 = CARTESIAN_POINT ( 'NONE',  ( -5.727564927611035200, -1.734723475976807100E-015, -1.000000000000000000 ) ) ;
#176 = DIRECTION ( 'NONE',  ( 0.7071067811865473500, 0.7071067811865477900, 0.0000000000000000000 ) ) ;
#177 = VECTOR ( 'NONE', #176, 999.9999999999998900 ) ;
#178 = CARTESIAN_POINT ( 'NONE',  ( 3.322618927781068600E-018, -5.727564927611034300, -1.000000000000000000 ) ) ;
#179 = LINE ( 'NONE', #178, #177 ) ;
#180 = DIRECTION ( 'NONE',  ( 0.0000000000000000000, 0.0000000000000000000, -1.000000000000000000 ) ) ;
#181 = VECTOR ( 'NONE', #180, 1000.000000000000000 ) ;
#182 = CARTESIAN_POINT ( 'NONE',  ( 1.111111111111111200, 9.938079899999065600, 1.000000000000000000 ) ) ;
#183 = LINE ( 'NONE', #182, #181 ) ;
#184 = DIRECTION ( 'NONE',  ( -0.9938079899999066000, -0.1111111111111111000, 0.0000000000000000000 ) ) ;
#185 = DIRECTION ( 'NONE',  ( -0.1111111111111111000, 0.9938079899999066000, 0.0000000000000000000 ) ) ;
#186 = CARTESIAN_POINT ( 'NONE',  ( 1.111111111111111200, -9.938079899999065600, 1.000000000000000000 ) ) ;
#187 = AXIS2_PLACEMENT_3D ( 'NONE', #186, #185, #184 ) ;
#188 = PLANE ( 'NONE',  #187 ) ;
#189 = DIRECTION ( 'NONE',  ( -1.000000000000000000, 0.0000000000000000000, 0.0000000000000000000 ) ) ;
#190 = DIRECTION ( 'NONE',  ( 0.0000000000000000000, 0.0000000000000000000, -1.000000000000000000 ) ) ;
#191 = CARTESIAN_POINT ( 'NONE',  ( 0.0000000000000000000, 0.0000000000000000000, 1.000000000000000000 ) ) ;
#192 = AXIS2_PLACEMENT_3D ( 'NONE', #191, #190, #189 ) ;
#193 = FACE_OUTER_BOUND ( 'NONE', #94, .T. ) ;
#194 = CYLINDRICAL_SURFACE ( 'NONE', #192, 10.00000000000000000 ) ;
#195 = FACE_OUTER_BOUND ( 'NONE', #87, .T. ) ;
#196 = DIRECTION ( 'NONE',  ( -0.7071067811865473500, -0.7071067811865477900, 0.0000000000000000000 ) ) ;
#197 = DIRECTION ( 'NONE',  ( -0.7071067811865477900, 0.7071067811865473500, 0.0000000000000000000 ) ) ;
#198 = CARTESIAN_POINT ( 'NONE',  ( 3.322618927781068600E-018, -5.727564927611034300, 1.000000000000000000 ) ) ;
#199 = AXIS2_PLACEMENT_3D ( 'NONE', #198, #197, #196 ) ;
#200 = PLANE ( 'NONE',  #199 ) ;
#201 = FACE_OUTER_BOUND ( 'NONE', #80, .T. ) ;
#202 = DIRECTION ( 'NONE',  ( 0.0000000000000000000, 0.0000000000000000000, -1.000000000000000000 ) ) ;
#203 = VECTOR ( 'NONE', #202, 1000.000000000000000 ) ;
#204 = CARTESIAN_POINT ( 'NONE',  ( 3.322618927781068600E-018, -5.727564927611034300, 1.000000000000000000 ) ) ;
#205 = LINE ( 'NONE', #204, #203 ) ;
#206 = DIRECTION ( 'NONE',  ( -0.7071067811865476800, 0.7071067811865474600, 0.0000000000000000000 ) ) ;
#207 = DIRECTION ( 'NONE',  ( 0.7071067811865474600, 0.7071067811865476800, 0.0000000000000000000 ) ) ;
#208 = CARTESIAN_POINT ( 'NONE',  ( -5.727564927611035200, -1.734723475976807100E-015, 1.000000000000000000 ) ) ;
#209 = AXIS2_PLACEMENT_3D ( 'NONE', #208, #207, #206 ) ;
#210 = FACE_OUTER_BOUND ( 'NONE', #73, .T. ) ;
#211 = PLANE ( 'NONE',  #209 ) ;
#212 = DIRECTION ( 'NONE',  ( 0.0000000000000000000, 0.0000000000000000000, -1.000000000000000000 ) ) ;
#213 = VECTOR ( 'NONE', #212, 1000.000000000000000 ) ;
#214 = CARTESIAN_POINT ( 'NONE',  ( -5.727564927611035200, -1.734723475976807100E-015, 1.000000000000000000 ) ) ;
#215 = LINE ( 'NONE', #214, #213 ) ;
#216 = DIRECTION ( 'NONE',  ( 0.7071067811865475700, 0.7071067811865474600, 0.0000000000000000000 ) ) ;
#217 = DIRECTION ( 'NONE',  ( 0.7071067811865474600, -0.7071067811865475700, 0.0000000000000000000 ) ) ;
#218 = CARTESIAN_POINT ( 'NONE',  ( 3.322618927781068600E-018, 5.727564927611032500, 1.000000000000000000 ) ) ;
#219 = AXIS2_PLACEMENT_3D ( 'NONE', #218, #217, #216 ) ;
#220 = PLANE ( 'NONE',  #219 ) ;
#221 = FACE_OUTER_BOUND ( 'NONE', #66, .T. ) ;
#222 = DIRECTION ( 'NONE',  ( 0.0000000000000000000, 0.0000000000000000000, -1.000000000000000000 ) ) ;
#223 = VECTOR ( 'NONE', #222, 1000.000000000000000 ) ;
#224 = CARTESIAN_POINT ( 'NONE',  ( 3.322618927781068600E-018, 5.727564927611032500, 1.000000000000000000 ) ) ;
#225 = LINE ( 'NONE', #224, #223 ) ;
#226 = DIRECTION ( 'NONE',  ( 0.0000000000000000000, 0.0000000000000000000, -1.000000000000000000 ) ) ;
#227 = VECTOR ( 'NONE', #226, 1000.000000000000000 ) ;
#228 = CARTESIAN_POINT ( 'NONE',  ( 5.727564927611033400, 1.734723475976807100E-015, 1.000000000000000000 ) ) ;
#229 = DIRECTION ( 'NONE',  ( 0.7071067811865477900, -0.7071067811865473500, 0.0000000000000000000 ) ) ;
#230 = DIRECTION ( 'NONE',  ( -0.7071067811865473500, -0.7071067811865477900, 0.0000000000000000000 ) ) ;
#231 = CARTESIAN_POINT ( 'NONE',  ( 5.727564927611033400, 1.734723475976807100E-015, 1.000000000000000000 ) ) ;
#232 = AXIS2_PLACEMENT_3D ( 'NONE', #231, #230, #229 ) ;
#233 = LINE ( 'NONE', #228, #227 ) ;
#234 = PLANE ( 'NONE',  #232 ) ;
#235 = FACE_OUTER_BOUND ( 'NONE', #58, .T. ) ;
#236 = CARTESIAN_POINT ( 'NONE',  ( 45.55555555555555700, 4.969039949999531900, 1.000000000000000000 ) ) ;
#237 = DIRECTION ( 'NONE',  ( -1.000000000000000000, 0.0000000000000000000, 0.0000000000000000000 ) ) ;
#238 = DIRECTION ( 'NONE',  ( 0.0000000000000000000, 0.0000000000000000000, 1.000000000000000000 ) ) ;
#239 = CARTESIAN_POINT ( 'NONE',  ( 45.00000000000000700, 0.0000000000000000000, 1.000000000000000000 ) ) ;
#240 = AXIS2_PLACEMENT_3D ( 'NONE', #239, #238, #237 ) ;
#241 = CIRCLE ( 'NONE', #240, 4.999999999999997300 ) ;
#242 = DIRECTION ( 'NONE',  ( -0.9938079899999064900, 0.1111111111111111200, 0.0000000000000000000 ) ) ;
#243 = VECTOR ( 'NONE', #242, 1000.000000000000100 ) ;
#244 = CARTESIAN_POINT ( 'NONE',  ( 1.111111111111111200, 9.938079899999065600, 1.000000000000000000 ) ) ;
#245 = LINE ( 'NONE', #244, #243 ) ;
#246 = CARTESIAN_POINT ( 'NONE',  ( -5.727564927611035200, -1.734723475976807100E-015, 1.000000000000000000 ) ) ;
#247 = DIRECTION ( 'NONE',  ( -0.7071067811865477900, 0.7071067811865473500, 0.0000000000000000000 ) ) ;
#248 = VECTOR ( 'NONE', #247, 999.9999999999998900 ) ;
#249 = CARTESIAN_POINT ( 'NONE',  ( 5.727564927611033400, 1.734723475976807100E-015, 1.000000000000000000 ) ) ;
#250 = LINE ( 'NONE', #249, #248 ) ;
#251 = CARTESIAN_POINT ( 'NONE',  ( 3.322618927781068600E-018, 5.727564927611032500, 1.000000000000000000 ) ) ;
#252 = DIRECTION ( 'NONE',  ( -0.7071067811865475700, -0.7071067811865474600, 0.0000000000000000000 ) ) ;
#253 = VECTOR ( 'NONE', #252, 1000.000000000000000 ) ;
#254 = CARTESIAN_POINT ( 'NONE',  ( 3.322618927781068600E-018, 5.727564927611032500, 1.000000000000000000 ) ) ;
#255 = LINE ( 'NONE', #254, #253 ) ;
#256 = CARTESIAN_POINT ( 'NONE',  ( 5.727564927611033400, 1.734723475976807100E-015, 1.000000000000000000 ) ) ;
#257 = CARTESIAN_POINT ( 'NONE',  ( 1.111111111111111200, -9.938079899999065600, -1.000000000000000000 ) ) ;
#258 = DIRECTION ( 'NONE',  ( 0.0000000000000000000, 0.0000000000000000000, -1.000000000000000000 ) ) ;
#259 = VECTOR ( 'NONE', #258, 1000.000000000000000 ) ;
#260 = CARTESIAN_POINT ( 'NONE',  ( 1.111111111111111200, -9.938079899999065600, 1.000000000000000000 ) ) ;
#261 = DIRECTION ( 'NONE',  ( 1.000000000000000000, 0.0000000000000000000, 0.0000000000000000000 ) ) ;
#262 = DIRECTION ( 'NONE',  ( 0.0000000000000000000, 0.0000000000000000000, 1.000000000000000000 ) ) ;
#263 = CARTESIAN_POINT ( 'NONE',  ( 0.0000000000000000000, 0.0000000000000000000, -1.000000000000000000 ) ) ;
#264 = AXIS2_PLACEMENT_3D ( 'NONE', #263, #262, #261 ) ;
#265 = CIRCLE ( 'NONE', #264, 10.00000000000000000 ) ;
#266 = LINE ( 'NONE', #260, #259 ) ;
#267 = CARTESIAN_POINT ( 'NONE',  ( 1.111111111111111200, 9.938079899999065600, 1.000000000000000000 ) ) ;
#268 = DIRECTION ( 'NONE',  ( 1.000000000000000000, 0.0000000000000000000, 0.0000000000000000000 ) ) ;
#269 = DIRECTION ( 'NONE',  ( 0.0000000000000000000, 0.0000000000000000000, 1.000000000000000000 ) ) ;
#270 = CARTESIAN_POINT ( 'NONE',  ( 0.0000000000000000000, 0.0000000000000000000, 1.000000000000000000 ) ) ;
#271 = AXIS2_PLACEMENT_3D ( 'NONE', #270, #269, #268 ) ;
#272 = CIRCLE ( 'NONE', #271, 10.00000000000000000 ) ;
#273 = CARTESIAN_POINT ( 'NONE',  ( 0.0000000000000000000, -5.727564927611033400, 1.000000000000000000 ) ) ;
#274 = DIRECTION ( 'NONE',  ( 1.000000000000000000, 0.0000000000000000000, 0.0000000000000000000 ) ) ;
#275 = DIRECTION ( 'NONE',  ( 0.0000000000000000000, 0.0000000000000000000, 1.000000000000000000 ) ) ;
#276 = CARTESIAN_POINT ( 'NONE',  ( 0.0000000000000000000, 0.0000000000000000000, 1.000000000000000000 ) ) ;
#277 = AXIS2_PLACEMENT_3D ( 'NONE', #276, #275, #274 ) ;
#278 = PLANE ( 'NONE',  #277 ) ;
#279 = FACE_BOUND ( 'NONE', #42, .T. ) ;
#280 = FACE_OUTER_BOUND ( 'NONE', #28, .T. ) ;
#281 = DIRECTION ( 'NONE',  ( 0.9938079899999064900, 0.1111111111111111000, 0.0000000000000000000 ) ) ;
#282 = VECTOR ( 'NONE', #281, 1000.000000000000100 ) ;
#283 = CARTESIAN_POINT ( 'NONE',  ( 1.111111111111111200, -9.938079899999065600, 1.000000000000000000 ) ) ;
#284 = LINE ( 'NONE', #283, #282 ) ;
#285 = CARTESIAN_POINT ( 'NONE',  ( -10.00000000000000000, 0.0000000000000000000, 1.000000000000000000 ) ) ;
#286 = CARTESIAN_POINT ( 'NONE',  ( 1.111111111111111200, -9.938079899999065600, 1.000000000000000000 ) ) ;
#287 = CARTESIAN_POINT ( 'NONE',  ( 45.55555555555555700, -4.969039949999531900, 1.000000000000000000 ) ) ;
#288 = DIRECTION ( 'NONE',  ( -1.000000000000000000, 0.0000000000000000000, 0.0000000000000000000 ) ) ;
#289 = DIRECTION ( 'NONE',  ( 0.0000000000000000000, 0.0000000000000000000, -1.000000000000000000 ) ) ;
#290 = CARTESIAN_POINT ( 'NONE',  ( 0.0000000000000000000, 0.0000000000000000000, 1.000000000000000000 ) ) ;
#291 = AXIS2_PLACEMENT_3D ( 'NONE', #290, #289, #288 ) ;
#292 = CYLINDRICAL_SURFACE ( 'NONE', #291, 10.00000000000000000 ) ;
#293 = FACE_OUTER_BOUND ( 'NONE', #18, .T. ) ;
#294 = DIRECTION ( 'NONE',  ( 1.000000000000000000, 0.0000000000000000000, 0.0000000000000000000 ) ) ;
#295 = DIRECTION ( 'NONE',  ( 0.0000000000000000000, 0.0000000000000000000, 1.000000000000000000 ) ) ;
#296 = CARTESIAN_POINT ( 'NONE',  ( 0.0000000000000000000, 0.0000000000000000000, 1.000000000000000000 ) ) ;
#297 = AXIS2_PLACEMENT_3D ( 'NONE', #296, #295, #294 ) ;
#298 = CIRCLE ( 'NONE', #297, 10.00000000000000000 ) ;
#299 = CARTESIAN_POINT ( 'NONE',  ( -10.00000000000000000, 0.0000000000000000000, -1.000000000000000000 ) ) ;
#300 = DIRECTION ( 'NONE',  ( 0.0000000000000000000, 0.0000000000000000000, -1.000000000000000000 ) ) ;
#301 = VECTOR ( 'NONE', #300, 1000.000000000000000 ) ;
#302 = CARTESIAN_POINT ( 'NONE',  ( -10.00000000000000000, 0.0000000000000000000, 1.000000000000000000 ) ) ;
#303 = LINE ( 'NONE', #302, #301 ) ;
#304 = DIRECTION ( 'NONE',  ( 0.0000000000000000000, 0.0000000000000000000, -1.000000000000000000 ) ) ;
#305 = VECTOR ( 'NONE', #304, 1000.000000000000000 ) ;
#306 = CARTESIAN_POINT ( 'NONE',  ( 45.55555555555555700, -4.969039949999531900, 1.000000000000000000 ) ) ;
#307 = DIRECTION ( 'NONE',  ( -1.000000000000000000, 0.0000000000000000000, 0.0000000000000000000 ) ) ;
#308 = DIRECTION ( 'NONE',  ( 0.0000000000000000000, 0.0000000000000000000, -1.000000000000000000 ) ) ;
#309 = CARTESIAN_POINT ( 'NONE',  ( 45.00000000000000700, 0.0000000000000000000, 1.000000000000000000 ) ) ;
#310 = AXIS2_PLACEMENT_3D ( 'NONE', #309, #308, #307 ) ;
#311 = LINE ( 'NONE', #306, #305 ) ;
#312 = CYLINDRICAL_SURFACE ( 'NONE', #310, 4.999999999999997300 ) ;
#313 = FACE_OUTER_BOUND ( 'NONE', #1, .T. ) ;
#314 = DIRECTION ( 'NONE',  ( 0.9938079899999066000, -0.1111111111111111200, 0.0000000000000000000 ) ) ;
#315 = DIRECTION ( 'NONE',  ( -0.1111111111111111200, -0.9938079899999066000, 0.0000000000000000000 ) ) ;
#316 = CARTESIAN_POINT ( 'NONE',  ( 1.111111111111111200, 9.938079899999065600, 1.000000000000000000 ) ) ;
#317 = AXIS2_PLACEMENT_3D ( 'NONE', #316, #315, #314 ) ;
#318 = PLANE ( 'NONE',  #317 ) ;
#319 = FACE_OUTER_BOUND ( 'NONE', #52, .T. ) ;
#320 = DIRECTION ( 'NONE',  ( 0.0000000000000000000, 0.0000000000000000000, -1.000000000000000000 ) ) ;
#321 = VECTOR ( 'NONE', #320, 1000.000000000000000 ) ;
#322 = CARTESIAN_POINT ( 'NONE',  ( 45.55555555555555700, 4.969039949999531900, 1.000000000000000000 ) ) ;
#323 = LINE ( 'NONE', #322, #321 ) ;
#324 =( LENGTH_UNIT ( ) NAMED_UNIT ( * ) SI_UNIT ( .MILLI., .METRE. ) );
#325 = DIRECTION ( 'NONE',  ( 0.0000000000000000000, 0.0000000000000000000, 1.000000000000000000 ) ) ;
#326 = ORIENTED_EDGE ( 'NONE', *, *, #327, .F. ) ;
#327 = EDGE_CURVE ( 'NONE', #29, #39, #154, .T. ) ;
#328 = ORIENTED_EDGE ( 'NONE', *, *, #329, .F. ) ;
#329 = EDGE_CURVE ( 'NONE', #46, #29, #150, .T. ) ;
#330 = ADVANCED_FACE ( 'NONE', ( #146, #145 ), #144, .F. ) ;
#331 = EDGE_LOOP ( 'NONE', ( #332, #335, #338, #109, #108 ) ) ;
#332 = ORIENTED_EDGE ( 'NONE', *, *, #333, .F. ) ;
#333 = EDGE_CURVE ( 'NONE', #334, #17, #139, .T. ) ;
#334 = VERTEX_POINT ( 'NONE', #134 ) ;
#335 = ORIENTED_EDGE ( 'NONE', *, *, #336, .F. ) ;
#336 = EDGE_CURVE ( 'NONE', #337, #334, #133, .T. ) ;
#337 = VERTEX_POINT ( 'NONE', #129 ) ;
#338 = ORIENTED_EDGE ( 'NONE', *, *, #339, .F. ) ;
#339 = EDGE_CURVE ( 'NONE', #110, #337, #128, .T. ) ;
#340 = PRODUCT_DEFINITION_SHAPE ( 'NONE', 'NONE',  #407 ) ;
#341 = PRODUCT_RELATED_PRODUCT_CATEGORY ( 'detail', '', ( #112 ) ) ;
#342 = CC_DESIGN_SECURITY_CLASSIFICATION ( #364, ( #383 ) ) ;
#343 = CC_DESIGN_APPROVAL ( #351, ( #364 ) ) ;
#344 = APPROVAL_DATE_TIME ( #345, #351 ) ;
#345 = DATE_AND_TIME ( #346, #347 ) ;
#346 = CALENDAR_DATE ( 2009, 8, 4 ) ;
#347 = LOCAL_TIME ( 13, 32, 5.000000000000000000, #348 ) ;
#348 = COORDINATED_UNIVERSAL_TIME_OFFSET ( 9, 0, .AHEAD. ) ;
#349 = APPROVAL_PERSON_ORGANIZATION ( #353, #351, #350 ) ;
#350 = APPROVAL_ROLE ( '' ) ;
#351 = APPROVAL ( #352, 'UNSPECIFIED' ) ;
#352 = APPROVAL_STATUS ( 'not_yet_approved' ) ;
#353 = PERSON_AND_ORGANIZATION ( #408, #395 ) ;
#354 = CC_DESIGN_DATE_AND_TIME_ASSIGNMENT ( #356, #355, ( #364 ) ) ;
#355 = DATE_TIME_ROLE ( 'classification_date' ) ;
#356 = DATE_AND_TIME ( #357, #358 ) ;
#357 = CALENDAR_DATE ( 2009, 8, 4 ) ;
#358 = LOCAL_TIME ( 13, 32, 5.000000000000000000, #359 ) ;
#359 = COORDINATED_UNIVERSAL_TIME_OFFSET ( 9, 0, .AHEAD. ) ;
#360 = CC_DESIGN_PERSON_AND_ORGANIZATION_ASSIGNMENT ( #362, #361, ( #364 ) ) ;
#361 = PERSON_AND_ORGANIZATION_ROLE ( 'classification_officer' ) ;
#362 = PERSON_AND_ORGANIZATION ( #408, #395 ) ;
#363 = PERSON_AND_ORGANIZATION_ROLE ( 'design_owner' ) ;
#364 = SECURITY_CLASSIFICATION ( '', '', #365 ) ;
#365 = SECURITY_CLASSIFICATION_LEVEL ( 'unclassified' ) ;
#366 = CC_DESIGN_PERSON_AND_ORGANIZATION_ASSIGNMENT ( #368, #367, ( #383 ) ) ;
#367 = PERSON_AND_ORGANIZATION_ROLE ( 'design_supplier' ) ;
#368 = PERSON_AND_ORGANIZATION ( #408, #395 ) ;
#369 = CC_DESIGN_PERSON_AND_ORGANIZATION_ASSIGNMENT ( #371, #370, ( #383 ) ) ;
#370 = PERSON_AND_ORGANIZATION_ROLE ( 'creator' ) ;
#371 = PERSON_AND_ORGANIZATION ( #408, #395 ) ;
#372 = CC_DESIGN_APPROVAL ( #380, ( #383 ) ) ;
#373 = APPROVAL_DATE_TIME ( #374, #380 ) ;
#374 = DATE_AND_TIME ( #375, #376 ) ;
#375 = CALENDAR_DATE ( 2009, 8, 4 ) ;
#376 = LOCAL_TIME ( 13, 32, 5.000000000000000000, #377 ) ;
#377 = COORDINATED_UNIVERSAL_TIME_OFFSET ( 9, 0, .AHEAD. ) ;
#378 = APPROVAL_PERSON_ORGANIZATION ( #382, #380, #379 ) ;
#379 = APPROVAL_ROLE ( '' ) ;
#380 = APPROVAL ( #381, 'UNSPECIFIED' ) ;
#381 = APPROVAL_STATUS ( 'not_yet_approved' ) ;
#382 = PERSON_AND_ORGANIZATION ( #408, #395 ) ;
#383 = PRODUCT_DEFINITION_FORMATION_WITH_SPECIFIED_SOURCE ( 'ANY', '', #112, .NOT_KNOWN. ) ;
#384 = SHAPE_DEFINITION_REPRESENTATION ( #340, #119 ) ;
#385 = CC_DESIGN_DATE_AND_TIME_ASSIGNMENT ( #387, #386, ( #407 ) ) ;
#386 = DATE_TIME_ROLE ( 'creation_date' ) ;
#387 = DATE_AND_TIME ( #388, #389 ) ;
#388 = CALENDAR_DATE ( 2009, 8, 4 ) ;
#389 = LOCAL_TIME ( 13, 32, 5.000000000000000000, #390 ) ;
#390 = COORDINATED_UNIVERSAL_TIME_OFFSET ( 9, 0, .AHEAD. ) ;
#391 = CC_DESIGN_PERSON_AND_ORGANIZATION_ASSIGNMENT ( #393, #392, ( #407 ) ) ;
#392 = PERSON_AND_ORGANIZATION_ROLE ( 'creator' ) ;
#393 = PERSON_AND_ORGANIZATION ( #408, #395 ) ;
#394 = PERSON_AND_ORGANIZATION ( #408, #395 ) ;
#395 = ORGANIZATION ( 'UNSPECIFIED', 'UNSPECIFIED', '' ) ;
#396 = CC_DESIGN_APPROVAL ( #404, ( #407 ) ) ;
#397 = APPROVAL_DATE_TIME ( #398, #404 ) ;
#398 = DATE_AND_TIME ( #399, #400 ) ;
#399 = CALENDAR_DATE ( 2009, 8, 4 ) ;
#400 = LOCAL_TIME ( 13, 32, 5.000000000000000000, #401 ) ;
#401 = COORDINATED_UNIVERSAL_TIME_OFFSET ( 9, 0, .AHEAD. ) ;
#402 = APPROVAL_PERSON_ORGANIZATION ( #406, #404, #403 ) ;
#403 = APPROVAL_ROLE ( '' ) ;
#404 = APPROVAL ( #405, 'UNSPECIFIED' ) ;
#405 = APPROVAL_STATUS ( 'not_yet_approved' ) ;
#406 = PERSON_AND_ORGANIZATION ( #408, #395 ) ;
#407 = PRODUCT_DEFINITION ( 'UNKNOWN', '', #383, #409 ) ;
#408 = PERSON ( 'UNSPECIFIED', 'UNSPECIFIED', 'UNSPECIFIED', ('UNSPECIFIED'), ('UNSPECIFIED'), ('UNSPECIFIED') ) ;
#409 = DESIGN_CONTEXT ( 'detailed design', #411, 'design' ) ;
#410 = APPLICATION_PROTOCOL_DEFINITION ( 'international standard', 'config_control_design', 1994, #411 ) ;
#411 = APPLICATION_CONTEXT ( 'configuration controlled 3d designs of mechanical parts and assemblies' ) ;
#412 = CC_DESIGN_PERSON_AND_ORGANIZATION_ASSIGNMENT ( #394, #363, ( #112 ) ) ;
ENDSEC;
END-ISO-10303-21;
