ISO-10303-21;
HEADER;
FILE_DESCRIPTION (( 'STEP AP203' ),
    '1' );
FILE_NAME ('AC-25-6.STEP',
    '2009-05-01T00:55:44',
    ( ' ' ),
    ( ' ' ),
    'SwSTEP 2.0',
    'SolidWorks 2007',
    '' );
FILE_SCHEMA (( 'CONFIG_CONTROL_DESIGN' ));
ENDSEC;

DATA;
#1 = EDGE_CURVE ( 'NONE', #3, #33, #85, .T. ) ;
#2 = EDGE_CURVE ( 'NONE', #3, #16, #81, .T. ) ;
#3 = VERTEX_POINT ( 'NONE', #142 ) ;
#4 = EDGE_LOOP ( 'NONE', ( #6, #9, #5, #8 ) ) ;
#5 = ORIENTED_EDGE ( 'NONE', *, *, #11, .T. ) ;
#6 = ORIENTED_EDGE ( 'NONE', *, *, #2, .F. ) ;
#7 = VERTEX_POINT ( 'NONE', #141 ) ;
#8 = ORIENTED_EDGE ( 'NONE', *, *, #34, .F. ) ;
#9 = ORIENTED_EDGE ( 'NONE', *, *, #1, .T. ) ;
#10 = ADVANCED_FACE ( 'NONE', ( #140 ), #138, .T. ) ;
#11 = EDGE_CURVE ( 'NONE', #33, #7, #132, .T. ) ;
#12 = ORIENTED_EDGE ( 'NONE', *, *, #13, .T. ) ;
#13 = EDGE_CURVE ( 'NONE', #15, #3, #154, .T. ) ;
#14 = ORIENTED_EDGE ( 'NONE', *, *, #2, .T. ) ;
#15 = VERTEX_POINT ( 'NONE', #149 ) ;
#16 = VERTEX_POINT ( 'NONE', #148 ) ;
#17 = MANIFOLD_SOLID_BREP ( 'NONE', #32 ) ;
#18 = EDGE_LOOP ( 'NONE', ( #12, #14, #86, #89, #92 ) ) ;
#19 = ADVANCED_FACE ( 'NONE', ( #159 ), #158, .T. ) ;
#20 = EDGE_LOOP ( 'NONE', ( #21, #22, #23, #24 ) ) ;
#21 = ORIENTED_EDGE ( 'NONE', *, *, #121, .F. ) ;
#22 = ORIENTED_EDGE ( 'NONE', *, *, #37, .F. ) ;
#23 = ORIENTED_EDGE ( 'NONE', *, *, #113, .T. ) ;
#24 = ORIENTED_EDGE ( 'NONE', *, *, #25, .T. ) ;
#25 = EDGE_CURVE ( 'NONE', #111, #120, #166, .T. ) ;
#26 = ADVANCED_FACE ( 'NONE', ( #162 ), #192, .T. ) ;
#27 = EDGE_LOOP ( 'NONE', ( #28, #29, #30, #31 ) ) ;
#28 = ORIENTED_EDGE ( 'NONE', *, *, #67, .F. ) ;
#29 = ORIENTED_EDGE ( 'NONE', *, *, #25, .F. ) ;
#30 = ORIENTED_EDGE ( 'NONE', *, *, #110, .T. ) ;
#31 = ORIENTED_EDGE ( 'NONE', *, *, #52, .T. ) ;
#32 = CLOSED_SHELL ( 'NONE', ( #10, #35, #114, #68, #72, #76, #42, #48, #59, #19, #26 ) ) ;
#33 = VERTEX_POINT ( 'NONE', #187 ) ;
#34 = EDGE_CURVE ( 'NONE', #16, #7, #186, .T. ) ;
#35 = ADVANCED_FACE ( 'NONE', ( #182, #181 ), #180, .T. ) ;
#36 = ORIENTED_EDGE ( 'NONE', *, *, #37, .T. ) ;
#37 = EDGE_CURVE ( 'NONE', #105, #119, #175, .T. ) ;
#38 = ORIENTED_EDGE ( 'NONE', *, *, #39, .F. ) ;
#39 = EDGE_CURVE ( 'NONE', #91, #125, #171, .T. ) ;
#40 = ORIENTED_EDGE ( 'NONE', *, *, #90, .F. ) ;
#41 = ORIENTED_EDGE ( 'NONE', *, *, #63, .T. ) ;
#42 = ADVANCED_FACE ( 'NONE', ( #167 ), #157, .F. ) ;
#43 = EDGE_LOOP ( 'NONE', ( #44, #45, #46, #47 ) ) ;
#44 = ORIENTED_EDGE ( 'NONE', *, *, #124, .T. ) ;
#45 = ORIENTED_EDGE ( 'NONE', *, *, #78, .F. ) ;
#46 = ORIENTED_EDGE ( 'NONE', *, *, #93, .F. ) ;
#47 = ORIENTED_EDGE ( 'NONE', *, *, #39, .T. ) ;
#48 = ADVANCED_FACE ( 'NONE', ( #310 ), #311, .T. ) ;
#49 = EDGE_LOOP ( 'NONE', ( #50, #51, #53, #54 ) ) ;
#50 = ORIENTED_EDGE ( 'NONE', *, *, #99, .F. ) ;
#51 = ORIENTED_EDGE ( 'NONE', *, *, #52, .F. ) ;
#52 = EDGE_CURVE ( 'NONE', #106, #100, #410, .T. ) ;
#53 = ORIENTED_EDGE ( 'NONE', *, *, #108, .T. ) ;
#54 = ORIENTED_EDGE ( 'NONE', *, *, #58, .T. ) ;
#55 = ORIENTED_EDGE ( 'NONE', *, *, #98, .F. ) ;
#56 = ORIENTED_EDGE ( 'NONE', *, *, #58, .F. ) ;
#57 = ORIENTED_EDGE ( 'NONE', *, *, #103, .T. ) ;
#58 = EDGE_CURVE ( 'NONE', #104, #101, #268, .T. ) ;
#59 = ADVANCED_FACE ( 'NONE', ( #264 ), #263, .T. ) ;
#60 = EDGE_LOOP ( 'NONE', ( #55, #56, #57, #36 ) ) ;
#61 = ORIENTED_EDGE ( 'NONE', *, *, #128, .T. ) ;
#62 = EDGE_LOOP ( 'NONE', ( #61, #38, #40, #41 ) ) ;
#63 = EDGE_CURVE ( 'NONE', #88, #126, #258, .T. ) ;
#64 = ORIENTED_EDGE ( 'NONE', *, *, #87, .F. ) ;
#65 = ORIENTED_EDGE ( 'NONE', *, *, #34, .T. ) ;
#66 = ORIENTED_EDGE ( 'NONE', *, *, #67, .T. ) ;
#67 = EDGE_CURVE ( 'NONE', #120, #100, #254, .T. ) ;
#68 = ADVANCED_FACE ( 'NONE', ( #250 ), #248, .T. ) ;
#69 = EDGE_LOOP ( 'NONE', ( #70, #71, #77, #79 ) ) ;
#70 = ORIENTED_EDGE ( 'NONE', *, *, #1, .F. ) ;
#71 = ORIENTED_EDGE ( 'NONE', *, *, #13, .F. ) ;
#72 = ADVANCED_FACE ( 'NONE', ( #249 ), #243, .F. ) ;
#73 = EDGE_LOOP ( 'NONE', ( #74, #75, #64, #65 ) ) ;
#74 = ORIENTED_EDGE ( 'NONE', *, *, #130, .T. ) ;
#75 = ORIENTED_EDGE ( 'NONE', *, *, #63, .F. ) ;
#76 = ADVANCED_FACE ( 'NONE', ( #238 ), #237, .T. ) ;
#77 = ORIENTED_EDGE ( 'NONE', *, *, #78, .T. ) ;
#78 = EDGE_CURVE ( 'NONE', #15, #122, #232, .T. ) ;
#79 = ORIENTED_EDGE ( 'NONE', *, *, #117, .T. ) ;
#80 = AXIS2_PLACEMENT_3D ( 'NONE', #145, #144, #143 ) ;
#81 = CIRCLE ( 'NONE', #80, 5.000000000000004400 ) ;
#82 = DIRECTION ( 'NONE',  ( 0.0000000000000000000, 0.0000000000000000000, -1.000000000000000000 ) ) ;
#83 = VECTOR ( 'NONE', #82, 1000.000000000000000 ) ;
#84 = CARTESIAN_POINT ( 'NONE',  ( -75.00000000000001400, 0.0000000000000000000, 2.299999999999999800 ) ) ;
#85 = LINE ( 'NONE', #84, #83 ) ;
#86 = ORIENTED_EDGE ( 'NONE', *, *, #87, .T. ) ;
#87 = EDGE_CURVE ( 'NONE', #16, #88, #374, .T. ) ;
#88 = VERTEX_POINT ( 'NONE', #370 ) ;
#89 = ORIENTED_EDGE ( 'NONE', *, *, #90, .T. ) ;
#90 = EDGE_CURVE ( 'NONE', #88, #91, #369, .T. ) ;
#91 = VERTEX_POINT ( 'NONE', #364 ) ;
#92 = ORIENTED_EDGE ( 'NONE', *, *, #93, .T. ) ;
#93 = EDGE_CURVE ( 'NONE', #91, #15, #363, .T. ) ;
#94 = EDGE_LOOP ( 'NONE', ( #102, #107, #109, #112 ) ) ;
#95 = EDGE_LOOP ( 'NONE', ( #96, #97, #118, #66 ) ) ;
#96 = ORIENTED_EDGE ( 'NONE', *, *, #99, .T. ) ;
#97 = ORIENTED_EDGE ( 'NONE', *, *, #98, .T. ) ;
#98 = EDGE_CURVE ( 'NONE', #101, #119, #359, .T. ) ;
#99 = EDGE_CURVE ( 'NONE', #100, #101, #298, .T. ) ;
#100 = VERTEX_POINT ( 'NONE', #294 ) ;
#101 = VERTEX_POINT ( 'NONE', #293 ) ;
#102 = ORIENTED_EDGE ( 'NONE', *, *, #103, .F. ) ;
#103 = EDGE_CURVE ( 'NONE', #104, #105, #292, .T. ) ;
#104 = VERTEX_POINT ( 'NONE', #288 ) ;
#105 = VERTEX_POINT ( 'NONE', #287 ) ;
#106 = VERTEX_POINT ( 'NONE', #286 ) ;
#107 = ORIENTED_EDGE ( 'NONE', *, *, #108, .F. ) ;
#108 = EDGE_CURVE ( 'NONE', #106, #104, #285, .T. ) ;
#109 = ORIENTED_EDGE ( 'NONE', *, *, #110, .F. ) ;
#110 = EDGE_CURVE ( 'NONE', #111, #106, #281, .T. ) ;
#111 = VERTEX_POINT ( 'NONE', #348 ) ;
#112 = ORIENTED_EDGE ( 'NONE', *, *, #113, .F. ) ;
#113 = EDGE_CURVE ( 'NONE', #105, #111, #347, .T. ) ;
#114 = ADVANCED_FACE ( 'NONE', ( #343, #342 ), #341, .F. ) ;
#115 = EDGE_LOOP ( 'NONE', ( #116, #123, #127, #129, #131 ) ) ;
#116 = ORIENTED_EDGE ( 'NONE', *, *, #117, .F. ) ;
#117 = EDGE_CURVE ( 'NONE', #122, #33, #336, .T. ) ;
#118 = ORIENTED_EDGE ( 'NONE', *, *, #121, .T. ) ;
#119 = VERTEX_POINT ( 'NONE', #331 ) ;
#120 = VERTEX_POINT ( 'NONE', #330 ) ;
#121 = EDGE_CURVE ( 'NONE', #119, #120, #329, .T. ) ;
#122 = VERTEX_POINT ( 'NONE', #325 ) ;
#123 = ORIENTED_EDGE ( 'NONE', *, *, #124, .F. ) ;
#124 = EDGE_CURVE ( 'NONE', #125, #122, #324, .T. ) ;
#125 = VERTEX_POINT ( 'NONE', #320 ) ;
#126 = VERTEX_POINT ( 'NONE', #319 ) ;
#127 = ORIENTED_EDGE ( 'NONE', *, *, #128, .F. ) ;
#128 = EDGE_CURVE ( 'NONE', #126, #125, #358, .T. ) ;
#129 = ORIENTED_EDGE ( 'NONE', *, *, #130, .F. ) ;
#130 = EDGE_CURVE ( 'NONE', #7, #126, #318, .T. ) ;
#131 = ORIENTED_EDGE ( 'NONE', *, *, #11, .F. ) ;
#132 = CIRCLE ( 'NONE', #161, 5.000000000000004400 ) ;
#133 = DIRECTION ( 'NONE',  ( 0.7071067811865473500, -0.7071067811865477900, 0.0000000000000000000 ) ) ;
#134 = DIRECTION ( 'NONE',  ( -0.7071067811865477900, -0.7071067811865473500, 0.0000000000000000000 ) ) ;
#135 = DIRECTION ( 'NONE',  ( -1.000000000000000000, 0.0000000000000000000, 0.0000000000000000000 ) ) ;
#136 = DIRECTION ( 'NONE',  ( 0.0000000000000000000, 0.0000000000000000000, -1.000000000000000000 ) ) ;
#137 = AXIS2_PLACEMENT_3D ( 'NONE', #139, #136, #135 ) ;
#138 = CYLINDRICAL_SURFACE ( 'NONE', #137, 5.000000000000004400 ) ;
#139 = CARTESIAN_POINT ( 'NONE',  ( -70.00000000000000000, 0.0000000000000000000, 2.299999999999999800 ) ) ;
#140 = FACE_OUTER_BOUND ( 'NONE', #4, .T. ) ;
#141 = CARTESIAN_POINT ( 'NONE',  ( -70.35714285714286100, -4.987228587060336300, 0.0000000000000000000 ) ) ;
#142 = CARTESIAN_POINT ( 'NONE',  ( -75.00000000000001400, 0.0000000000000000000, 2.299999999999999800 ) ) ;
#143 = DIRECTION ( 'NONE',  ( 1.000000000000000000, 0.0000000000000000000, 0.0000000000000000000 ) ) ;
#144 = DIRECTION ( 'NONE',  ( 0.0000000000000000000, 0.0000000000000000000, 1.000000000000000000 ) ) ;
#145 = CARTESIAN_POINT ( 'NONE',  ( -70.00000000000000000, 0.0000000000000000000, 2.299999999999999800 ) ) ;
#146 = DIRECTION ( 'NONE',  ( 1.000000000000000000, 0.0000000000000000000, 0.0000000000000000000 ) ) ;
#147 = CARTESIAN_POINT ( 'NONE',  ( -70.00000000000000000, 0.0000000000000000000, 0.0000000000000000000 ) ) ;
#148 = CARTESIAN_POINT ( 'NONE',  ( -70.35714285714286100, -4.987228587060336300, 2.299999999999999800 ) ) ;
#149 = CARTESIAN_POINT ( 'NONE',  ( -70.35714285714286100, 4.987228587060336300, 2.299999999999999800 ) ) ;
#150 = DIRECTION ( 'NONE',  ( 1.000000000000000000, 0.0000000000000000000, 0.0000000000000000000 ) ) ;
#151 = DIRECTION ( 'NONE',  ( 0.0000000000000000000, 0.0000000000000000000, 1.000000000000000000 ) ) ;
#152 = CARTESIAN_POINT ( 'NONE',  ( -70.00000000000000000, 0.0000000000000000000, 2.299999999999999800 ) ) ;
#153 = AXIS2_PLACEMENT_3D ( 'NONE', #152, #151, #150 ) ;
#154 = CIRCLE ( 'NONE', #153, 5.000000000000004400 ) ;
#155 = CARTESIAN_POINT ( 'NONE',  ( 0.0000000000000000000, 5.656854249492378800, 2.299999999999999800 ) ) ;
#156 = AXIS2_PLACEMENT_3D ( 'NONE', #155, #134, #133 ) ;
#157 = PLANE ( 'NONE',  #314 ) ;
#158 = PLANE ( 'NONE',  #156 ) ;
#159 = FACE_OUTER_BOUND ( 'NONE', #20, .T. ) ;
#160 = DIRECTION ( 'NONE',  ( 0.0000000000000000000, 0.0000000000000000000, 1.000000000000000000 ) ) ;
#161 = AXIS2_PLACEMENT_3D ( 'NONE', #147, #160, #146 ) ;
#162 = FACE_OUTER_BOUND ( 'NONE', #27, .T. ) ;
#163 = DIRECTION ( 'NONE',  ( 0.0000000000000000000, 0.0000000000000000000, -1.000000000000000000 ) ) ;
#164 = VECTOR ( 'NONE', #163, 1000.000000000000000 ) ;
#165 = CARTESIAN_POINT ( 'NONE',  ( 0.0000000000000000000, 5.656854249492378800, 2.299999999999999800 ) ) ;
#166 = LINE ( 'NONE', #165, #164 ) ;
#167 = FACE_OUTER_BOUND ( 'NONE', #43, .T. ) ;
#168 = DIRECTION ( 'NONE',  ( 0.0000000000000000000, 0.0000000000000000000, -1.000000000000000000 ) ) ;
#169 = VECTOR ( 'NONE', #168, 1000.000000000000000 ) ;
#170 = CARTESIAN_POINT ( 'NONE',  ( -0.7142857142857144100, 9.974457174120672700, 2.299999999999999800 ) ) ;
#171 = LINE ( 'NONE', #170, #169 ) ;
#172 = DIRECTION ( 'NONE',  ( 0.0000000000000000000, 0.0000000000000000000, -1.000000000000000000 ) ) ;
#173 = VECTOR ( 'NONE', #172, 1000.000000000000000 ) ;
#174 = CARTESIAN_POINT ( 'NONE',  ( 5.656854249492379700, -3.035766082959412400E-015, 2.299999999999999800 ) ) ;
#175 = LINE ( 'NONE', #174, #173 ) ;
#176 = DIRECTION ( 'NONE',  ( 1.000000000000000000, 0.0000000000000000000, 0.0000000000000000000 ) ) ;
#177 = DIRECTION ( 'NONE',  ( 0.0000000000000000000, 0.0000000000000000000, 1.000000000000000000 ) ) ;
#178 = CARTESIAN_POINT ( 'NONE',  ( -70.00000000000000000, 0.0000000000000000000, 2.299999999999999800 ) ) ;
#179 = AXIS2_PLACEMENT_3D ( 'NONE', #178, #177, #176 ) ;
#180 = PLANE ( 'NONE',  #179 ) ;
#181 = FACE_BOUND ( 'NONE', #94, .T. ) ;
#182 = FACE_OUTER_BOUND ( 'NONE', #18, .T. ) ;
#183 = DIRECTION ( 'NONE',  ( 0.0000000000000000000, 0.0000000000000000000, -1.000000000000000000 ) ) ;
#184 = VECTOR ( 'NONE', #183, 1000.000000000000000 ) ;
#185 = CARTESIAN_POINT ( 'NONE',  ( -70.35714285714286100, -4.987228587060336300, 2.299999999999999800 ) ) ;
#186 = LINE ( 'NONE', #185, #184 ) ;
#187 = CARTESIAN_POINT ( 'NONE',  ( -75.00000000000001400, 0.0000000000000000000, 0.0000000000000000000 ) ) ;
#188 = DIRECTION ( 'NONE',  ( 0.7071067811865479100, 0.7071067811865472400, 0.0000000000000000000 ) ) ;
#189 = DIRECTION ( 'NONE',  ( 0.7071067811865472400, -0.7071067811865479100, 0.0000000000000000000 ) ) ;
#190 = CARTESIAN_POINT ( 'NONE',  ( -5.656854249492383200, 4.133520782600985700E-016, 2.299999999999999800 ) ) ;
#191 = AXIS2_PLACEMENT_3D ( 'NONE', #190, #189, #188 ) ;
#192 = PLANE ( 'NONE',  #191 ) ;
#193 = APPROVAL_ROLE ( '' ) ;
#194 = LOCAL_TIME ( 9, 55, 44.00000000000000000, #195 ) ;
#195 = COORDINATED_UNIVERSAL_TIME_OFFSET ( 9, 0, .AHEAD. ) ;
#196 = CC_DESIGN_APPROVAL ( #379, ( #382 ) ) ;
#197 = APPROVAL_DATE_TIME ( #206, #379 ) ;
#198 = CC_DESIGN_PERSON_AND_ORGANIZATION_ASSIGNMENT ( #209, #208, ( #382 ) ) ;
#199 = CC_DESIGN_PERSON_AND_ORGANIZATION_ASSIGNMENT ( #201, #200, ( #202 ) ) ;
#200 = PERSON_AND_ORGANIZATION_ROLE ( 'classification_officer' ) ;
#201 = PERSON_AND_ORGANIZATION ( #272, #271 ) ;
#202 = SECURITY_CLASSIFICATION ( '', '', #210 ) ;
#203 = PERSON_AND_ORGANIZATION_ROLE ( 'design_supplier' ) ;
#204 = PERSON_AND_ORGANIZATION ( #272, #271 ) ;
#205 = COORDINATED_UNIVERSAL_TIME_OFFSET ( 9, 0, .AHEAD. ) ;
#206 = DATE_AND_TIME ( #207, #194 ) ;
#207 = CALENDAR_DATE ( 2009, 1, 5 ) ;
#208 = PERSON_AND_ORGANIZATION_ROLE ( 'creator' ) ;
#209 = PERSON_AND_ORGANIZATION ( #272, #271 ) ;
#210 = SECURITY_CLASSIFICATION_LEVEL ( 'unclassified' ) ;
#211 = CC_DESIGN_PERSON_AND_ORGANIZATION_ASSIGNMENT ( #204, #203, ( #382 ) ) ;
#212 = DATE_AND_TIME ( #219, #213 ) ;
#213 = LOCAL_TIME ( 9, 55, 44.00000000000000000, #205 ) ;
#214 = APPROVAL ( #215, 'UNSPECIFIED' ) ;
#215 = APPROVAL_STATUS ( 'not_yet_approved' ) ;
#216 = PERSON_AND_ORGANIZATION ( #272, #271 ) ;
#217 = CC_DESIGN_DATE_AND_TIME_ASSIGNMENT ( #212, #218, ( #202 ) ) ;
#218 = DATE_TIME_ROLE ( 'classification_date' ) ;
#219 = CALENDAR_DATE ( 2009, 1, 5 ) ;
#220 = COORDINATED_UNIVERSAL_TIME_OFFSET ( 9, 0, .AHEAD. ) ;
#221 = LOCAL_TIME ( 9, 55, 44.00000000000000000, #220 ) ;
#222 = CC_DESIGN_APPROVAL ( #214, ( #202 ) ) ;
#223 = APPROVAL_PERSON_ORGANIZATION ( #216, #214, #193 ) ;
#224 = CALENDAR_DATE ( 2009, 1, 5 ) ;
#225 = CC_DESIGN_SECURITY_CLASSIFICATION ( #202, ( #382 ) ) ;
#226 = DATE_AND_TIME ( #224, #221 ) ;
#227 = APPROVAL_DATE_TIME ( #226, #214 ) ;
#228 = PRODUCT_RELATED_PRODUCT_CATEGORY ( 'detail', '', ( #273 ) ) ;
#229 = SHAPE_DEFINITION_REPRESENTATION ( #230, #306 ) ;
#230 = PRODUCT_DEFINITION_SHAPE ( 'NONE', 'NONE',  #403 ) ;
#231 = CARTESIAN_POINT ( 'NONE',  ( -70.35714285714286100, 4.987228587060336300, 2.299999999999999800 ) ) ;
#232 = LINE ( 'NONE', #231, #376 ) ;
#233 = DIRECTION ( 'NONE',  ( -1.000000000000000000, 0.0000000000000000000, 0.0000000000000000000 ) ) ;
#234 = DIRECTION ( 'NONE',  ( 0.0000000000000000000, 0.0000000000000000000, -1.000000000000000000 ) ) ;
#235 = CARTESIAN_POINT ( 'NONE',  ( 0.0000000000000000000, 0.0000000000000000000, 2.299999999999999800 ) ) ;
#236 = AXIS2_PLACEMENT_3D ( 'NONE', #235, #234, #233 ) ;
#237 = CYLINDRICAL_SURFACE ( 'NONE', #236, 10.00000000000000000 ) ;
#238 = FACE_OUTER_BOUND ( 'NONE', #62, .T. ) ;
#239 = DIRECTION ( 'NONE',  ( -0.9974457174120672200, 0.07142857142857142500, 0.0000000000000000000 ) ) ;
#240 = DIRECTION ( 'NONE',  ( 0.07142857142857143800, 0.9974457174120673300, 0.0000000000000000000 ) ) ;
#241 = CARTESIAN_POINT ( 'NONE',  ( -70.35714285714286100, -4.987228587060336300, 2.299999999999999800 ) ) ;
#242 = AXIS2_PLACEMENT_3D ( 'NONE', #241, #240, #239 ) ;
#243 = PLANE ( 'NONE',  #242 ) ;
#244 = DIRECTION ( 'NONE',  ( -1.000000000000000000, 0.0000000000000000000, 0.0000000000000000000 ) ) ;
#245 = DIRECTION ( 'NONE',  ( 0.0000000000000000000, 0.0000000000000000000, -1.000000000000000000 ) ) ;
#246 = CARTESIAN_POINT ( 'NONE',  ( -70.00000000000000000, 0.0000000000000000000, 2.299999999999999800 ) ) ;
#247 = AXIS2_PLACEMENT_3D ( 'NONE', #246, #245, #244 ) ;
#248 = CYLINDRICAL_SURFACE ( 'NONE', #247, 5.000000000000004400 ) ;
#249 = FACE_OUTER_BOUND ( 'NONE', #73, .T. ) ;
#250 = FACE_OUTER_BOUND ( 'NONE', #69, .T. ) ;
#251 = DIRECTION ( 'NONE',  ( -0.7071067811865479100, -0.7071067811865472400, 0.0000000000000000000 ) ) ;
#252 = VECTOR ( 'NONE', #251, 999.9999999999998900 ) ;
#253 = CARTESIAN_POINT ( 'NONE',  ( -5.656854249492383200, 4.133520782600985700E-016, 0.0000000000000000000 ) ) ;
#254 = LINE ( 'NONE', #253, #252 ) ;
#255 = DIRECTION ( 'NONE',  ( 0.0000000000000000000, 0.0000000000000000000, -1.000000000000000000 ) ) ;
#256 = VECTOR ( 'NONE', #255, 1000.000000000000000 ) ;
#257 = CARTESIAN_POINT ( 'NONE',  ( -0.7142857142857159700, -9.974457174120672700, 2.299999999999999800 ) ) ;
#258 = LINE ( 'NONE', #257, #256 ) ;
#259 = DIRECTION ( 'NONE',  ( -0.7071067811865479100, -0.7071067811865472400, 0.0000000000000000000 ) ) ;
#260 = DIRECTION ( 'NONE',  ( -0.7071067811865472400, 0.7071067811865479100, 0.0000000000000000000 ) ) ;
#261 = CARTESIAN_POINT ( 'NONE',  ( -3.015437292225309200E-015, -5.656854249492379700, 2.299999999999999800 ) ) ;
#262 = AXIS2_PLACEMENT_3D ( 'NONE', #261, #260, #259 ) ;
#263 = PLANE ( 'NONE',  #262 ) ;
#264 = FACE_OUTER_BOUND ( 'NONE', #60, .T. ) ;
#265 = DIRECTION ( 'NONE',  ( 0.0000000000000000000, 0.0000000000000000000, -1.000000000000000000 ) ) ;
#266 = VECTOR ( 'NONE', #265, 1000.000000000000000 ) ;
#267 = CARTESIAN_POINT ( 'NONE',  ( -3.015437292225309200E-015, -5.656854249492379700, 2.299999999999999800 ) ) ;
#268 = LINE ( 'NONE', #267, #266 ) ;
#269 = DIRECTION ( 'NONE',  ( 0.0000000000000000000, 0.0000000000000000000, -1.000000000000000000 ) ) ;
#270 = VECTOR ( 'NONE', #269, 1000.000000000000000 ) ;
#271 = ORGANIZATION ( 'UNSPECIFIED', 'UNSPECIFIED', '' ) ;
#272 = PERSON ( 'UNSPECIFIED', 'UNSPECIFIED', 'UNSPECIFIED', ('UNSPECIFIED'), ('UNSPECIFIED'), ('UNSPECIFIED') ) ;
#273 = PRODUCT ( 'AC-25-6', 'AC-25-6', '', ( #274 ) ) ;
#274 = MECHANICAL_CONTEXT ( 'NONE', #276, 'mechanical' ) ;
#275 = APPLICATION_PROTOCOL_DEFINITION ( 'international standard', 'config_control_design', 1994, #276 ) ;
#276 = APPLICATION_CONTEXT ( 'configuration controlled 3d designs of mechanical parts and assemblies' ) ;
#277 = CARTESIAN_POINT ( 'NONE',  ( -70.35714285714286100, 4.987228587060336300, 2.299999999999999800 ) ) ;
#278 = DIRECTION ( 'NONE',  ( -0.7071067811865479100, -0.7071067811865472400, 0.0000000000000000000 ) ) ;
#279 = VECTOR ( 'NONE', #278, 999.9999999999998900 ) ;
#280 = CARTESIAN_POINT ( 'NONE',  ( -5.656854249492383200, 4.133520782600985700E-016, 2.299999999999999800 ) ) ;
#281 = LINE ( 'NONE', #280, #279 ) ;
#282 = DIRECTION ( 'NONE',  ( 0.7071067811865475700, -0.7071067811865474600, 0.0000000000000000000 ) ) ;
#283 = VECTOR ( 'NONE', #282, 1000.000000000000000 ) ;
#284 = CARTESIAN_POINT ( 'NONE',  ( -5.656854249492383200, 4.133520782600985700E-016, 2.299999999999999800 ) ) ;
#285 = LINE ( 'NONE', #284, #283 ) ;
#286 = CARTESIAN_POINT ( 'NONE',  ( -5.656854249492383200, 4.133520782600985700E-016, 2.299999999999999800 ) ) ;
#287 = CARTESIAN_POINT ( 'NONE',  ( 5.656854249492379700, -3.035766082959412400E-015, 2.299999999999999800 ) ) ;
#288 = CARTESIAN_POINT ( 'NONE',  ( -3.015437292225309200E-015, -5.656854249492379700, 2.299999999999999800 ) ) ;
#289 = DIRECTION ( 'NONE',  ( 0.7071067811865479100, 0.7071067811865472400, 0.0000000000000000000 ) ) ;
#290 = VECTOR ( 'NONE', #289, 999.9999999999998900 ) ;
#291 = CARTESIAN_POINT ( 'NONE',  ( -3.015437292225309200E-015, -5.656854249492379700, 2.299999999999999800 ) ) ;
#292 = LINE ( 'NONE', #291, #290 ) ;
#293 = CARTESIAN_POINT ( 'NONE',  ( -3.015437292225309200E-015, -5.656854249492379700, 0.0000000000000000000 ) ) ;
#294 = CARTESIAN_POINT ( 'NONE',  ( -5.656854249492380600, 6.938893903907228400E-015, 0.0000000000000000000 ) ) ;
#295 = DIRECTION ( 'NONE',  ( 0.7071067811865475700, -0.7071067811865474600, 0.0000000000000000000 ) ) ;
#296 = VECTOR ( 'NONE', #295, 1000.000000000000000 ) ;
#297 = CARTESIAN_POINT ( 'NONE',  ( -5.656854249492383200, 4.133520782600985700E-016, 0.0000000000000000000 ) ) ;
#298 = LINE ( 'NONE', #297, #296 ) ;
#299 = DIRECTION ( 'NONE',  ( 0.7071067811865479100, 0.7071067811865472400, 0.0000000000000000000 ) ) ;
#300 = VECTOR ( 'NONE', #299, 999.9999999999998900 ) ;
#301 = CARTESIAN_POINT ( 'NONE',  ( -3.015437292225309200E-015, -5.656854249492379700, 0.0000000000000000000 ) ) ;
#302 = DIRECTION ( 'NONE',  ( 1.000000000000000000, 0.0000000000000000000, 0.0000000000000000000 ) ) ;
#303 = DIRECTION ( 'NONE',  ( 0.0000000000000000000, 0.0000000000000000000, 1.000000000000000000 ) ) ;
#304 = CARTESIAN_POINT ( 'NONE',  ( 0.0000000000000000000, 0.0000000000000000000, 0.0000000000000000000 ) ) ;
#305 = AXIS2_PLACEMENT_3D ( 'NONE', #304, #303, #302 ) ;
#306 = ADVANCED_BREP_SHAPE_REPRESENTATION ( 'AC-25-6', ( #17, #305 ), #307 ) ;
#307 =( GEOMETRIC_REPRESENTATION_CONTEXT ( 3 ) GLOBAL_UNCERTAINTY_ASSIGNED_CONTEXT ( ( #308 ) ) GLOBAL_UNIT_ASSIGNED_CONTEXT ( ( #350, #349, #309 ) ) REPRESENTATION_CONTEXT ( 'NONE', 'WORKASPACE' ) );
#308 = UNCERTAINTY_MEASURE_WITH_UNIT (LENGTH_MEASURE( 1.000000000000000100E-005 ), #350, 'distance_accuracy_value', 'NONE');
#309 =( NAMED_UNIT ( * ) SI_UNIT ( $, .STERADIAN. ) SOLID_ANGLE_UNIT ( ) );
#310 = FACE_OUTER_BOUND ( 'NONE', #49, .T. ) ;
#311 = PLANE ( 'NONE',  #316 ) ;
#312 = DIRECTION ( 'NONE',  ( 0.9974457174120672200, 0.07142857142857142500, 0.0000000000000000000 ) ) ;
#313 = DIRECTION ( 'NONE',  ( 0.07142857142857143800, -0.9974457174120673300, 0.0000000000000000000 ) ) ;
#314 = AXIS2_PLACEMENT_3D ( 'NONE', #277, #313, #312 ) ;
#315 = CARTESIAN_POINT ( 'NONE',  ( -5.656854249492383200, 4.133520782600985700E-016, 2.299999999999999800 ) ) ;
#316 = AXIS2_PLACEMENT_3D ( 'NONE', #315, #412, #411 ) ;
#317 = CARTESIAN_POINT ( 'NONE',  ( -5.656854249492383200, 4.133520782600985700E-016, 2.299999999999999800 ) ) ;
#318 = LINE ( 'NONE', #353, #352 ) ;
#319 = CARTESIAN_POINT ( 'NONE',  ( -0.7142857142857159700, -9.974457174120672700, 0.0000000000000000000 ) ) ;
#320 = CARTESIAN_POINT ( 'NONE',  ( -0.7142857142857144100, 9.974457174120672700, 0.0000000000000000000 ) ) ;
#321 = DIRECTION ( 'NONE',  ( -0.9974457174120672200, -0.07142857142857142500, 0.0000000000000000000 ) ) ;
#322 = VECTOR ( 'NONE', #321, 1000.000000000000200 ) ;
#323 = CARTESIAN_POINT ( 'NONE',  ( -70.35714285714286100, 4.987228587060336300, 0.0000000000000000000 ) ) ;
#324 = LINE ( 'NONE', #323, #322 ) ;
#325 = CARTESIAN_POINT ( 'NONE',  ( -70.35714285714286100, 4.987228587060336300, 0.0000000000000000000 ) ) ;
#326 = DIRECTION ( 'NONE',  ( -0.7071067811865473500, 0.7071067811865477900, 0.0000000000000000000 ) ) ;
#327 = VECTOR ( 'NONE', #326, 999.9999999999998900 ) ;
#328 = CARTESIAN_POINT ( 'NONE',  ( 0.0000000000000000000, 5.656854249492378800, 0.0000000000000000000 ) ) ;
#329 = LINE ( 'NONE', #328, #327 ) ;
#330 = CARTESIAN_POINT ( 'NONE',  ( 0.0000000000000000000, 5.656854249492378800, 0.0000000000000000000 ) ) ;
#331 = CARTESIAN_POINT ( 'NONE',  ( 5.656854249492379700, -3.035766082959412400E-015, 0.0000000000000000000 ) ) ;
#332 = DIRECTION ( 'NONE',  ( 1.000000000000000000, 0.0000000000000000000, 0.0000000000000000000 ) ) ;
#333 = DIRECTION ( 'NONE',  ( 0.0000000000000000000, 0.0000000000000000000, 1.000000000000000000 ) ) ;
#334 = CARTESIAN_POINT ( 'NONE',  ( -70.00000000000000000, 0.0000000000000000000, 0.0000000000000000000 ) ) ;
#335 = AXIS2_PLACEMENT_3D ( 'NONE', #334, #333, #332 ) ;
#336 = CIRCLE ( 'NONE', #335, 5.000000000000004400 ) ;
#337 = DIRECTION ( 'NONE',  ( 1.000000000000000000, 0.0000000000000000000, 0.0000000000000000000 ) ) ;
#338 = DIRECTION ( 'NONE',  ( 0.0000000000000000000, 0.0000000000000000000, 1.000000000000000000 ) ) ;
#339 = CARTESIAN_POINT ( 'NONE',  ( -70.00000000000000000, 0.0000000000000000000, 0.0000000000000000000 ) ) ;
#340 = AXIS2_PLACEMENT_3D ( 'NONE', #339, #338, #337 ) ;
#341 = PLANE ( 'NONE',  #340 ) ;
#342 = FACE_BOUND ( 'NONE', #95, .T. ) ;
#343 = FACE_OUTER_BOUND ( 'NONE', #115, .T. ) ;
#344 = DIRECTION ( 'NONE',  ( -0.7071067811865473500, 0.7071067811865477900, 0.0000000000000000000 ) ) ;
#345 = VECTOR ( 'NONE', #344, 999.9999999999998900 ) ;
#346 = CARTESIAN_POINT ( 'NONE',  ( 0.0000000000000000000, 5.656854249492378800, 2.299999999999999800 ) ) ;
#347 = LINE ( 'NONE', #346, #345 ) ;
#348 = CARTESIAN_POINT ( 'NONE',  ( -6.938893903907228400E-015, 5.656854249492374400, 2.299999999999999800 ) ) ;
#349 =( NAMED_UNIT ( * ) PLANE_ANGLE_UNIT ( ) SI_UNIT ( $, .RADIAN. ) );
#350 =( LENGTH_UNIT ( ) NAMED_UNIT ( * ) SI_UNIT ( .MILLI., .METRE. ) );
#351 = DIRECTION ( 'NONE',  ( 0.9974457174120672200, -0.07142857142857142500, 0.0000000000000000000 ) ) ;
#352 = VECTOR ( 'NONE', #351, 1000.000000000000200 ) ;
#353 = CARTESIAN_POINT ( 'NONE',  ( -70.35714285714286100, -4.987228587060336300, 0.0000000000000000000 ) ) ;
#354 = DIRECTION ( 'NONE',  ( 1.000000000000000000, 0.0000000000000000000, 0.0000000000000000000 ) ) ;
#355 = DIRECTION ( 'NONE',  ( 0.0000000000000000000, 0.0000000000000000000, 1.000000000000000000 ) ) ;
#356 = CARTESIAN_POINT ( 'NONE',  ( 0.0000000000000000000, 0.0000000000000000000, 0.0000000000000000000 ) ) ;
#357 = AXIS2_PLACEMENT_3D ( 'NONE', #356, #355, #354 ) ;
#358 = CIRCLE ( 'NONE', #357, 10.00000000000000000 ) ;
#359 = LINE ( 'NONE', #301, #300 ) ;
#360 = DIRECTION ( 'NONE',  ( -0.9974457174120672200, -0.07142857142857142500, 0.0000000000000000000 ) ) ;
#361 = VECTOR ( 'NONE', #360, 1000.000000000000200 ) ;
#362 = CARTESIAN_POINT ( 'NONE',  ( -70.35714285714286100, 4.987228587060336300, 2.299999999999999800 ) ) ;
#363 = LINE ( 'NONE', #362, #361 ) ;
#364 = CARTESIAN_POINT ( 'NONE',  ( -0.7142857142857144100, 9.974457174120672700, 2.299999999999999800 ) ) ;
#365 = DIRECTION ( 'NONE',  ( 1.000000000000000000, 0.0000000000000000000, 0.0000000000000000000 ) ) ;
#366 = DIRECTION ( 'NONE',  ( 0.0000000000000000000, 0.0000000000000000000, 1.000000000000000000 ) ) ;
#367 = CARTESIAN_POINT ( 'NONE',  ( 0.0000000000000000000, 0.0000000000000000000, 2.299999999999999800 ) ) ;
#368 = AXIS2_PLACEMENT_3D ( 'NONE', #367, #366, #365 ) ;
#369 = CIRCLE ( 'NONE', #368, 10.00000000000000000 ) ;
#370 = CARTESIAN_POINT ( 'NONE',  ( -0.7142857142857159700, -9.974457174120672700, 2.299999999999999800 ) ) ;
#371 = DIRECTION ( 'NONE',  ( 0.9974457174120672200, -0.07142857142857142500, 0.0000000000000000000 ) ) ;
#372 = VECTOR ( 'NONE', #371, 1000.000000000000200 ) ;
#373 = CARTESIAN_POINT ( 'NONE',  ( -70.35714285714286100, -4.987228587060336300, 2.299999999999999800 ) ) ;
#374 = LINE ( 'NONE', #373, #372 ) ;
#375 = DIRECTION ( 'NONE',  ( 0.0000000000000000000, 0.0000000000000000000, -1.000000000000000000 ) ) ;
#376 = VECTOR ( 'NONE', #375, 1000.000000000000000 ) ;
#377 = APPROVAL_PERSON_ORGANIZATION ( #381, #379, #378 ) ;
#378 = APPROVAL_ROLE ( '' ) ;
#379 = APPROVAL ( #380, 'UNSPECIFIED' ) ;
#380 = APPROVAL_STATUS ( 'not_yet_approved' ) ;
#381 = PERSON_AND_ORGANIZATION ( #272, #271 ) ;
#382 = PRODUCT_DEFINITION_FORMATION_WITH_SPECIFIED_SOURCE ( 'ANY', '', #273, .NOT_KNOWN. ) ;
#383 = CC_DESIGN_DATE_AND_TIME_ASSIGNMENT ( #385, #384, ( #403 ) ) ;
#384 = DATE_TIME_ROLE ( 'creation_date' ) ;
#385 = DATE_AND_TIME ( #386, #387 ) ;
#386 = CALENDAR_DATE ( 2009, 1, 5 ) ;
#387 = LOCAL_TIME ( 9, 55, 44.00000000000000000, #388 ) ;
#388 = COORDINATED_UNIVERSAL_TIME_OFFSET ( 9, 0, .AHEAD. ) ;
#389 = CC_DESIGN_PERSON_AND_ORGANIZATION_ASSIGNMENT ( #391, #390, ( #403 ) ) ;
#390 = PERSON_AND_ORGANIZATION_ROLE ( 'creator' ) ;
#391 = PERSON_AND_ORGANIZATION ( #272, #271 ) ;
#392 = CC_DESIGN_APPROVAL ( #400, ( #403 ) ) ;
#393 = APPROVAL_DATE_TIME ( #394, #400 ) ;
#394 = DATE_AND_TIME ( #395, #396 ) ;
#395 = CALENDAR_DATE ( 2009, 1, 5 ) ;
#396 = LOCAL_TIME ( 9, 55, 44.00000000000000000, #397 ) ;
#397 = COORDINATED_UNIVERSAL_TIME_OFFSET ( 9, 0, .AHEAD. ) ;
#398 = APPROVAL_PERSON_ORGANIZATION ( #402, #400, #399 ) ;
#399 = APPROVAL_ROLE ( '' ) ;
#400 = APPROVAL ( #401, 'UNSPECIFIED' ) ;
#401 = APPROVAL_STATUS ( 'not_yet_approved' ) ;
#402 = PERSON_AND_ORGANIZATION ( #272, #271 ) ;
#403 = PRODUCT_DEFINITION ( 'UNKNOWN', '', #382, #404 ) ;
#404 = DESIGN_CONTEXT ( 'detailed design', #406, 'design' ) ;
#405 = APPLICATION_PROTOCOL_DEFINITION ( 'international standard', 'config_control_design', 1994, #406 ) ;
#406 = APPLICATION_CONTEXT ( 'configuration controlled 3d designs of mechanical parts and assemblies' ) ;
#407 = CC_DESIGN_PERSON_AND_ORGANIZATION_ASSIGNMENT ( #409, #408, ( #273 ) ) ;
#408 = PERSON_AND_ORGANIZATION_ROLE ( 'design_owner' ) ;
#409 = PERSON_AND_ORGANIZATION ( #272, #271 ) ;
#410 = LINE ( 'NONE', #317, #270 ) ;
#411 = DIRECTION ( 'NONE',  ( -0.7071067811865475700, 0.7071067811865474600, 0.0000000000000000000 ) ) ;
#412 = DIRECTION ( 'NONE',  ( 0.7071067811865474600, 0.7071067811865475700, 0.0000000000000000000 ) ) ;
ENDSEC;
END-ISO-10303-21;
