ISO-10303-21;
HEADER;
FILE_DESCRIPTION (( 'STEP AP203' ),
    '1' );
FILE_NAME ('AC-25-53.STEP',
    '2009-05-01T01:15:51',
    ( ' ' ),
    ( ' ' ),
    'SwSTEP 2.0',
    'SolidWorks 2007',
    '' );
FILE_SCHEMA (( 'CONFIG_CONTROL_DESIGN' ));
ENDSEC;

DATA;
#1 = EDGE_LOOP ( 'NONE', ( #2, #3, #57, #58 ) ) ;
#2 = ORIENTED_EDGE ( 'NONE', *, *, #359, .T. ) ;
#3 = ORIENTED_EDGE ( 'NONE', *, *, #4, .F. ) ;
#4 = EDGE_CURVE ( 'NONE', #362, #397, #66, .T. ) ;
#5 = ORIENTED_EDGE ( 'NONE', *, *, #359, .F. ) ;
#6 = ORIENTED_EDGE ( 'NONE', *, *, #95, .T. ) ;
#7 = EDGE_CURVE ( 'NONE', #17, #18, #124, .T. ) ;
#8 = VERTEX_POINT ( 'NONE', #120 ) ;
#9 = VERTEX_POINT ( 'NONE', #119 ) ;
#10 = EDGE_LOOP ( 'NONE', ( #6, #16, #14, #62 ) ) ;
#11 = ORIENTED_EDGE ( 'NONE', *, *, #372, .F. ) ;
#12 = ORIENTED_EDGE ( 'NONE', *, *, #388, .T. ) ;
#13 = ADVANCED_FACE ( 'NONE', ( #118 ), #116, .T. ) ;
#14 = ORIENTED_EDGE ( 'NONE', *, *, #7, .T. ) ;
#15 = ORIENTED_EDGE ( 'NONE', *, *, #389, .F. ) ;
#16 = ORIENTED_EDGE ( 'NONE', *, *, #61, .T. ) ;
#17 = VERTEX_POINT ( 'NONE', #112 ) ;
#18 = VERTEX_POINT ( 'NONE', #111 ) ;
#19 = ORIENTED_EDGE ( 'NONE', *, *, #20, .F. ) ;
#20 = EDGE_CURVE ( 'NONE', #371, #9, #110, .T. ) ;
#21 = VERTEX_POINT ( 'NONE', #106 ) ;
#22 = ORIENTED_EDGE ( 'NONE', *, *, #390, .F. ) ;
#23 = ORIENTED_EDGE ( 'NONE', *, *, #54, .T. ) ;
#24 = ADVANCED_FACE ( 'NONE', ( #105 ), #104, .F. ) ;
#25 = ORIENTED_EDGE ( 'NONE', *, *, #355, .T. ) ;
#26 = ADVANCED_FACE ( 'NONE', ( #99 ), #98, .T. ) ;
#27 = ORIENTED_EDGE ( 'NONE', *, *, #361, .T. ) ;
#28 = ORIENTED_EDGE ( 'NONE', *, *, #40, .F. ) ;
#29 = EDGE_CURVE ( 'NONE', #401, #18, #157, .T. ) ;
#30 = EDGE_CURVE ( 'NONE', #410, #8, #151, .T. ) ;
#31 = EDGE_LOOP ( 'NONE', ( #33, #39, #42, #37 ) ) ;
#32 = ORIENTED_EDGE ( 'NONE', *, *, #40, .T. ) ;
#33 = ORIENTED_EDGE ( 'NONE', *, *, #95, .F. ) ;
#34 = ORIENTED_EDGE ( 'NONE', *, *, #61, .F. ) ;
#35 = EDGE_LOOP ( 'NONE', ( #52, #28, #38, #41 ) ) ;
#36 = ORIENTED_EDGE ( 'NONE', *, *, #49, .F. ) ;
#37 = ORIENTED_EDGE ( 'NONE', *, *, #49, .T. ) ;
#38 = ORIENTED_EDGE ( 'NONE', *, *, #363, .T. ) ;
#39 = ORIENTED_EDGE ( 'NONE', *, *, #30, .F. ) ;
#40 = EDGE_CURVE ( 'NONE', #409, #17, #147, .T. ) ;
#41 = ORIENTED_EDGE ( 'NONE', *, *, #29, .T. ) ;
#42 = ORIENTED_EDGE ( 'NONE', *, *, #408, .T. ) ;
#43 = ADVANCED_FACE ( 'NONE', ( #143 ), #142, .T. ) ;
#44 = ADVANCED_FACE ( 'NONE', ( #137 ), #136, .T. ) ;
#45 = ORIENTED_EDGE ( 'NONE', *, *, #411, .T. ) ;
#46 = EDGE_LOOP ( 'NONE', ( #34, #36, #45, #32 ) ) ;
#47 = ORIENTED_EDGE ( 'NONE', *, *, #29, .F. ) ;
#48 = ADVANCED_FACE ( 'NONE', ( #131 ), #130, .T. ) ;
#49 = EDGE_CURVE ( 'NONE', #404, #21, #93, .T. ) ;
#50 = EDGE_LOOP ( 'NONE', ( #51, #47, #27, #406 ) ) ;
#51 = ORIENTED_EDGE ( 'NONE', *, *, #63, .F. ) ;
#52 = ORIENTED_EDGE ( 'NONE', *, *, #7, .F. ) ;
#53 = ADVANCED_FACE ( 'NONE', ( #89 ), #88, .T. ) ;
#54 = EDGE_CURVE ( 'NONE', #382, #393, #83, .T. ) ;
#55 = ORIENTED_EDGE ( 'NONE', *, *, #395, .T. ) ;
#56 = EDGE_LOOP ( 'NONE', ( #25, #19, #11, #12 ) ) ;
#57 = ORIENTED_EDGE ( 'NONE', *, *, #368, .F. ) ;
#58 = ORIENTED_EDGE ( 'NONE', *, *, #20, .T. ) ;
#59 = ADVANCED_FACE ( 'NONE', ( #79 ), #78, .F. ) ;
#60 = EDGE_LOOP ( 'NONE', ( #360, #356, #357, #353 ) ) ;
#61 = EDGE_CURVE ( 'NONE', #21, #17, #73, .T. ) ;
#62 = ORIENTED_EDGE ( 'NONE', *, *, #63, .T. ) ;
#63 = EDGE_CURVE ( 'NONE', #18, #8, #189, .T. ) ;
#64 = VECTOR ( 'NONE', #125, 1000.000000000000000 ) ;
#65 = CARTESIAN_POINT ( 'NONE',  ( 0.0000000000000000000, 11.50000000000000000, 2.299999999999999800 ) ) ;
#66 = LINE ( 'NONE', #65, #64 ) ;
#67 = CC_DESIGN_PERSON_AND_ORGANIZATION_ASSIGNMENT ( #69, #68, ( #163 ) ) ;
#68 = PERSON_AND_ORGANIZATION_ROLE ( 'classification_officer' ) ;
#69 = PERSON_AND_ORGANIZATION ( #325, #252 ) ;
#70 = DIRECTION ( 'NONE',  ( 0.7071067811865463500, 0.7071067811865487900, 0.0000000000000000000 ) ) ;
#71 = VECTOR ( 'NONE', #70, 1000.000000000000000 ) ;
#72 = CARTESIAN_POINT ( 'NONE',  ( 9.540979117872439000E-015, -5.727564927611034300, 0.0000000000000000000 ) ) ;
#73 = LINE ( 'NONE', #72, #71 ) ;
#74 = DIRECTION ( 'NONE',  ( 1.000000000000000000, 8.360113137237623700E-017, 0.0000000000000000000 ) ) ;
#75 = DIRECTION ( 'NONE',  ( 8.360113137237623700E-017, -1.000000000000000000, 0.0000000000000000000 ) ) ;
#76 = CARTESIAN_POINT ( 'NONE',  ( -41.50000000000000000, 11.49999999999999600, 2.299999999999999800 ) ) ;
#77 = AXIS2_PLACEMENT_3D ( 'NONE', #76, #75, #74 ) ;
#78 = PLANE ( 'NONE',  #77 ) ;
#79 = FACE_OUTER_BOUND ( 'NONE', #60, .T. ) ;
#80 = DIRECTION ( 'NONE',  ( 0.0000000000000000000, 0.0000000000000000000, -1.000000000000000000 ) ) ;
#81 = VECTOR ( 'NONE', #80, 1000.000000000000000 ) ;
#82 = CARTESIAN_POINT ( 'NONE',  ( -41.50000000000000000, 11.49999999999999600, 2.299999999999999800 ) ) ;
#83 = LINE ( 'NONE', #82, #81 ) ;
#84 = DIRECTION ( 'NONE',  ( 0.7071067811865463500, 0.7071067811865487900, 0.0000000000000000000 ) ) ;
#85 = DIRECTION ( 'NONE',  ( 0.7071067811865487900, -0.7071067811865463500, 0.0000000000000000000 ) ) ;
#86 = CARTESIAN_POINT ( 'NONE',  ( -5.727564927611036100, -9.540979117872439000E-015, 2.299999999999999800 ) ) ;
#87 = AXIS2_PLACEMENT_3D ( 'NONE', #86, #85, #84 ) ;
#88 = PLANE ( 'NONE',  #87 ) ;
#89 = FACE_OUTER_BOUND ( 'NONE', #50, .T. ) ;
#90 = DIRECTION ( 'NONE',  ( 0.0000000000000000000, 0.0000000000000000000, -1.000000000000000000 ) ) ;
#91 = VECTOR ( 'NONE', #90, 1000.000000000000000 ) ;
#92 = CARTESIAN_POINT ( 'NONE',  ( 9.540979117872439000E-015, -5.727564927611034300, 2.299999999999999800 ) ) ;
#93 = LINE ( 'NONE', #92, #91 ) ;
#94 = EDGE_LOOP ( 'NONE', ( #15, #22, #23, #55 ) ) ;
#95 = EDGE_CURVE ( 'NONE', #8, #21, #185, .T. ) ;
#96 = CARTESIAN_POINT ( 'NONE',  ( -41.50000000000000000, 0.0000000000000000000, 2.299999999999999800 ) ) ;
#97 = AXIS2_PLACEMENT_3D ( 'NONE', #96, #156, #155 ) ;
#98 = CYLINDRICAL_SURFACE ( 'NONE', #97, 11.49999999999999600 ) ;
#99 = FACE_OUTER_BOUND ( 'NONE', #94, .T. ) ;
#100 = DIRECTION ( 'NONE',  ( -1.000000000000000000, 8.360113137237623700E-017, 0.0000000000000000000 ) ) ;
#101 = DIRECTION ( 'NONE',  ( 8.360113137237623700E-017, 1.000000000000000000, 0.0000000000000000000 ) ) ;
#102 = CARTESIAN_POINT ( 'NONE',  ( -41.50000000000000000, -11.49999999999999600, 2.299999999999999800 ) ) ;
#103 = AXIS2_PLACEMENT_3D ( 'NONE', #102, #101, #100 ) ;
#104 = PLANE ( 'NONE',  #103 ) ;
#105 = FACE_OUTER_BOUND ( 'NONE', #56, .T. ) ;
#106 = CARTESIAN_POINT ( 'NONE',  ( 9.540979117872439000E-015, -5.727564927611034300, 0.0000000000000000000 ) ) ;
#107 = DIRECTION ( 'NONE',  ( 0.0000000000000000000, 0.0000000000000000000, -1.000000000000000000 ) ) ;
#108 = VECTOR ( 'NONE', #107, 1000.000000000000000 ) ;
#109 = CARTESIAN_POINT ( 'NONE',  ( -2.112445960343600800E-015, -11.50000000000000000, 2.299999999999999800 ) ) ;
#110 = LINE ( 'NONE', #109, #108 ) ;
#111 = CARTESIAN_POINT ( 'NONE',  ( -1.084202172485504400E-014, 5.727564927611034300, 0.0000000000000000000 ) ) ;
#112 = CARTESIAN_POINT ( 'NONE',  ( 5.727564927611035200, 1.084202172485504400E-014, 0.0000000000000000000 ) ) ;
#113 = DIRECTION ( 'NONE',  ( -1.000000000000000000, 0.0000000000000000000, 0.0000000000000000000 ) ) ;
#114 = DIRECTION ( 'NONE',  ( 0.0000000000000000000, 0.0000000000000000000, -1.000000000000000000 ) ) ;
#115 = AXIS2_PLACEMENT_3D ( 'NONE', #117, #114, #113 ) ;
#116 = CYLINDRICAL_SURFACE ( 'NONE', #115, 11.50000000000000000 ) ;
#117 = CARTESIAN_POINT ( 'NONE',  ( 0.0000000000000000000, 0.0000000000000000000, 2.299999999999999800 ) ) ;
#118 = FACE_OUTER_BOUND ( 'NONE', #1, .T. ) ;
#119 = CARTESIAN_POINT ( 'NONE',  ( -2.112445960343600800E-015, -11.50000000000000000, 0.0000000000000000000 ) ) ;
#120 = CARTESIAN_POINT ( 'NONE',  ( -5.727564927611034300, -6.938893903907228400E-015, 0.0000000000000000000 ) ) ;
#121 = DIRECTION ( 'NONE',  ( -0.7071067811865489100, 0.7071067811865461300, 0.0000000000000000000 ) ) ;
#122 = VECTOR ( 'NONE', #121, 1000.000000000000100 ) ;
#123 = CARTESIAN_POINT ( 'NONE',  ( -1.084202172485504400E-014, 5.727564927611034300, 0.0000000000000000000 ) ) ;
#124 = LINE ( 'NONE', #123, #122 ) ;
#125 = DIRECTION ( 'NONE',  ( 0.0000000000000000000, 0.0000000000000000000, -1.000000000000000000 ) ) ;
#126 = DIRECTION ( 'NONE',  ( -0.7071067811865489100, 0.7071067811865462400, 0.0000000000000000000 ) ) ;
#127 = DIRECTION ( 'NONE',  ( 0.7071067811865462400, 0.7071067811865489100, 0.0000000000000000000 ) ) ;
#128 = CARTESIAN_POINT ( 'NONE',  ( -5.727564927611036100, -9.540979117872439000E-015, 2.299999999999999800 ) ) ;
#129 = AXIS2_PLACEMENT_3D ( 'NONE', #128, #127, #126 ) ;
#130 = PLANE ( 'NONE',  #129 ) ;
#131 = FACE_OUTER_BOUND ( 'NONE', #31, .T. ) ;
#132 = DIRECTION ( 'NONE',  ( -0.7071067811865463500, -0.7071067811865487900, 0.0000000000000000000 ) ) ;
#133 = DIRECTION ( 'NONE',  ( -0.7071067811865487900, 0.7071067811865463500, 0.0000000000000000000 ) ) ;
#134 = CARTESIAN_POINT ( 'NONE',  ( 9.540979117872439000E-015, -5.727564927611034300, 2.299999999999999800 ) ) ;
#135 = AXIS2_PLACEMENT_3D ( 'NONE', #134, #133, #132 ) ;
#136 = PLANE ( 'NONE',  #135 ) ;
#137 = FACE_OUTER_BOUND ( 'NONE', #46, .T. ) ;
#138 = DIRECTION ( 'NONE',  ( 0.7071067811865489100, -0.7071067811865461300, 0.0000000000000000000 ) ) ;
#139 = DIRECTION ( 'NONE',  ( -0.7071067811865461300, -0.7071067811865489100, 0.0000000000000000000 ) ) ;
#140 = CARTESIAN_POINT ( 'NONE',  ( -1.084202172485504400E-014, 5.727564927611034300, 2.299999999999999800 ) ) ;
#141 = AXIS2_PLACEMENT_3D ( 'NONE', #140, #139, #138 ) ;
#142 = PLANE ( 'NONE',  #141 ) ;
#143 = FACE_OUTER_BOUND ( 'NONE', #35, .T. ) ;
#144 = DIRECTION ( 'NONE',  ( 0.0000000000000000000, 0.0000000000000000000, -1.000000000000000000 ) ) ;
#145 = VECTOR ( 'NONE', #144, 1000.000000000000000 ) ;
#146 = CARTESIAN_POINT ( 'NONE',  ( 5.727564927611035200, 1.084202172485504400E-014, 2.299999999999999800 ) ) ;
#147 = LINE ( 'NONE', #146, #145 ) ;
#148 = DIRECTION ( 'NONE',  ( 0.0000000000000000000, 0.0000000000000000000, -1.000000000000000000 ) ) ;
#149 = VECTOR ( 'NONE', #148, 1000.000000000000000 ) ;
#150 = CARTESIAN_POINT ( 'NONE',  ( -5.727564927611036100, -9.540979117872439000E-015, 2.299999999999999800 ) ) ;
#151 = LINE ( 'NONE', #150, #149 ) ;
#152 = DIRECTION ( 'NONE',  ( 0.0000000000000000000, 0.0000000000000000000, -1.000000000000000000 ) ) ;
#153 = VECTOR ( 'NONE', #152, 1000.000000000000000 ) ;
#154 = CARTESIAN_POINT ( 'NONE',  ( -1.084202172485504400E-014, 5.727564927611034300, 2.299999999999999800 ) ) ;
#155 = DIRECTION ( 'NONE',  ( -1.000000000000000000, 0.0000000000000000000, 0.0000000000000000000 ) ) ;
#156 = DIRECTION ( 'NONE',  ( 0.0000000000000000000, 0.0000000000000000000, -1.000000000000000000 ) ) ;
#157 = LINE ( 'NONE', #154, #153 ) ;
#158 = SECURITY_CLASSIFICATION_LEVEL ( 'unclassified' ) ;
#159 = DIRECTION ( 'NONE',  ( -1.000000000000000000, -8.360113137237623700E-017, 0.0000000000000000000 ) ) ;
#160 = VECTOR ( 'NONE', #159, 1000.000000000000000 ) ;
#161 = CARTESIAN_POINT ( 'NONE',  ( -41.50000000000000000, 11.49999999999999600, 2.299999999999999800 ) ) ;
#162 = LINE ( 'NONE', #161, #160 ) ;
#163 = SECURITY_CLASSIFICATION ( '', '', #158 ) ;
#164 = DIRECTION ( 'NONE',  ( -0.7071067811865489100, 0.7071067811865461300, 0.0000000000000000000 ) ) ;
#165 = VECTOR ( 'NONE', #164, 1000.000000000000100 ) ;
#166 = CARTESIAN_POINT ( 'NONE',  ( -1.084202172485504400E-014, 5.727564927611034300, 2.299999999999999800 ) ) ;
#167 = LINE ( 'NONE', #166, #165 ) ;
#168 = CARTESIAN_POINT ( 'NONE',  ( 0.0000000000000000000, 11.50000000000000000, 2.299999999999999800 ) ) ;
#169 = DIRECTION ( 'NONE',  ( -0.7071067811865463500, -0.7071067811865487900, 0.0000000000000000000 ) ) ;
#170 = VECTOR ( 'NONE', #169, 999.9999999999998900 ) ;
#171 = CARTESIAN_POINT ( 'NONE',  ( -5.727564927611036100, -9.540979117872439000E-015, 2.299999999999999800 ) ) ;
#172 = LINE ( 'NONE', #171, #170 ) ;
#173 = DIRECTION ( 'NONE',  ( 1.000000000000000000, 0.0000000000000000000, 0.0000000000000000000 ) ) ;
#174 = DIRECTION ( 'NONE',  ( 0.0000000000000000000, 0.0000000000000000000, 1.000000000000000000 ) ) ;
#175 = CARTESIAN_POINT ( 'NONE',  ( 0.0000000000000000000, 0.0000000000000000000, 0.0000000000000000000 ) ) ;
#176 = AXIS2_PLACEMENT_3D ( 'NONE', #175, #174, #173 ) ;
#177 = CIRCLE ( 'NONE', #176, 11.50000000000000000 ) ;
#178 = DIRECTION ( 'NONE',  ( 1.000000000000000000, -8.360113137237623700E-017, 0.0000000000000000000 ) ) ;
#179 = VECTOR ( 'NONE', #178, 1000.000000000000000 ) ;
#180 = CARTESIAN_POINT ( 'NONE',  ( -41.50000000000000000, -11.49999999999999600, 0.0000000000000000000 ) ) ;
#181 = LINE ( 'NONE', #180, #179 ) ;
#182 = DIRECTION ( 'NONE',  ( 0.7071067811865489100, -0.7071067811865462400, 0.0000000000000000000 ) ) ;
#183 = VECTOR ( 'NONE', #182, 1000.000000000000000 ) ;
#184 = CARTESIAN_POINT ( 'NONE',  ( -5.727564927611036100, -9.540979117872439000E-015, 0.0000000000000000000 ) ) ;
#185 = LINE ( 'NONE', #184, #183 ) ;
#186 = DIRECTION ( 'NONE',  ( -0.7071067811865463500, -0.7071067811865487900, 0.0000000000000000000 ) ) ;
#187 = VECTOR ( 'NONE', #186, 999.9999999999998900 ) ;
#188 = CARTESIAN_POINT ( 'NONE',  ( -5.727564927611036100, -9.540979117872439000E-015, 0.0000000000000000000 ) ) ;
#189 = LINE ( 'NONE', #188, #187 ) ;
#190 = AXIS2_PLACEMENT_3D ( 'NONE', #197, #299, #298 ) ;
#191 = CIRCLE ( 'NONE', #190, 11.49999999999999600 ) ;
#192 = DIRECTION ( 'NONE',  ( 1.000000000000000000, 0.0000000000000000000, 0.0000000000000000000 ) ) ;
#193 = DIRECTION ( 'NONE',  ( 0.0000000000000000000, 0.0000000000000000000, 1.000000000000000000 ) ) ;
#194 = CARTESIAN_POINT ( 'NONE',  ( -41.50000000000000000, 0.0000000000000000000, 2.299999999999999800 ) ) ;
#195 = AXIS2_PLACEMENT_3D ( 'NONE', #194, #193, #192 ) ;
#196 = PLANE ( 'NONE',  #195 ) ;
#197 = CARTESIAN_POINT ( 'NONE',  ( -41.50000000000000000, 0.0000000000000000000, 0.0000000000000000000 ) ) ;
#198 = AXIS2_PLACEMENT_3D ( 'NONE', #270, #313, #217 ) ;
#199 = COORDINATED_UNIVERSAL_TIME_OFFSET ( 9, 0, .AHEAD. ) ;
#200 = CC_DESIGN_PERSON_AND_ORGANIZATION_ASSIGNMENT ( #202, #201, ( #225 ) ) ;
#201 = PERSON_AND_ORGANIZATION_ROLE ( 'design_supplier' ) ;
#202 = PERSON_AND_ORGANIZATION ( #325, #252 ) ;
#203 = CC_DESIGN_PERSON_AND_ORGANIZATION_ASSIGNMENT ( #205, #204, ( #225 ) ) ;
#204 = PERSON_AND_ORGANIZATION_ROLE ( 'creator' ) ;
#205 = PERSON_AND_ORGANIZATION ( #325, #252 ) ;
#206 = CC_DESIGN_APPROVAL ( #214, ( #225 ) ) ;
#207 = APPROVAL_DATE_TIME ( #208, #214 ) ;
#208 = DATE_AND_TIME ( #209, #210 ) ;
#209 = CALENDAR_DATE ( 2009, 1, 5 ) ;
#210 = LOCAL_TIME ( 10, 15, 51.00000000000000000, #211 ) ;
#211 = COORDINATED_UNIVERSAL_TIME_OFFSET ( 9, 0, .AHEAD. ) ;
#212 = APPROVAL_PERSON_ORGANIZATION ( #224, #214, #213 ) ;
#213 = APPROVAL_ROLE ( '' ) ;
#214 = APPROVAL ( #215, 'UNSPECIFIED' ) ;
#215 = APPROVAL_STATUS ( 'not_yet_approved' ) ;
#216 = CARTESIAN_POINT ( 'NONE',  ( -2.112445960343600800E-015, -11.50000000000000000, 2.299999999999999800 ) ) ;
#217 = DIRECTION ( 'NONE',  ( 1.000000000000000000, 0.0000000000000000000, 0.0000000000000000000 ) ) ;
#218 = DIRECTION ( 'NONE',  ( 0.0000000000000000000, 0.0000000000000000000, -1.000000000000000000 ) ) ;
#219 = VECTOR ( 'NONE', #218, 1000.000000000000000 ) ;
#220 = CARTESIAN_POINT ( 'NONE',  ( -41.50000000000000000, 0.0000000000000000000, 2.299999999999999800 ) ) ;
#221 = AXIS2_PLACEMENT_3D ( 'NONE', #220, #332, #331 ) ;
#222 = CYLINDRICAL_SURFACE ( 'NONE', #221, 11.49999999999999600 ) ;
#223 = CARTESIAN_POINT ( 'NONE',  ( -41.50000000000000000, 11.49999999999999600, 2.299999999999999800 ) ) ;
#224 = PERSON_AND_ORGANIZATION ( #325, #252 ) ;
#225 = PRODUCT_DEFINITION_FORMATION_WITH_SPECIFIED_SOURCE ( 'ANY', '', #326, .NOT_KNOWN. ) ;
#226 = CC_DESIGN_DATE_AND_TIME_ASSIGNMENT ( #228, #227, ( #246 ) ) ;
#227 = DATE_TIME_ROLE ( 'creation_date' ) ;
#228 = DATE_AND_TIME ( #229, #230 ) ;
#229 = CALENDAR_DATE ( 2009, 1, 5 ) ;
#230 = LOCAL_TIME ( 10, 15, 51.00000000000000000, #231 ) ;
#231 = COORDINATED_UNIVERSAL_TIME_OFFSET ( 9, 0, .AHEAD. ) ;
#232 = CC_DESIGN_PERSON_AND_ORGANIZATION_ASSIGNMENT ( #234, #233, ( #246 ) ) ;
#233 = PERSON_AND_ORGANIZATION_ROLE ( 'creator' ) ;
#234 = PERSON_AND_ORGANIZATION ( #325, #252 ) ;
#235 = CC_DESIGN_APPROVAL ( #243, ( #246 ) ) ;
#236 = APPROVAL_DATE_TIME ( #237, #243 ) ;
#237 = DATE_AND_TIME ( #238, #239 ) ;
#238 = CALENDAR_DATE ( 2009, 1, 5 ) ;
#239 = LOCAL_TIME ( 10, 15, 51.00000000000000000, #240 ) ;
#240 = COORDINATED_UNIVERSAL_TIME_OFFSET ( 9, 0, .AHEAD. ) ;
#241 = APPROVAL_PERSON_ORGANIZATION ( #245, #243, #242 ) ;
#242 = APPROVAL_ROLE ( '' ) ;
#243 = APPROVAL ( #244, 'UNSPECIFIED' ) ;
#244 = APPROVAL_STATUS ( 'not_yet_approved' ) ;
#245 = PERSON_AND_ORGANIZATION ( #325, #252 ) ;
#246 = PRODUCT_DEFINITION ( 'UNKNOWN', '', #225, #247 ) ;
#247 = DESIGN_CONTEXT ( 'detailed design', #249, 'design' ) ;
#248 = APPLICATION_PROTOCOL_DEFINITION ( 'international standard', 'config_control_design', 1994, #249 ) ;
#249 = APPLICATION_CONTEXT ( 'configuration controlled 3d designs of mechanical parts and assemblies' ) ;
#250 = CC_DESIGN_PERSON_AND_ORGANIZATION_ASSIGNMENT ( #324, #251, ( #326 ) ) ;
#251 = PERSON_AND_ORGANIZATION_ROLE ( 'design_owner' ) ;
#252 = ORGANIZATION ( 'UNSPECIFIED', 'UNSPECIFIED', '' ) ;
#253 = LINE ( 'NONE', #273, #272 ) ;
#254 = DIRECTION ( 'NONE',  ( 1.000000000000000000, 0.0000000000000000000, 0.0000000000000000000 ) ) ;
#255 = DIRECTION ( 'NONE',  ( 0.0000000000000000000, 0.0000000000000000000, 1.000000000000000000 ) ) ;
#256 = CARTESIAN_POINT ( 'NONE',  ( -41.50000000000000000, 0.0000000000000000000, 2.299999999999999800 ) ) ;
#257 = AXIS2_PLACEMENT_3D ( 'NONE', #256, #255, #254 ) ;
#258 = CIRCLE ( 'NONE', #257, 11.49999999999999600 ) ;
#259 = FACE_OUTER_BOUND ( 'NONE', #377, .T. ) ;
#260 = CARTESIAN_POINT ( 'NONE',  ( -41.50000000000000000, -11.49999999999999600, 2.299999999999999800 ) ) ;
#261 = CARTESIAN_POINT ( 'NONE',  ( -53.00000000000000000, 0.0000000000000000000, 2.299999999999999800 ) ) ;
#262 = CIRCLE ( 'NONE', #198, 11.50000000000000000 ) ;
#263 = CARTESIAN_POINT ( 'NONE',  ( -53.00000000000000000, 0.0000000000000000000, 0.0000000000000000000 ) ) ;
#264 = CARTESIAN_POINT ( 'NONE',  ( -53.00000000000000000, 0.0000000000000000000, 2.299999999999999800 ) ) ;
#265 = LINE ( 'NONE', #264, #219 ) ;
#266 = CARTESIAN_POINT ( 'NONE',  ( -41.50000000000000000, 0.0000000000000000000, 2.299999999999999800 ) ) ;
#267 = DIRECTION ( 'NONE',  ( 0.0000000000000000000, 0.0000000000000000000, -1.000000000000000000 ) ) ;
#268 = VECTOR ( 'NONE', #267, 1000.000000000000000 ) ;
#269 = CARTESIAN_POINT ( 'NONE',  ( -41.50000000000000000, -11.49999999999999600, 2.299999999999999800 ) ) ;
#270 = CARTESIAN_POINT ( 'NONE',  ( 0.0000000000000000000, 0.0000000000000000000, 2.299999999999999800 ) ) ;
#271 = DIRECTION ( 'NONE',  ( 1.000000000000000000, -8.360113137237623700E-017, 0.0000000000000000000 ) ) ;
#272 = VECTOR ( 'NONE', #271, 1000.000000000000000 ) ;
#273 = CARTESIAN_POINT ( 'NONE',  ( -41.50000000000000000, -11.49999999999999600, 2.299999999999999800 ) ) ;
#274 = DIRECTION ( 'NONE',  ( 1.000000000000000000, 0.0000000000000000000, 0.0000000000000000000 ) ) ;
#275 = DIRECTION ( 'NONE',  ( 0.0000000000000000000, 0.0000000000000000000, 1.000000000000000000 ) ) ;
#276 = CARTESIAN_POINT ( 'NONE',  ( -41.50000000000000000, 0.0000000000000000000, 0.0000000000000000000 ) ) ;
#277 = AXIS2_PLACEMENT_3D ( 'NONE', #276, #275, #274 ) ;
#278 = CARTESIAN_POINT ( 'NONE',  ( -5.727564927611036100, -9.540979117872439000E-015, 2.299999999999999800 ) ) ;
#279 = CARTESIAN_POINT ( 'NONE',  ( 5.727564927611035200, 1.084202172485504400E-014, 2.299999999999999800 ) ) ;
#280 = DIRECTION ( 'NONE',  ( 0.7071067811865489100, -0.7071067811865462400, 0.0000000000000000000 ) ) ;
#281 = VECTOR ( 'NONE', #280, 1000.000000000000000 ) ;
#282 = CARTESIAN_POINT ( 'NONE',  ( -5.727564927611036100, -9.540979117872439000E-015, 2.299999999999999800 ) ) ;
#283 = LINE ( 'NONE', #282, #281 ) ;
#284 = CARTESIAN_POINT ( 'NONE',  ( 9.540979117872439000E-015, -5.727564927611034300, 2.299999999999999800 ) ) ;
#285 = CARTESIAN_POINT ( 'NONE',  ( -1.387778780781445700E-014, 5.727564927611034300, 2.299999999999999800 ) ) ;
#286 = DIRECTION ( 'NONE',  ( 1.000000000000000000, 0.0000000000000000000, 0.0000000000000000000 ) ) ;
#287 = DIRECTION ( 'NONE',  ( 0.0000000000000000000, 0.0000000000000000000, 1.000000000000000000 ) ) ;
#288 = CARTESIAN_POINT ( 'NONE',  ( -41.50000000000000000, 0.0000000000000000000, 0.0000000000000000000 ) ) ;
#289 = AXIS2_PLACEMENT_3D ( 'NONE', #288, #287, #286 ) ;
#290 = PLANE ( 'NONE',  #289 ) ;
#291 = FACE_BOUND ( 'NONE', #10, .T. ) ;
#292 = FACE_OUTER_BOUND ( 'NONE', #400, .T. ) ;
#293 = CARTESIAN_POINT ( 'NONE',  ( 0.0000000000000000000, 11.50000000000000000, 0.0000000000000000000 ) ) ;
#294 = DIRECTION ( 'NONE',  ( -1.000000000000000000, -8.360113137237623700E-017, 0.0000000000000000000 ) ) ;
#295 = VECTOR ( 'NONE', #294, 1000.000000000000000 ) ;
#296 = CARTESIAN_POINT ( 'NONE',  ( -41.50000000000000000, 11.49999999999999600, 0.0000000000000000000 ) ) ;
#297 = LINE ( 'NONE', #296, #295 ) ;
#298 = DIRECTION ( 'NONE',  ( 1.000000000000000000, 0.0000000000000000000, 0.0000000000000000000 ) ) ;
#299 = DIRECTION ( 'NONE',  ( 0.0000000000000000000, 0.0000000000000000000, 1.000000000000000000 ) ) ;
#300 = FACE_BOUND ( 'NONE', #365, .T. ) ;
#301 = FACE_OUTER_BOUND ( 'NONE', #391, .T. ) ;
#302 = CARTESIAN_POINT ( 'NONE',  ( -41.50000000000000000, 11.49999999999999600, 0.0000000000000000000 ) ) ;
#303 = DIRECTION ( 'NONE',  ( 1.000000000000000000, 0.0000000000000000000, 0.0000000000000000000 ) ) ;
#304 = DIRECTION ( 'NONE',  ( 0.0000000000000000000, 0.0000000000000000000, 1.000000000000000000 ) ) ;
#305 = AXIS2_PLACEMENT_3D ( 'NONE', #266, #304, #303 ) ;
#306 = CIRCLE ( 'NONE', #305, 11.49999999999999600 ) ;
#307 =( NAMED_UNIT ( * ) PLANE_ANGLE_UNIT ( ) SI_UNIT ( $, .RADIAN. ) );
#308 =( LENGTH_UNIT ( ) NAMED_UNIT ( * ) SI_UNIT ( .MILLI., .METRE. ) );
#309 = DIRECTION ( 'NONE',  ( 0.7071067811865463500, 0.7071067811865487900, 0.0000000000000000000 ) ) ;
#310 = VECTOR ( 'NONE', #309, 1000.000000000000000 ) ;
#311 = CARTESIAN_POINT ( 'NONE',  ( 9.540979117872439000E-015, -5.727564927611034300, 2.299999999999999800 ) ) ;
#312 = LINE ( 'NONE', #311, #310 ) ;
#313 = DIRECTION ( 'NONE',  ( 0.0000000000000000000, 0.0000000000000000000, 1.000000000000000000 ) ) ;
#314 = CARTESIAN_POINT ( 'NONE',  ( 0.0000000000000000000, 0.0000000000000000000, 0.0000000000000000000 ) ) ;
#315 = ADVANCED_BREP_SHAPE_REPRESENTATION ( 'AC-25-53', ( #380, #321 ), #316 ) ;
#316 =( GEOMETRIC_REPRESENTATION_CONTEXT ( 3 ) GLOBAL_UNCERTAINTY_ASSIGNED_CONTEXT ( ( #317 ) ) GLOBAL_UNIT_ASSIGNED_CONTEXT ( ( #308, #307, #318 ) ) REPRESENTATION_CONTEXT ( 'NONE', 'WORKASPACE' ) );
#317 = UNCERTAINTY_MEASURE_WITH_UNIT (LENGTH_MEASURE( 1.000000000000000100E-005 ), #308, 'distance_accuracy_value', 'NONE');
#318 =( NAMED_UNIT ( * ) SI_UNIT ( $, .STERADIAN. ) SOLID_ANGLE_UNIT ( ) );
#319 = DIRECTION ( 'NONE',  ( 1.000000000000000000, 0.0000000000000000000, 0.0000000000000000000 ) ) ;
#320 = DIRECTION ( 'NONE',  ( 0.0000000000000000000, 0.0000000000000000000, 1.000000000000000000 ) ) ;
#321 = AXIS2_PLACEMENT_3D ( 'NONE', #314, #320, #319 ) ;
#322 = LINE ( 'NONE', #269, #268 ) ;
#323 = CARTESIAN_POINT ( 'NONE',  ( -41.50000000000000000, -11.49999999999999600, 0.0000000000000000000 ) ) ;
#324 = PERSON_AND_ORGANIZATION ( #325, #252 ) ;
#325 = PERSON ( 'UNSPECIFIED', 'UNSPECIFIED', 'UNSPECIFIED', ('UNSPECIFIED'), ('UNSPECIFIED'), ('UNSPECIFIED') ) ;
#326 = PRODUCT ( 'AC-25-53', 'AC-25-53', '', ( #327 ) ) ;
#327 = MECHANICAL_CONTEXT ( 'NONE', #329, 'mechanical' ) ;
#328 = APPLICATION_PROTOCOL_DEFINITION ( 'international standard', 'config_control_design', 1994, #329 ) ;
#329 = APPLICATION_CONTEXT ( 'configuration controlled 3d designs of mechanical parts and assemblies' ) ;
#330 = CIRCLE ( 'NONE', #277, 11.49999999999999600 ) ;
#331 = DIRECTION ( 'NONE',  ( -1.000000000000000000, 0.0000000000000000000, 0.0000000000000000000 ) ) ;
#332 = DIRECTION ( 'NONE',  ( 0.0000000000000000000, 0.0000000000000000000, -1.000000000000000000 ) ) ;
#333 = CALENDAR_DATE ( 2009, 1, 5 ) ;
#334 = DATE_TIME_ROLE ( 'classification_date' ) ;
#335 = DATE_AND_TIME ( #333, #348 ) ;
#336 = PERSON_AND_ORGANIZATION ( #325, #252 ) ;
#337 = CC_DESIGN_DATE_AND_TIME_ASSIGNMENT ( #335, #334, ( #163 ) ) ;
#338 = SHAPE_DEFINITION_REPRESENTATION ( #339, #315 ) ;
#339 = PRODUCT_DEFINITION_SHAPE ( 'NONE', 'NONE',  #246 ) ;
#340 = PRODUCT_RELATED_PRODUCT_CATEGORY ( 'detail', '', ( #326 ) ) ;
#341 = CC_DESIGN_SECURITY_CLASSIFICATION ( #163, ( #225 ) ) ;
#342 = CC_DESIGN_APPROVAL ( #351, ( #163 ) ) ;
#343 = APPROVAL_DATE_TIME ( #344, #351 ) ;
#344 = DATE_AND_TIME ( #345, #346 ) ;
#345 = CALENDAR_DATE ( 2009, 1, 5 ) ;
#346 = LOCAL_TIME ( 10, 15, 51.00000000000000000, #347 ) ;
#347 = COORDINATED_UNIVERSAL_TIME_OFFSET ( 9, 0, .AHEAD. ) ;
#348 = LOCAL_TIME ( 10, 15, 51.00000000000000000, #199 ) ;
#349 = APPROVAL_PERSON_ORGANIZATION ( #336, #351, #350 ) ;
#350 = APPROVAL_ROLE ( '' ) ;
#351 = APPROVAL ( #352, 'UNSPECIFIED' ) ;
#352 = APPROVAL_STATUS ( 'not_yet_approved' ) ;
#353 = ORIENTED_EDGE ( 'NONE', *, *, #4, .T. ) ;
#354 = ORIENTED_EDGE ( 'NONE', *, *, #355, .F. ) ;
#355 = EDGE_CURVE ( 'NONE', #387, #9, #181, .T. ) ;
#356 = ORIENTED_EDGE ( 'NONE', *, *, #54, .F. ) ;
#357 = ORIENTED_EDGE ( 'NONE', *, *, #366, .F. ) ;
#358 = ORIENTED_EDGE ( 'NONE', *, *, #386, .F. ) ;
#359 = EDGE_CURVE ( 'NONE', #9, #397, #177, .T. ) ;
#360 = ORIENTED_EDGE ( 'NONE', *, *, #396, .T. ) ;
#361 = EDGE_CURVE ( 'NONE', #401, #410, #172, .T. ) ;
#362 = VERTEX_POINT ( 'NONE', #168 ) ;
#363 = EDGE_CURVE ( 'NONE', #409, #401, #167, .T. ) ;
#364 = ORIENTED_EDGE ( 'NONE', *, *, #363, .F. ) ;
#365 = EDGE_LOOP ( 'NONE', ( #412, #407, #403, #364 ) ) ;
#366 = EDGE_CURVE ( 'NONE', #362, #382, #162, .T. ) ;
#367 = ORIENTED_EDGE ( 'NONE', *, *, #366, .T. ) ;
#368 = EDGE_CURVE ( 'NONE', #371, #362, #262, .T. ) ;
#369 = ORIENTED_EDGE ( 'NONE', *, *, #368, .T. ) ;
#370 = VERTEX_POINT ( 'NONE', #263 ) ;
#371 = VERTEX_POINT ( 'NONE', #216 ) ;
#372 = EDGE_CURVE ( 'NONE', #376, #371, #253, .T. ) ;
#373 = EDGE_CURVE ( 'NONE', #374, #376, #258, .T. ) ;
#374 = VERTEX_POINT ( 'NONE', #261 ) ;
#375 = ORIENTED_EDGE ( 'NONE', *, *, #373, .F. ) ;
#376 = VERTEX_POINT ( 'NONE', #260 ) ;
#377 = EDGE_LOOP ( 'NONE', ( #375, #381, #379, #385 ) ) ;
#378 = ADVANCED_FACE ( 'NONE', ( #259 ), #222, .T. ) ;
#379 = ORIENTED_EDGE ( 'NONE', *, *, #386, .T. ) ;
#380 = MANIFOLD_SOLID_BREP ( 'NONE', #405 ) ;
#381 = ORIENTED_EDGE ( 'NONE', *, *, #389, .T. ) ;
#382 = VERTEX_POINT ( 'NONE', #223 ) ;
#383 = ORIENTED_EDGE ( 'NONE', *, *, #373, .T. ) ;
#384 = ORIENTED_EDGE ( 'NONE', *, *, #372, .T. ) ;
#385 = ORIENTED_EDGE ( 'NONE', *, *, #388, .F. ) ;
#386 = EDGE_CURVE ( 'NONE', #370, #387, #330, .T. ) ;
#387 = VERTEX_POINT ( 'NONE', #323 ) ;
#388 = EDGE_CURVE ( 'NONE', #376, #387, #322, .T. ) ;
#389 = EDGE_CURVE ( 'NONE', #374, #370, #265, .T. ) ;
#390 = EDGE_CURVE ( 'NONE', #382, #374, #306, .T. ) ;
#391 = EDGE_LOOP ( 'NONE', ( #392, #383, #384, #369, #367 ) ) ;
#392 = ORIENTED_EDGE ( 'NONE', *, *, #390, .T. ) ;
#393 = VERTEX_POINT ( 'NONE', #302 ) ;
#394 = ADVANCED_FACE ( 'NONE', ( #301, #300 ), #196, .T. ) ;
#395 = EDGE_CURVE ( 'NONE', #393, #370, #191, .T. ) ;
#396 = EDGE_CURVE ( 'NONE', #397, #393, #297, .T. ) ;
#397 = VERTEX_POINT ( 'NONE', #293 ) ;
#398 = ORIENTED_EDGE ( 'NONE', *, *, #396, .F. ) ;
#399 = ADVANCED_FACE ( 'NONE', ( #292, #291 ), #290, .F. ) ;
#400 = EDGE_LOOP ( 'NONE', ( #402, #398, #5, #354, #358 ) ) ;
#401 = VERTEX_POINT ( 'NONE', #285 ) ;
#402 = ORIENTED_EDGE ( 'NONE', *, *, #395, .F. ) ;
#403 = ORIENTED_EDGE ( 'NONE', *, *, #361, .F. ) ;
#404 = VERTEX_POINT ( 'NONE', #284 ) ;
#405 = CLOSED_SHELL ( 'NONE', ( #378, #394, #399, #26, #24, #13, #59, #48, #44, #43, #53 ) ) ;
#406 = ORIENTED_EDGE ( 'NONE', *, *, #30, .T. ) ;
#407 = ORIENTED_EDGE ( 'NONE', *, *, #408, .F. ) ;
#408 = EDGE_CURVE ( 'NONE', #410, #404, #283, .T. ) ;
#409 = VERTEX_POINT ( 'NONE', #279 ) ;
#410 = VERTEX_POINT ( 'NONE', #278 ) ;
#411 = EDGE_CURVE ( 'NONE', #404, #409, #312, .T. ) ;
#412 = ORIENTED_EDGE ( 'NONE', *, *, #411, .F. ) ;
ENDSEC;
END-ISO-10303-21;
