ISO-10303-21;
HEADER;
FILE_DESCRIPTION (( 'STEP AP203' ),
    '1' );
FILE_NAME ('AC-25-5.STEP',
    '2009-05-01T00:54:52',
    ( ' ' ),
    ( ' ' ),
    'SwSTEP 2.0',
    'SolidWorks 2007',
    '' );
FILE_SCHEMA (( 'CONFIG_CONTROL_DESIGN' ));
ENDSEC;

DATA;
#1 = ORIENTED_EDGE ( 'NONE', *, *, #76, .F. ) ;
#2 = ORIENTED_EDGE ( 'NONE', *, *, #3, .F. ) ;
#3 = EDGE_CURVE ( 'NONE', #93, #77, #168, .T. ) ;
#4 = ORIENTED_EDGE ( 'NONE', *, *, #92, .T. ) ;
#5 = ORIENTED_EDGE ( 'NONE', *, *, #6, .T. ) ;
#6 = EDGE_CURVE ( 'NONE', #36, #83, #173, .T. ) ;
#7 = ADVANCED_FACE ( 'NONE', ( #156 ), #155, .T. ) ;
#8 = EDGE_LOOP ( 'NONE', ( #9, #10, #11, #12 ) ) ;
#9 = ORIENTED_EDGE ( 'NONE', *, *, #85, .F. ) ;
#10 = ORIENTED_EDGE ( 'NONE', *, *, #6, .F. ) ;
#11 = ORIENTED_EDGE ( 'NONE', *, *, #35, .T. ) ;
#12 = ORIENTED_EDGE ( 'NONE', *, *, #13, .T. ) ;
#13 = EDGE_CURVE ( 'NONE', #37, #86, #178, .T. ) ;
#14 = ADVANCED_FACE ( 'NONE', ( #167 ), #166, .T. ) ;
#15 = EDGE_LOOP ( 'NONE', ( #16, #17, #18, #19 ) ) ;
#16 = ORIENTED_EDGE ( 'NONE', *, *, #79, .F. ) ;
#17 = ORIENTED_EDGE ( 'NONE', *, *, #13, .F. ) ;
#18 = ORIENTED_EDGE ( 'NONE', *, *, #88, .T. ) ;
#19 = ORIENTED_EDGE ( 'NONE', *, *, #20, .T. ) ;
#20 = EDGE_CURVE ( 'NONE', #89, #80, #194, .T. ) ;
#21 = ADVANCED_FACE ( 'NONE', ( #196 ), #227, .T. ) ;
#22 = EDGE_LOOP ( 'NONE', ( #23, #24, #25, #26 ) ) ;
#23 = ORIENTED_EDGE ( 'NONE', *, *, #69, .F. ) ;
#24 = ORIENTED_EDGE ( 'NONE', *, *, #20, .F. ) ;
#25 = ORIENTED_EDGE ( 'NONE', *, *, #90, .T. ) ;
#26 = ORIENTED_EDGE ( 'NONE', *, *, #3, .T. ) ;
#27 = CLOSED_SHELL ( 'NONE', ( #105, #115, #135, #70, #47, #54, #65, #43, #7, #14, #21 ) ) ;
#28 = ORIENTED_EDGE ( 'NONE', *, *, #97, .T. ) ;
#29 = ORIENTED_EDGE ( 'NONE', *, *, #38, .T. ) ;
#30 = VERTEX_POINT ( 'NONE', #228 ) ;
#31 = ORIENTED_EDGE ( 'NONE', *, *, #32, .T. ) ;
#32 = EDGE_CURVE ( 'NONE', #30, #100, #236, .T. ) ;
#33 = EDGE_LOOP ( 'NONE', ( #34, #96, #91, #87 ) ) ;
#34 = ORIENTED_EDGE ( 'NONE', *, *, #35, .F. ) ;
#35 = EDGE_CURVE ( 'NONE', #36, #37, #232, .T. ) ;
#36 = VERTEX_POINT ( 'NONE', #203 ) ;
#37 = VERTEX_POINT ( 'NONE', #202 ) ;
#38 = EDGE_CURVE ( 'NONE', #94, #41, #201, .T. ) ;
#39 = ORIENTED_EDGE ( 'NONE', *, *, #40, .T. ) ;
#40 = EDGE_CURVE ( 'NONE', #41, #30, #211, .T. ) ;
#41 = VERTEX_POINT ( 'NONE', #206 ) ;
#42 = EDGE_LOOP ( 'NONE', ( #1, #2, #4, #5 ) ) ;
#43 = ADVANCED_FACE ( 'NONE', ( #205 ), #204, .T. ) ;
#44 = ORIENTED_EDGE ( 'NONE', *, *, #45, .T. ) ;
#45 = EDGE_CURVE ( 'NONE', #100, #128, #226, .T. ) ;
#46 = ORIENTED_EDGE ( 'NONE', *, *, #127, .T. ) ;
#47 = ADVANCED_FACE ( 'NONE', ( #218 ), #123, .F. ) ;
#48 = EDGE_LOOP ( 'NONE', ( #49, #50, #52, #53 ) ) ;
#49 = ORIENTED_EDGE ( 'NONE', *, *, #72, .T. ) ;
#50 = ORIENTED_EDGE ( 'NONE', *, *, #51, .F. ) ;
#51 = EDGE_CURVE ( 'NONE', #41, #132, #274, .T. ) ;
#52 = ORIENTED_EDGE ( 'NONE', *, *, #38, .F. ) ;
#53 = ORIENTED_EDGE ( 'NONE', *, *, #113, .T. ) ;
#54 = ADVANCED_FACE ( 'NONE', ( #296 ), #272, .T. ) ;
#55 = EDGE_LOOP ( 'NONE', ( #56, #57, #59, #64 ) ) ;
#56 = ORIENTED_EDGE ( 'NONE', *, *, #133, .T. ) ;
#57 = ORIENTED_EDGE ( 'NONE', *, *, #58, .F. ) ;
#58 = EDGE_CURVE ( 'NONE', #30, #130, #286, .T. ) ;
#59 = ORIENTED_EDGE ( 'NONE', *, *, #40, .F. ) ;
#60 = ORIENTED_EDGE ( 'NONE', *, *, #45, .F. ) ;
#61 = ORIENTED_EDGE ( 'NONE', *, *, #32, .F. ) ;
#62 = ORIENTED_EDGE ( 'NONE', *, *, #58, .T. ) ;
#63 = EDGE_LOOP ( 'NONE', ( #66, #60, #61, #62 ) ) ;
#64 = ORIENTED_EDGE ( 'NONE', *, *, #51, .T. ) ;
#65 = ADVANCED_FACE ( 'NONE', ( #282 ), #281, .F. ) ;
#66 = ORIENTED_EDGE ( 'NONE', *, *, #131, .T. ) ;
#67 = ORIENTED_EDGE ( 'NONE', *, *, #108, .F. ) ;
#68 = ORIENTED_EDGE ( 'NONE', *, *, #103, .F. ) ;
#69 = EDGE_CURVE ( 'NONE', #80, #77, #294, .T. ) ;
#70 = ADVANCED_FACE ( 'NONE', ( #277 ), #276, .T. ) ;
#71 = ORIENTED_EDGE ( 'NONE', *, *, #72, .F. ) ;
#72 = EDGE_CURVE ( 'NONE', #110, #132, #252, .T. ) ;
#73 = ORIENTED_EDGE ( 'NONE', *, *, #112, .F. ) ;
#74 = EDGE_LOOP ( 'NONE', ( #75, #84, #78, #81 ) ) ;
#75 = ORIENTED_EDGE ( 'NONE', *, *, #76, .T. ) ;
#76 = EDGE_CURVE ( 'NONE', #77, #83, #248, .T. ) ;
#77 = VERTEX_POINT ( 'NONE', #244 ) ;
#78 = ORIENTED_EDGE ( 'NONE', *, *, #79, .T. ) ;
#79 = EDGE_CURVE ( 'NONE', #86, #80, #243, .T. ) ;
#80 = VERTEX_POINT ( 'NONE', #239 ) ;
#81 = ORIENTED_EDGE ( 'NONE', *, *, #69, .T. ) ;
#82 = EDGE_LOOP ( 'NONE', ( #67, #68, #44, #46 ) ) ;
#83 = VERTEX_POINT ( 'NONE', #238 ) ;
#84 = ORIENTED_EDGE ( 'NONE', *, *, #85, .T. ) ;
#85 = EDGE_CURVE ( 'NONE', #83, #86, #237, .T. ) ;
#86 = VERTEX_POINT ( 'NONE', #266 ) ;
#87 = ORIENTED_EDGE ( 'NONE', *, *, #88, .F. ) ;
#88 = EDGE_CURVE ( 'NONE', #37, #89, #265, .T. ) ;
#89 = VERTEX_POINT ( 'NONE', #261 ) ;
#90 = EDGE_CURVE ( 'NONE', #89, #93, #259, .T. ) ;
#91 = ORIENTED_EDGE ( 'NONE', *, *, #90, .F. ) ;
#92 = EDGE_CURVE ( 'NONE', #93, #36, #303, .T. ) ;
#93 = VERTEX_POINT ( 'NONE', #302 ) ;
#94 = VERTEX_POINT ( 'NONE', #308 ) ;
#95 = VERTEX_POINT ( 'NONE', #307 ) ;
#96 = ORIENTED_EDGE ( 'NONE', *, *, #92, .F. ) ;
#97 = EDGE_CURVE ( 'NONE', #95, #94, #300, .T. ) ;
#98 = ORIENTED_EDGE ( 'NONE', *, *, #97, .F. ) ;
#99 = EDGE_LOOP ( 'NONE', ( #98, #109, #111, #114 ) ) ;
#100 = VERTEX_POINT ( 'NONE', #314 ) ;
#101 = ORIENTED_EDGE ( 'NONE', *, *, #103, .T. ) ;
#102 = EDGE_LOOP ( 'NONE', ( #101, #28, #29, #39, #31 ) ) ;
#103 = EDGE_CURVE ( 'NONE', #100, #95, #330, .T. ) ;
#104 = MANIFOLD_SOLID_BREP ( 'NONE', #27 ) ;
#105 = ADVANCED_FACE ( 'NONE', ( #310 ), #333, .T. ) ;
#106 = DIRECTION ( 'NONE',  ( 0.7071067811865475700, -0.7071067811865474600, 0.0000000000000000000 ) ) ;
#107 = VERTEX_POINT ( 'NONE', #324 ) ;
#108 = EDGE_CURVE ( 'NONE', #95, #107, #349, .T. ) ;
#109 = ORIENTED_EDGE ( 'NONE', *, *, #108, .T. ) ;
#110 = VERTEX_POINT ( 'NONE', #344 ) ;
#111 = ORIENTED_EDGE ( 'NONE', *, *, #112, .T. ) ;
#112 = EDGE_CURVE ( 'NONE', #107, #110, #319, .T. ) ;
#113 = EDGE_CURVE ( 'NONE', #94, #110, #352, .T. ) ;
#114 = ORIENTED_EDGE ( 'NONE', *, *, #113, .F. ) ;
#115 = ADVANCED_FACE ( 'NONE', ( #335, #334 ), #321, .T. ) ;
#116 = DIRECTION ( 'NONE',  ( 1.000000000000000000, 0.0000000000000000000, 0.0000000000000000000 ) ) ;
#117 =( NAMED_UNIT ( * ) PLANE_ANGLE_UNIT ( ) SI_UNIT ( $, .RADIAN. ) );
#118 = CARTESIAN_POINT ( 'NONE',  ( 0.0000000000000000000, 0.0000000000000000000, 0.0000000000000000000 ) ) ;
#119 = DIRECTION ( 'NONE',  ( 0.0000000000000000000, 0.0000000000000000000, 1.000000000000000000 ) ) ;
#120 = DIRECTION ( 'NONE',  ( -0.9986139979479091700, 0.05263157894736844600, 0.0000000000000000000 ) ) ;
#121 = AXIS2_PLACEMENT_3D ( 'NONE', #122, #124, #120 ) ;
#122 = CARTESIAN_POINT ( 'NONE',  ( -95.26315789473683500, -4.993069989739549200, 3.000000000000000000 ) ) ;
#123 = PLANE ( 'NONE',  #121 ) ;
#124 = DIRECTION ( 'NONE',  ( 0.05263157894736845300, 0.9986139979479092800, 0.0000000000000000000 ) ) ;
#125 = EDGE_LOOP ( 'NONE', ( #126, #129, #134, #71, #73 ) ) ;
#126 = ORIENTED_EDGE ( 'NONE', *, *, #127, .F. ) ;
#127 = EDGE_CURVE ( 'NONE', #128, #107, #338, .T. ) ;
#128 = VERTEX_POINT ( 'NONE', #356 ) ;
#129 = ORIENTED_EDGE ( 'NONE', *, *, #131, .F. ) ;
#130 = VERTEX_POINT ( 'NONE', #355 ) ;
#131 = EDGE_CURVE ( 'NONE', #130, #128, #329, .T. ) ;
#132 = VERTEX_POINT ( 'NONE', #325 ) ;
#133 = EDGE_CURVE ( 'NONE', #132, #130, #312, .T. ) ;
#134 = ORIENTED_EDGE ( 'NONE', *, *, #133, .F. ) ;
#135 = ADVANCED_FACE ( 'NONE', ( #364, #359 ), #360, .F. ) ;
#136 =( NAMED_UNIT ( * ) SI_UNIT ( $, .STERADIAN. ) SOLID_ANGLE_UNIT ( ) );
#137 = PRODUCT_DEFINITION ( 'UNKNOWN', '', #192, #169 ) ;
#138 = APPLICATION_PROTOCOL_DEFINITION ( 'international standard', 'config_control_design', 1994, #139 ) ;
#139 = APPLICATION_CONTEXT ( 'configuration controlled 3d designs of mechanical parts and assemblies' ) ;
#140 = PERSON_AND_ORGANIZATION ( #375, #374 ) ;
#141 = APPROVAL_ROLE ( '' ) ;
#142 = APPROVAL ( #143, 'UNSPECIFIED' ) ;
#143 = APPROVAL_STATUS ( 'not_yet_approved' ) ;
#144 = UNCERTAINTY_MEASURE_WITH_UNIT (LENGTH_MEASURE( 1.000000000000000100E-005 ), #365, 'distance_accuracy_value', 'NONE');
#145 = DATE_AND_TIME ( #151, #148 ) ;
#146 = CC_DESIGN_APPROVAL ( #142, ( #137 ) ) ;
#147 = APPROVAL_PERSON_ORGANIZATION ( #140, #142, #141 ) ;
#148 = LOCAL_TIME ( 9, 54, 52.00000000000000000, #149 ) ;
#149 = COORDINATED_UNIVERSAL_TIME_OFFSET ( 9, 0, .AHEAD. ) ;
#150 = APPROVAL_DATE_TIME ( #145, #142 ) ;
#151 = CALENDAR_DATE ( 2009, 1, 5 ) ;
#152 = PERSON_AND_ORGANIZATION_ROLE ( 'creator' ) ;
#153 = CC_DESIGN_PERSON_AND_ORGANIZATION_ASSIGNMENT ( #260, #152, ( #137 ) ) ;
#154 = DIRECTION ( 'NONE',  ( 0.0000000000000000000, 0.0000000000000000000, -1.000000000000000000 ) ) ;
#155 = PLANE ( 'NONE',  #177 ) ;
#156 = FACE_OUTER_BOUND ( 'NONE', #8, .T. ) ;
#157 = DIRECTION ( 'NONE',  ( 0.0000000000000000000, 0.0000000000000000000, -1.000000000000000000 ) ) ;
#158 = VECTOR ( 'NONE', #157, 1000.000000000000000 ) ;
#159 = DIRECTION ( 'NONE',  ( 0.0000000000000000000, 0.0000000000000000000, -1.000000000000000000 ) ) ;
#160 = VECTOR ( 'NONE', #159, 1000.000000000000000 ) ;
#161 = CARTESIAN_POINT ( 'NONE',  ( 5.656854249492381500, -8.605854744103691400E-016, 3.000000000000000000 ) ) ;
#162 = CARTESIAN_POINT ( 'NONE',  ( -5.656854249492381500, 0.0000000000000000000, 3.000000000000000000 ) ) ;
#163 = DIRECTION ( 'NONE',  ( -0.7071067811865474600, -0.7071067811865475700, 0.0000000000000000000 ) ) ;
#164 = CARTESIAN_POINT ( 'NONE',  ( 0.0000000000000000000, 5.656854249492379700, 3.000000000000000000 ) ) ;
#165 = AXIS2_PLACEMENT_3D ( 'NONE', #164, #163, #106 ) ;
#166 = PLANE ( 'NONE',  #165 ) ;
#167 = FACE_OUTER_BOUND ( 'NONE', #15, .T. ) ;
#168 = LINE ( 'NONE', #162, #179 ) ;
#169 = DESIGN_CONTEXT ( 'detailed design', #139, 'design' ) ;
#170 = ADVANCED_BREP_SHAPE_REPRESENTATION ( 'AC-25-5', ( #104, #370 ), #171 ) ;
#171 =( GEOMETRIC_REPRESENTATION_CONTEXT ( 3 ) GLOBAL_UNCERTAINTY_ASSIGNED_CONTEXT ( ( #144 ) ) GLOBAL_UNIT_ASSIGNED_CONTEXT ( ( #365, #117, #136 ) ) REPRESENTATION_CONTEXT ( 'NONE', 'WORKASPACE' ) );
#172 = CARTESIAN_POINT ( 'NONE',  ( -4.269046054161673700E-016, -5.656854249492378800, 3.000000000000000000 ) ) ;
#173 = LINE ( 'NONE', #172, #158 ) ;
#174 = DIRECTION ( 'NONE',  ( -0.7071067811865477900, -0.7071067811865473500, 0.0000000000000000000 ) ) ;
#175 = DIRECTION ( 'NONE',  ( -0.7071067811865473500, 0.7071067811865477900, 0.0000000000000000000 ) ) ;
#176 = CARTESIAN_POINT ( 'NONE',  ( -4.269046054161673700E-016, -5.656854249492378800, 3.000000000000000000 ) ) ;
#177 = AXIS2_PLACEMENT_3D ( 'NONE', #176, #175, #174 ) ;
#178 = LINE ( 'NONE', #161, #160 ) ;
#179 = VECTOR ( 'NONE', #154, 1000.000000000000000 ) ;
#180 = LOCAL_TIME ( 9, 54, 52.00000000000000000, #301 ) ;
#181 = DATE_AND_TIME ( #183, #180 ) ;
#182 = DATE_TIME_ROLE ( 'creation_date' ) ;
#183 = CALENDAR_DATE ( 2009, 1, 5 ) ;
#184 = CC_DESIGN_DATE_AND_TIME_ASSIGNMENT ( #181, #182, ( #137 ) ) ;
#185 = APPROVAL_STATUS ( 'not_yet_approved' ) ;
#186 = APPROVAL_DATE_TIME ( #190, #189 ) ;
#187 = APPROVAL_PERSON_ORGANIZATION ( #193, #189, #188 ) ;
#188 = APPROVAL_ROLE ( '' ) ;
#189 = APPROVAL ( #185, 'UNSPECIFIED' ) ;
#190 = DATE_AND_TIME ( #313, #217 ) ;
#191 = COORDINATED_UNIVERSAL_TIME_OFFSET ( 9, 0, .AHEAD. ) ;
#192 = PRODUCT_DEFINITION_FORMATION_WITH_SPECIFIED_SOURCE ( 'ANY', '', #376, .NOT_KNOWN. ) ;
#193 = PERSON_AND_ORGANIZATION ( #375, #374 ) ;
#194 = LINE ( 'NONE', #216, #197 ) ;
#195 = DIRECTION ( 'NONE',  ( 0.0000000000000000000, 0.0000000000000000000, -1.000000000000000000 ) ) ;
#196 = FACE_OUTER_BOUND ( 'NONE', #22, .T. ) ;
#197 = VECTOR ( 'NONE', #195, 1000.000000000000000 ) ;
#198 = DIRECTION ( 'NONE',  ( 0.9986139979479091700, -0.05263157894736844600, 0.0000000000000000000 ) ) ;
#199 = VECTOR ( 'NONE', #198, 1000.000000000000200 ) ;
#200 = CARTESIAN_POINT ( 'NONE',  ( -95.26315789473683500, -4.993069989739549200, 3.000000000000000000 ) ) ;
#201 = LINE ( 'NONE', #200, #199 ) ;
#202 = CARTESIAN_POINT ( 'NONE',  ( 5.656854249492381500, -8.605854744103691400E-016, 3.000000000000000000 ) ) ;
#203 = CARTESIAN_POINT ( 'NONE',  ( -4.269046054161673700E-016, -5.656854249492378800, 3.000000000000000000 ) ) ;
#204 = PLANE ( 'NONE',  #225 ) ;
#205 = FACE_OUTER_BOUND ( 'NONE', #42, .T. ) ;
#206 = CARTESIAN_POINT ( 'NONE',  ( -0.5263157894736847400, -9.986139979479098400, 3.000000000000000000 ) ) ;
#207 = DIRECTION ( 'NONE',  ( 1.000000000000000000, 0.0000000000000000000, 0.0000000000000000000 ) ) ;
#208 = DIRECTION ( 'NONE',  ( 0.0000000000000000000, 0.0000000000000000000, 1.000000000000000000 ) ) ;
#209 = CARTESIAN_POINT ( 'NONE',  ( 0.0000000000000000000, 0.0000000000000000000, 3.000000000000000000 ) ) ;
#210 = AXIS2_PLACEMENT_3D ( 'NONE', #209, #208, #207 ) ;
#211 = CIRCLE ( 'NONE', #210, 10.00000000000000500 ) ;
#212 = DIRECTION ( 'NONE',  ( 0.7071067811865476800, 0.7071067811865474600, 0.0000000000000000000 ) ) ;
#213 = DIRECTION ( 'NONE',  ( 0.7071067811865474600, -0.7071067811865476800, 0.0000000000000000000 ) ) ;
#214 = CARTESIAN_POINT ( 'NONE',  ( -5.656854249492381500, 0.0000000000000000000, 3.000000000000000000 ) ) ;
#215 = AXIS2_PLACEMENT_3D ( 'NONE', #214, #213, #212 ) ;
#216 = CARTESIAN_POINT ( 'NONE',  ( 0.0000000000000000000, 5.656854249492379700, 3.000000000000000000 ) ) ;
#217 = LOCAL_TIME ( 9, 54, 52.00000000000000000, #191 ) ;
#218 = FACE_OUTER_BOUND ( 'NONE', #48, .T. ) ;
#219 = DIRECTION ( 'NONE',  ( 0.0000000000000000000, 0.0000000000000000000, -1.000000000000000000 ) ) ;
#220 = VECTOR ( 'NONE', #219, 1000.000000000000000 ) ;
#221 = CARTESIAN_POINT ( 'NONE',  ( -95.26315789473683500, 4.993069989739549200, 3.000000000000000000 ) ) ;
#222 = DIRECTION ( 'NONE',  ( -0.7071067811865477900, 0.7071067811865473500, 0.0000000000000000000 ) ) ;
#223 = DIRECTION ( 'NONE',  ( 0.7071067811865473500, 0.7071067811865477900, 0.0000000000000000000 ) ) ;
#224 = CARTESIAN_POINT ( 'NONE',  ( -5.656854249492381500, 0.0000000000000000000, 3.000000000000000000 ) ) ;
#225 = AXIS2_PLACEMENT_3D ( 'NONE', #224, #223, #222 ) ;
#226 = LINE ( 'NONE', #221, #220 ) ;
#227 = PLANE ( 'NONE',  #215 ) ;
#228 = CARTESIAN_POINT ( 'NONE',  ( -0.5263157894736845100, 9.986139979479098400, 3.000000000000000000 ) ) ;
#229 = DIRECTION ( 'NONE',  ( 0.7071067811865477900, 0.7071067811865473500, 0.0000000000000000000 ) ) ;
#230 = VECTOR ( 'NONE', #229, 999.9999999999998900 ) ;
#231 = CARTESIAN_POINT ( 'NONE',  ( -4.269046054161673700E-016, -5.656854249492378800, 3.000000000000000000 ) ) ;
#232 = LINE ( 'NONE', #231, #230 ) ;
#233 = DIRECTION ( 'NONE',  ( -0.9986139979479091700, -0.05263157894736844600, 0.0000000000000000000 ) ) ;
#234 = VECTOR ( 'NONE', #233, 1000.000000000000200 ) ;
#235 = CARTESIAN_POINT ( 'NONE',  ( -95.26315789473683500, 4.993069989739549200, 3.000000000000000000 ) ) ;
#236 = LINE ( 'NONE', #235, #234 ) ;
#237 = LINE ( 'NONE', #269, #268 ) ;
#238 = CARTESIAN_POINT ( 'NONE',  ( -4.269046054161673700E-016, -5.656854249492378800, 0.0000000000000000000 ) ) ;
#239 = CARTESIAN_POINT ( 'NONE',  ( 0.0000000000000000000, 5.656854249492379700, 0.0000000000000000000 ) ) ;
#240 = DIRECTION ( 'NONE',  ( -0.7071067811865475700, 0.7071067811865474600, 0.0000000000000000000 ) ) ;
#241 = VECTOR ( 'NONE', #240, 1000.000000000000000 ) ;
#242 = CARTESIAN_POINT ( 'NONE',  ( 0.0000000000000000000, 5.656854249492379700, 0.0000000000000000000 ) ) ;
#243 = LINE ( 'NONE', #242, #241 ) ;
#244 = CARTESIAN_POINT ( 'NONE',  ( -5.656854249492380600, 6.938893903907228400E-015, 0.0000000000000000000 ) ) ;
#245 = DIRECTION ( 'NONE',  ( 0.7071067811865477900, -0.7071067811865473500, 0.0000000000000000000 ) ) ;
#246 = VECTOR ( 'NONE', #245, 999.9999999999998900 ) ;
#247 = CARTESIAN_POINT ( 'NONE',  ( -5.656854249492381500, 0.0000000000000000000, 0.0000000000000000000 ) ) ;
#248 = LINE ( 'NONE', #247, #246 ) ;
#249 = DIRECTION ( 'NONE',  ( 0.9986139979479091700, -0.05263157894736844600, 0.0000000000000000000 ) ) ;
#250 = VECTOR ( 'NONE', #249, 1000.000000000000200 ) ;
#251 = CARTESIAN_POINT ( 'NONE',  ( -95.26315789473683500, -4.993069989739549200, 0.0000000000000000000 ) ) ;
#252 = LINE ( 'NONE', #251, #250 ) ;
#253 = DIRECTION ( 'NONE',  ( -1.000000000000000000, 0.0000000000000000000, 0.0000000000000000000 ) ) ;
#254 = DIRECTION ( 'NONE',  ( 0.0000000000000000000, 0.0000000000000000000, -1.000000000000000000 ) ) ;
#255 = AXIS2_PLACEMENT_3D ( 'NONE', #275, #254, #253 ) ;
#256 = DIRECTION ( 'NONE',  ( -0.7071067811865476800, -0.7071067811865474600, 0.0000000000000000000 ) ) ;
#257 = VECTOR ( 'NONE', #256, 1000.000000000000000 ) ;
#258 = CARTESIAN_POINT ( 'NONE',  ( -5.656854249492381500, 0.0000000000000000000, 3.000000000000000000 ) ) ;
#259 = LINE ( 'NONE', #258, #257 ) ;
#260 = PERSON_AND_ORGANIZATION ( #375, #374 ) ;
#261 = CARTESIAN_POINT ( 'NONE',  ( -6.938893903907228400E-015, 5.656854249492380600, 3.000000000000000000 ) ) ;
#262 = DIRECTION ( 'NONE',  ( -0.7071067811865475700, 0.7071067811865474600, 0.0000000000000000000 ) ) ;
#263 = VECTOR ( 'NONE', #262, 1000.000000000000000 ) ;
#264 = CARTESIAN_POINT ( 'NONE',  ( 0.0000000000000000000, 5.656854249492379700, 3.000000000000000000 ) ) ;
#265 = LINE ( 'NONE', #264, #263 ) ;
#266 = CARTESIAN_POINT ( 'NONE',  ( 5.656854249492381500, -8.605854744103691400E-016, 0.0000000000000000000 ) ) ;
#267 = DIRECTION ( 'NONE',  ( 0.7071067811865477900, 0.7071067811865473500, 0.0000000000000000000 ) ) ;
#268 = VECTOR ( 'NONE', #267, 999.9999999999998900 ) ;
#269 = CARTESIAN_POINT ( 'NONE',  ( -4.269046054161673700E-016, -5.656854249492378800, 0.0000000000000000000 ) ) ;
#270 = CARTESIAN_POINT ( 'NONE',  ( 0.0000000000000000000, 0.0000000000000000000, 3.000000000000000000 ) ) ;
#271 = AXIS2_PLACEMENT_3D ( 'NONE', #270, #295, #273 ) ;
#272 = CYLINDRICAL_SURFACE ( 'NONE', #271, 10.00000000000000500 ) ;
#273 = DIRECTION ( 'NONE',  ( -1.000000000000000000, 0.0000000000000000000, 0.0000000000000000000 ) ) ;
#274 = LINE ( 'NONE', #291, #290 ) ;
#275 = CARTESIAN_POINT ( 'NONE',  ( -95.00000000000000000, 0.0000000000000000000, 3.000000000000000000 ) ) ;
#276 = CYLINDRICAL_SURFACE ( 'NONE', #255, 5.000000000000004400 ) ;
#277 = FACE_OUTER_BOUND ( 'NONE', #82, .T. ) ;
#278 = DIRECTION ( 'NONE',  ( -0.7071067811865476800, -0.7071067811865474600, 0.0000000000000000000 ) ) ;
#279 = VECTOR ( 'NONE', #278, 1000.000000000000000 ) ;
#280 = CARTESIAN_POINT ( 'NONE',  ( -5.656854249492381500, 0.0000000000000000000, 0.0000000000000000000 ) ) ;
#281 = PLANE ( 'NONE',  #293 ) ;
#282 = FACE_OUTER_BOUND ( 'NONE', #63, .T. ) ;
#283 = VECTOR ( 'NONE', #284, 1000.000000000000000 ) ;
#284 = DIRECTION ( 'NONE',  ( 0.0000000000000000000, 0.0000000000000000000, -1.000000000000000000 ) ) ;
#285 = CARTESIAN_POINT ( 'NONE',  ( -0.5263157894736845100, 9.986139979479098400, 3.000000000000000000 ) ) ;
#286 = LINE ( 'NONE', #285, #283 ) ;
#287 = DIRECTION ( 'NONE',  ( 0.9986139979479091700, 0.05263157894736844600, 0.0000000000000000000 ) ) ;
#288 = DIRECTION ( 'NONE',  ( 0.05263157894736845300, -0.9986139979479092800, 0.0000000000000000000 ) ) ;
#289 = DIRECTION ( 'NONE',  ( 0.0000000000000000000, 0.0000000000000000000, -1.000000000000000000 ) ) ;
#290 = VECTOR ( 'NONE', #289, 1000.000000000000000 ) ;
#291 = CARTESIAN_POINT ( 'NONE',  ( -0.5263157894736847400, -9.986139979479098400, 3.000000000000000000 ) ) ;
#292 = CARTESIAN_POINT ( 'NONE',  ( -95.26315789473683500, 4.993069989739549200, 3.000000000000000000 ) ) ;
#293 = AXIS2_PLACEMENT_3D ( 'NONE', #292, #288, #287 ) ;
#294 = LINE ( 'NONE', #280, #279 ) ;
#295 = DIRECTION ( 'NONE',  ( 0.0000000000000000000, 0.0000000000000000000, -1.000000000000000000 ) ) ;
#296 = FACE_OUTER_BOUND ( 'NONE', #55, .T. ) ;
#297 = DIRECTION ( 'NONE',  ( 1.000000000000000000, 0.0000000000000000000, 0.0000000000000000000 ) ) ;
#298 = DIRECTION ( 'NONE',  ( 0.0000000000000000000, 0.0000000000000000000, 1.000000000000000000 ) ) ;
#299 = AXIS2_PLACEMENT_3D ( 'NONE', #304, #298, #297 ) ;
#300 = CIRCLE ( 'NONE', #299, 5.000000000000004400 ) ;
#301 = COORDINATED_UNIVERSAL_TIME_OFFSET ( 9, 0, .AHEAD. ) ;
#302 = CARTESIAN_POINT ( 'NONE',  ( -5.656854249492381500, 0.0000000000000000000, 3.000000000000000000 ) ) ;
#303 = LINE ( 'NONE', #309, #305 ) ;
#304 = CARTESIAN_POINT ( 'NONE',  ( -95.00000000000000000, 0.0000000000000000000, 3.000000000000000000 ) ) ;
#305 = VECTOR ( 'NONE', #306, 999.9999999999998900 ) ;
#306 = DIRECTION ( 'NONE',  ( 0.7071067811865477900, -0.7071067811865473500, 0.0000000000000000000 ) ) ;
#307 = CARTESIAN_POINT ( 'NONE',  ( -100.0000000000000000, 0.0000000000000000000, 3.000000000000000000 ) ) ;
#308 = CARTESIAN_POINT ( 'NONE',  ( -95.26315789473683500, -4.993069989739549200, 3.000000000000000000 ) ) ;
#309 = CARTESIAN_POINT ( 'NONE',  ( -5.656854249492381500, 0.0000000000000000000, 3.000000000000000000 ) ) ;
#310 = FACE_OUTER_BOUND ( 'NONE', #99, .T. ) ;
#311 = AXIS2_PLACEMENT_3D ( 'NONE', #118, #119, #116 ) ;
#312 = CIRCLE ( 'NONE', #311, 10.00000000000000500 ) ;
#313 = CALENDAR_DATE ( 2009, 1, 5 ) ;
#314 = CARTESIAN_POINT ( 'NONE',  ( -95.26315789473683500, 4.993069989739549200, 3.000000000000000000 ) ) ;
#315 = CARTESIAN_POINT ( 'NONE',  ( -95.00000000000000000, 0.0000000000000000000, 3.000000000000000000 ) ) ;
#316 = DIRECTION ( 'NONE',  ( 1.000000000000000000, 0.0000000000000000000, 0.0000000000000000000 ) ) ;
#317 = DIRECTION ( 'NONE',  ( 0.0000000000000000000, 0.0000000000000000000, 1.000000000000000000 ) ) ;
#318 = CARTESIAN_POINT ( 'NONE',  ( -95.00000000000000000, 0.0000000000000000000, 3.000000000000000000 ) ) ;
#319 = CIRCLE ( 'NONE', #343, 5.000000000000004400 ) ;
#320 = AXIS2_PLACEMENT_3D ( 'NONE', #318, #317, #316 ) ;
#321 = PLANE ( 'NONE',  #320 ) ;
#322 = CARTESIAN_POINT ( 'NONE',  ( -95.00000000000000000, 0.0000000000000000000, 0.0000000000000000000 ) ) ;
#323 = DIRECTION ( 'NONE',  ( -1.000000000000000000, 0.0000000000000000000, 0.0000000000000000000 ) ) ;
#324 = CARTESIAN_POINT ( 'NONE',  ( -100.0000000000000000, 0.0000000000000000000, 0.0000000000000000000 ) ) ;
#325 = CARTESIAN_POINT ( 'NONE',  ( -0.5263157894736847400, -9.986139979479098400, 0.0000000000000000000 ) ) ;
#326 = DIRECTION ( 'NONE',  ( -0.9986139979479091700, -0.05263157894736844600, 0.0000000000000000000 ) ) ;
#327 = VECTOR ( 'NONE', #326, 1000.000000000000200 ) ;
#328 = CARTESIAN_POINT ( 'NONE',  ( -95.26315789473683500, 4.993069989739549200, 0.0000000000000000000 ) ) ;
#329 = LINE ( 'NONE', #328, #327 ) ;
#330 = CIRCLE ( 'NONE', #354, 5.000000000000004400 ) ;
#331 = DIRECTION ( 'NONE',  ( 0.0000000000000000000, 0.0000000000000000000, -1.000000000000000000 ) ) ;
#332 = CARTESIAN_POINT ( 'NONE',  ( -95.00000000000000000, 0.0000000000000000000, 3.000000000000000000 ) ) ;
#333 = CYLINDRICAL_SURFACE ( 'NONE', #346, 5.000000000000004400 ) ;
#334 = FACE_BOUND ( 'NONE', #33, .T. ) ;
#335 = FACE_OUTER_BOUND ( 'NONE', #102, .T. ) ;
#336 = VECTOR ( 'NONE', #350, 1000.000000000000000 ) ;
#337 = AXIS2_PLACEMENT_3D ( 'NONE', #322, #358, #357 ) ;
#338 = CIRCLE ( 'NONE', #337, 5.000000000000004400 ) ;
#339 = DIRECTION ( 'NONE',  ( 1.000000000000000000, 0.0000000000000000000, 0.0000000000000000000 ) ) ;
#340 = DIRECTION ( 'NONE',  ( 1.000000000000000000, 0.0000000000000000000, 0.0000000000000000000 ) ) ;
#341 = DIRECTION ( 'NONE',  ( 0.0000000000000000000, 0.0000000000000000000, 1.000000000000000000 ) ) ;
#342 = CARTESIAN_POINT ( 'NONE',  ( -95.00000000000000000, 0.0000000000000000000, 0.0000000000000000000 ) ) ;
#343 = AXIS2_PLACEMENT_3D ( 'NONE', #342, #341, #340 ) ;
#344 = CARTESIAN_POINT ( 'NONE',  ( -95.26315789473683500, -4.993069989739549200, 0.0000000000000000000 ) ) ;
#345 = VECTOR ( 'NONE', #347, 1000.000000000000000 ) ;
#346 = AXIS2_PLACEMENT_3D ( 'NONE', #332, #331, #323 ) ;
#347 = DIRECTION ( 'NONE',  ( 0.0000000000000000000, 0.0000000000000000000, -1.000000000000000000 ) ) ;
#348 = CARTESIAN_POINT ( 'NONE',  ( -100.0000000000000000, 0.0000000000000000000, 3.000000000000000000 ) ) ;
#349 = LINE ( 'NONE', #348, #345 ) ;
#350 = DIRECTION ( 'NONE',  ( 0.0000000000000000000, 0.0000000000000000000, -1.000000000000000000 ) ) ;
#351 = CARTESIAN_POINT ( 'NONE',  ( -95.26315789473683500, -4.993069989739549200, 3.000000000000000000 ) ) ;
#352 = LINE ( 'NONE', #351, #336 ) ;
#353 = DIRECTION ( 'NONE',  ( 0.0000000000000000000, 0.0000000000000000000, 1.000000000000000000 ) ) ;
#354 = AXIS2_PLACEMENT_3D ( 'NONE', #315, #353, #339 ) ;
#355 = CARTESIAN_POINT ( 'NONE',  ( -0.5263157894736845100, 9.986139979479098400, 0.0000000000000000000 ) ) ;
#356 = CARTESIAN_POINT ( 'NONE',  ( -95.26315789473683500, 4.993069989739549200, 0.0000000000000000000 ) ) ;
#357 = DIRECTION ( 'NONE',  ( 1.000000000000000000, 0.0000000000000000000, 0.0000000000000000000 ) ) ;
#358 = DIRECTION ( 'NONE',  ( 0.0000000000000000000, 0.0000000000000000000, 1.000000000000000000 ) ) ;
#359 = FACE_BOUND ( 'NONE', #74, .T. ) ;
#360 = PLANE ( 'NONE',  #363 ) ;
#361 = DIRECTION ( 'NONE',  ( 1.000000000000000000, 0.0000000000000000000, 0.0000000000000000000 ) ) ;
#362 = DIRECTION ( 'NONE',  ( 0.0000000000000000000, 0.0000000000000000000, 1.000000000000000000 ) ) ;
#363 = AXIS2_PLACEMENT_3D ( 'NONE', #366, #362, #361 ) ;
#364 = FACE_OUTER_BOUND ( 'NONE', #125, .T. ) ;
#365 =( LENGTH_UNIT ( ) NAMED_UNIT ( * ) SI_UNIT ( .MILLI., .METRE. ) );
#366 = CARTESIAN_POINT ( 'NONE',  ( -95.00000000000000000, 0.0000000000000000000, 0.0000000000000000000 ) ) ;
#367 = CARTESIAN_POINT ( 'NONE',  ( 0.0000000000000000000, 0.0000000000000000000, 0.0000000000000000000 ) ) ;
#368 = DIRECTION ( 'NONE',  ( 1.000000000000000000, 0.0000000000000000000, 0.0000000000000000000 ) ) ;
#369 = DIRECTION ( 'NONE',  ( 0.0000000000000000000, 0.0000000000000000000, 1.000000000000000000 ) ) ;
#370 = AXIS2_PLACEMENT_3D ( 'NONE', #367, #369, #368 ) ;
#371 = CC_DESIGN_PERSON_AND_ORGANIZATION_ASSIGNMENT ( #373, #372, ( #376 ) ) ;
#372 = PERSON_AND_ORGANIZATION_ROLE ( 'design_owner' ) ;
#373 = PERSON_AND_ORGANIZATION ( #375, #374 ) ;
#374 = ORGANIZATION ( 'UNSPECIFIED', 'UNSPECIFIED', '' ) ;
#375 = PERSON ( 'UNSPECIFIED', 'UNSPECIFIED', 'UNSPECIFIED', ('UNSPECIFIED'), ('UNSPECIFIED'), ('UNSPECIFIED') ) ;
#376 = PRODUCT ( 'AC-25-5', 'AC-25-5', '', ( #377 ) ) ;
#377 = MECHANICAL_CONTEXT ( 'NONE', #379, 'mechanical' ) ;
#378 = APPLICATION_PROTOCOL_DEFINITION ( 'international standard', 'config_control_design', 1994, #379 ) ;
#379 = APPLICATION_CONTEXT ( 'configuration controlled 3d designs of mechanical parts and assemblies' ) ;
#380 = DATE_AND_TIME ( #404, #399 ) ;
#381 = SHAPE_DEFINITION_REPRESENTATION ( #382, #170 ) ;
#382 = PRODUCT_DEFINITION_SHAPE ( 'NONE', 'NONE',  #137 ) ;
#383 = PRODUCT_RELATED_PRODUCT_CATEGORY ( 'detail', '', ( #376 ) ) ;
#384 = CC_DESIGN_SECURITY_CLASSIFICATION ( #401, ( #192 ) ) ;
#385 = CC_DESIGN_APPROVAL ( #393, ( #401 ) ) ;
#386 = APPROVAL_DATE_TIME ( #387, #393 ) ;
#387 = DATE_AND_TIME ( #388, #389 ) ;
#388 = CALENDAR_DATE ( 2009, 1, 5 ) ;
#389 = LOCAL_TIME ( 9, 54, 52.00000000000000000, #390 ) ;
#390 = COORDINATED_UNIVERSAL_TIME_OFFSET ( 9, 0, .AHEAD. ) ;
#391 = APPROVAL_PERSON_ORGANIZATION ( #395, #393, #392 ) ;
#392 = APPROVAL_ROLE ( '' ) ;
#393 = APPROVAL ( #394, 'UNSPECIFIED' ) ;
#394 = APPROVAL_STATUS ( 'not_yet_approved' ) ;
#395 = PERSON_AND_ORGANIZATION ( #375, #374 ) ;
#396 = COORDINATED_UNIVERSAL_TIME_OFFSET ( 9, 0, .AHEAD. ) ;
#397 = PERSON_AND_ORGANIZATION_ROLE ( 'classification_officer' ) ;
#398 = CC_DESIGN_PERSON_AND_ORGANIZATION_ASSIGNMENT ( #400, #397, ( #401 ) ) ;
#399 = LOCAL_TIME ( 9, 54, 52.00000000000000000, #396 ) ;
#400 = PERSON_AND_ORGANIZATION ( #375, #374 ) ;
#401 = SECURITY_CLASSIFICATION ( '', '', #406 ) ;
#402 = CC_DESIGN_DATE_AND_TIME_ASSIGNMENT ( #380, #403, ( #401 ) ) ;
#403 = DATE_TIME_ROLE ( 'classification_date' ) ;
#404 = CALENDAR_DATE ( 2009, 1, 5 ) ;
#405 = CC_DESIGN_APPROVAL ( #189, ( #192 ) ) ;
#406 = SECURITY_CLASSIFICATION_LEVEL ( 'unclassified' ) ;
#407 = PERSON_AND_ORGANIZATION_ROLE ( 'design_supplier' ) ;
#408 = CC_DESIGN_PERSON_AND_ORGANIZATION_ASSIGNMENT ( #412, #407, ( #192 ) ) ;
#409 = PERSON_AND_ORGANIZATION ( #375, #374 ) ;
#410 = PERSON_AND_ORGANIZATION_ROLE ( 'creator' ) ;
#411 = CC_DESIGN_PERSON_AND_ORGANIZATION_ASSIGNMENT ( #409, #410, ( #192 ) ) ;
#412 = PERSON_AND_ORGANIZATION ( #375, #374 ) ;
ENDSEC;
END-ISO-10303-21;
