ISO-10303-21;
HEADER;
FILE_DESCRIPTION (( 'STEP AP203' ),
    '1' );
FILE_NAME ('sone3D.STEP',
    '2016-06-07T11:17:38',
    ( '' ),
    ( '' ),
    'SwSTEP 2.0',
    'SolidWorks 2014',
    '' );
FILE_SCHEMA (( 'CONFIG_CONTROL_DESIGN' ));
ENDSEC;

DATA;
#1 = DIRECTION ( 'NONE',  ( 0.0000000000000000000, 0.0000000000000000000, -1.000000000000000000 ) ) ;
#2 = CARTESIAN_POINT ( 'NONE',  ( 25.00000000000000400, -28.99999999999997900, 0.02000000000000000000 ) ) ;
#3 =( GEOMETRIC_REPRESENTATION_CONTEXT ( 3 ) GLOBAL_UNCERTAINTY_ASSIGNED_CONTEXT ( ( #112 ) ) GLOBAL_UNIT_ASSIGNED_CONTEXT ( ( #274, #47, #243 ) ) REPRESENTATION_CONTEXT ( 'NONE', 'WORKASPACE' ) );
#4 = EDGE_CURVE ( 'NONE', #139, #247, #318, .T. ) ;
#5 = ORIENTED_EDGE ( 'NONE', *, *, #202, .T. ) ;
#6 = DATE_TIME_ROLE ( 'classification_date' ) ;
#7 = VERTEX_POINT ( 'NONE', #90 ) ;
#8 = CLOSED_SHELL ( 'NONE', ( #107, #32, #102, #191, #213, #371, #66, #296, #266, #161 ) ) ;
#9 = AXIS2_PLACEMENT_3D ( 'NONE', #72, #277, #108 ) ;
#10 = DIRECTION ( 'NONE',  ( -0.0000000000000000000, 0.0000000000000000000, -1.000000000000000000 ) ) ;
#11 = PERSON_AND_ORGANIZATION ( #29, #160 ) ;
#12 = DIRECTION ( 'NONE',  ( 1.000000000000000000, 0.0000000000000000000, 0.0000000000000000000 ) ) ;
#13 = EDGE_CURVE ( 'NONE', #153, #150, #23, .T. ) ;
#14 = VECTOR ( 'NONE', #221, 1000.000000000000000 ) ;
#15 = DIRECTION ( 'NONE',  ( -0.0000000000000000000, -0.0000000000000000000, 1.000000000000000000 ) ) ;
#16 = DIRECTION ( 'NONE',  ( -0.0000000000000000000, -0.0000000000000000000, 1.000000000000000000 ) ) ;
#17 = DIRECTION ( 'NONE',  ( -1.000000000000000000, -9.912705577010328000E-017, 0.0000000000000000000 ) ) ;
#18 = DIRECTION ( 'NONE',  ( 1.000000000000000000, 0.0000000000000000000, 0.0000000000000000000 ) ) ;
#19 = AXIS2_PLACEMENT_3D ( 'NONE', #56, #57, #254 ) ;
#20 = VERTEX_POINT ( 'NONE', #306 ) ;
#21 = CC_DESIGN_DATE_AND_TIME_ASSIGNMENT ( #288, #6, ( #295 ) ) ;
#22 = CYLINDRICAL_SURFACE ( 'NONE', #27, 6.000000000000001800 ) ;
#23 = LINE ( 'NONE', #130, #95 ) ;
#24 = PLANE ( 'NONE',  #124 ) ;
#25 = APPROVAL_DATE_TIME ( #63, #286 ) ;
#26 = CARTESIAN_POINT ( 'NONE',  ( 24.99999999999999600, 35.00000000000000700, 0.02000000000000000000 ) ) ;
#27 = AXIS2_PLACEMENT_3D ( 'NONE', #283, #81, #142 ) ;
#28 = DIRECTION ( 'NONE',  ( -0.0000000000000000000, 0.0000000000000000000, 1.000000000000000000 ) ) ;
#29 = PERSON ( 'UNSPECIFIED', 'UNSPECIFIED', 'UNSPECIFIED', ('UNSPECIFIED'), ('UNSPECIFIED'), ('UNSPECIFIED') ) ;
#30 = APPLICATION_PROTOCOL_DEFINITION ( 'international standard', 'config_control_design', 1994, #145 ) ;
#31 = DIRECTION ( 'NONE',  ( 0.0000000000000000000, -0.0000000000000000000, 1.000000000000000000 ) ) ;
#32 = ADVANCED_FACE ( 'NONE', ( #235 ), #212, .F. ) ;
#33 = VECTOR ( 'NONE', #1, 1000.000000000000000 ) ;
#34 = EDGE_LOOP ( 'NONE', ( #248, #328, #252, #336 ) ) ;
#35 = APPROVAL_ROLE ( '' ) ;
#36 = EDGE_CURVE ( 'NONE', #377, #150, #273, .T. ) ;
#37 = ORIENTED_EDGE ( 'NONE', *, *, #217, .F. ) ;
#38 = VECTOR ( 'NONE', #31, 1000.000000000000000 ) ;
#39 = CARTESIAN_POINT ( 'NONE',  ( 18.99999999999999300, 35.00000000000000700, -0.02000000000000000000 ) ) ;
#40 = CARTESIAN_POINT ( 'NONE',  ( -25.00000000000000400, 29.00000000000001100, 0.02000000000000000000 ) ) ;
#41 = LOCAL_TIME ( 20, 17, 38.00000000000000000, #292 ) ;
#42 = DIRECTION ( 'NONE',  ( -0.0000000000000000000, 0.0000000000000000000, -1.000000000000000000 ) ) ;
#43 = AXIS2_PLACEMENT_3D ( 'NONE', #62, #260, #93 ) ;
#44 = CC_DESIGN_APPROVAL ( #278, ( #295 ) ) ;
#45 = ORIENTED_EDGE ( 'NONE', *, *, #315, .T. ) ;
#46 = EDGE_LOOP ( 'NONE', ( #126, #99, #118, #302 ) ) ;
#47 =( NAMED_UNIT ( * ) PLANE_ANGLE_UNIT ( ) SI_UNIT ( $, .RADIAN. ) );
#48 = CALENDAR_DATE ( 2016, 7, 6 ) ;
#49 = PERSON_AND_ORGANIZATION ( #29, #160 ) ;
#50 = VECTOR ( 'NONE', #351, 1000.000000000000000 ) ;
#51 = CARTESIAN_POINT ( 'NONE',  ( 19.00000000000000700, -28.99999999999997900, 0.02000000000000000000 ) ) ;
#52 = EDGE_CURVE ( 'NONE', #312, #226, #106, .T. ) ;
#53 = DIRECTION ( 'NONE',  ( -1.000000000000000000, -0.0000000000000000000, -0.0000000000000000000 ) ) ;
#54 = ORIENTED_EDGE ( 'NONE', *, *, #4, .F. ) ;
#55 = ORIENTED_EDGE ( 'NONE', *, *, #84, .F. ) ;
#56 = CARTESIAN_POINT ( 'NONE',  ( 0.0000000000000000000, 0.0000000000000000000, -0.02000000000000000000 ) ) ;
#57 = DIRECTION ( 'NONE',  ( -0.0000000000000000000, 0.0000000000000000000, 1.000000000000000000 ) ) ;
#58 = LINE ( 'NONE', #228, #64 ) ;
#59 = ORIENTED_EDGE ( 'NONE', *, *, #356, .T. ) ;
#60 = APPROVAL_ROLE ( '' ) ;
#61 = DIRECTION ( 'NONE',  ( -0.0000000000000000000, -0.0000000000000000000, 1.000000000000000000 ) ) ;
#62 = CARTESIAN_POINT ( 'NONE',  ( -19.00000000000000700, 29.00000000000001100, -0.02000000000000000000 ) ) ;
#63 = DATE_AND_TIME ( #297, #220 ) ;
#64 = VECTOR ( 'NONE', #61, 1000.000000000000000 ) ;
#65 = CARTESIAN_POINT ( 'NONE',  ( -19.00000000000000000, -34.99999999999999300, 0.02000000000000000000 ) ) ;
#66 = ADVANCED_FACE ( 'NONE', ( #136 ), #168, .T. ) ;
#67 = VECTOR ( 'NONE', #12, 1000.000000000000000 ) ;
#68 = EDGE_CURVE ( 'NONE', #20, #7, #58, .T. ) ;
#69 = DIRECTION ( 'NONE',  ( -1.000000000000000000, -0.0000000000000000000, -0.0000000000000000000 ) ) ;
#70 = CIRCLE ( 'NONE', #9, 6.000000000000001800 ) ;
#71 = CARTESIAN_POINT ( 'NONE',  ( -25.00000000000000400, 35.00000000000000700, -0.02000000000000000000 ) ) ;
#72 = CARTESIAN_POINT ( 'NONE',  ( 18.99999999999999300, 29.00000000000001100, 0.02000000000000000000 ) ) ;
#73 = ORIENTED_EDGE ( 'NONE', *, *, #366, .F. ) ;
#74 = CYLINDRICAL_SURFACE ( 'NONE', #214, 6.000000000000000000 ) ;
#75 = CARTESIAN_POINT ( 'NONE',  ( 25.00000000000000400, -28.99999999999997900, 0.02000000000000000000 ) ) ;
#76 = DIRECTION ( 'NONE',  ( 1.000000000000000000, 0.0000000000000000000, 0.0000000000000000000 ) ) ;
#77 = ORIENTED_EDGE ( 'NONE', *, *, #253, .F. ) ;
#78 = VECTOR ( 'NONE', #265, 1000.000000000000000 ) ;
#79 = ORIENTED_EDGE ( 'NONE', *, *, #315, .F. ) ;
#80 = CIRCLE ( 'NONE', #43, 6.000000000000000000 ) ;
#81 = DIRECTION ( 'NONE',  ( 0.0000000000000000000, 0.0000000000000000000, -1.000000000000000000 ) ) ;
#82 = AXIS2_PLACEMENT_3D ( 'NONE', #138, #348, #163 ) ;
#83 = CARTESIAN_POINT ( 'NONE',  ( -25.00000000000000400, 29.00000000000001100, -0.02000000000000000000 ) ) ;
#84 = EDGE_CURVE ( 'NONE', #337, #139, #172, .T. ) ;
#85 = DIRECTION ( 'NONE',  ( -9.912705577010325500E-017, 1.000000000000000000, -0.0000000000000000000 ) ) ;
#86 = ORIENTED_EDGE ( 'NONE', *, *, #323, .T. ) ;
#87 = DESIGN_CONTEXT ( 'detailed design', #145, 'design' ) ;
#88 = DATE_TIME_ROLE ( 'creation_date' ) ;
#89 = PLANE ( 'NONE',  #329 ) ;
#90 = CARTESIAN_POINT ( 'NONE',  ( 24.99999999999999600, 29.00000000000001100, 0.02000000000000000000 ) ) ;
#91 = EDGE_LOOP ( 'NONE', ( #73, #222, #37, #120 ) ) ;
#92 = LINE ( 'NONE', #75, #364 ) ;
#93 = DIRECTION ( 'NONE',  ( 1.000000000000000000, 0.0000000000000000000, 0.0000000000000000000 ) ) ;
#94 = LINE ( 'NONE', #182, #354 ) ;
#95 = VECTOR ( 'NONE', #16, 1000.000000000000000 ) ;
#96 = CARTESIAN_POINT ( 'NONE',  ( 19.00000000000000700, -34.99999999999999300, -0.02000000000000000000 ) ) ;
#97 = APPROVAL_PERSON_ORGANIZATION ( #110, #339, #121 ) ;
#98 = ORIENTED_EDGE ( 'NONE', *, *, #363, .F. ) ;
#99 = ORIENTED_EDGE ( 'NONE', *, *, #52, .F. ) ;
#100 = DIRECTION ( 'NONE',  ( -1.000000000000000000, 0.0000000000000000000, 0.0000000000000000000 ) ) ;
#101 = AXIS2_PLACEMENT_3D ( 'NONE', #310, #135, #343 ) ;
#102 = ADVANCED_FACE ( 'NONE', ( #305 ), #89, .F. ) ;
#103 = CARTESIAN_POINT ( 'NONE',  ( 0.0000000000000000000, 0.0000000000000000000, 0.0000000000000000000 ) ) ;
#104 = ORIENTED_EDGE ( 'NONE', *, *, #335, .F. ) ;
#105 = CARTESIAN_POINT ( 'NONE',  ( -25.00000000000000400, 35.00000000000000700, 0.02000000000000000000 ) ) ;
#106 = LINE ( 'NONE', #210, #245 ) ;
#107 = ADVANCED_FACE ( 'NONE', ( #143 ), #275, .F. ) ;
#108 = DIRECTION ( 'NONE',  ( 1.000000000000000000, 0.0000000000000000000, 0.0000000000000000000 ) ) ;
#109 = DIRECTION ( 'NONE',  ( 0.0000000000000000000, -0.0000000000000000000, -1.000000000000000000 ) ) ;
#110 = PERSON_AND_ORGANIZATION ( #29, #160 ) ;
#111 = EDGE_CURVE ( 'NONE', #194, #7, #358, .T. ) ;
#112 = UNCERTAINTY_MEASURE_WITH_UNIT (LENGTH_MEASURE( 1.000000000000000100E-005 ), #274, 'distance_accuracy_value', 'NONE');
#113 = CARTESIAN_POINT ( 'NONE',  ( -19.00000000000000700, 35.00000000000000700, -0.02000000000000000000 ) ) ;
#114 = ORIENTED_EDGE ( 'NONE', *, *, #4, .T. ) ;
#115 = CALENDAR_DATE ( 2016, 7, 6 ) ;
#116 = PLANE ( 'NONE',  #101 ) ;
#117 = LOCAL_TIME ( 20, 17, 38.00000000000000000, #199 ) ;
#118 = ORIENTED_EDGE ( 'NONE', *, *, #237, .F. ) ;
#119 = ORIENTED_EDGE ( 'NONE', *, *, #376, .T. ) ;
#120 = ORIENTED_EDGE ( 'NONE', *, *, #344, .F. ) ;
#121 = APPROVAL_ROLE ( '' ) ;
#122 = CARTESIAN_POINT ( 'NONE',  ( -24.99999999999999600, -28.99999999999998900, 0.02000000000000000000 ) ) ;
#123 = EDGE_LOOP ( 'NONE', ( #54, #55, #267, #79 ) ) ;
#124 = AXIS2_PLACEMENT_3D ( 'NONE', #281, #316, #148 ) ;
#125 = CYLINDRICAL_SURFACE ( 'NONE', #195, 6.000000000000000000 ) ;
#126 = ORIENTED_EDGE ( 'NONE', *, *, #197, .F. ) ;
#127 = EDGE_CURVE ( 'NONE', #285, #153, #333, .T. ) ;
#128 = PRODUCT ( 'sone3D', 'sone3D', '', ( #159 ) ) ;
#129 = CARTESIAN_POINT ( 'NONE',  ( -19.00000000000000000, -28.99999999999999600, 0.02000000000000000000 ) ) ;
#130 = CARTESIAN_POINT ( 'NONE',  ( -19.00000000000000700, 35.00000000000000700, 0.02000000000000000000 ) ) ;
#131 = EDGE_LOOP ( 'NONE', ( #187, #164, #151, #317 ) ) ;
#132 = CARTESIAN_POINT ( 'NONE',  ( 18.99999999999999300, 35.00000000000000700, 0.02000000000000000000 ) ) ;
#133 = DIRECTION ( 'NONE',  ( -9.912705577010328000E-017, 1.000000000000000000, 0.0000000000000000000 ) ) ;
#134 = DIRECTION ( 'NONE',  ( 0.0000000000000000000, 0.0000000000000000000, 1.000000000000000000 ) ) ;
#135 = DIRECTION ( 'NONE',  ( 0.0000000000000000000, -1.000000000000000000, 0.0000000000000000000 ) ) ;
#136 = FACE_OUTER_BOUND ( 'NONE', #123, .T. ) ;
#137 = CARTESIAN_POINT ( 'NONE',  ( -25.00000000000000400, 35.00000000000000700, 0.02000000000000000000 ) ) ;
#138 = CARTESIAN_POINT ( 'NONE',  ( -19.00000000000000000, -28.99999999999999600, -0.02000000000000000000 ) ) ;
#139 = VERTEX_POINT ( 'NONE', #122 ) ;
#140 = COORDINATED_UNIVERSAL_TIME_OFFSET ( 9, 0, .AHEAD. ) ;
#141 = LOCAL_TIME ( 20, 17, 38.00000000000000000, #375 ) ;
#142 = DIRECTION ( 'NONE',  ( -1.000000000000000000, 0.0000000000000000000, 0.0000000000000000000 ) ) ;
#143 = FACE_OUTER_BOUND ( 'NONE', #149, .T. ) ;
#144 = AXIS2_PLACEMENT_3D ( 'NONE', #279, #109, #313 ) ;
#145 = APPLICATION_CONTEXT ( 'configuration controlled 3d designs of mechanical parts and assemblies' ) ;
#146 = APPROVAL_DATE_TIME ( #303, #278 ) ;
#147 = PERSON_AND_ORGANIZATION_ROLE ( 'design_supplier' ) ;
#148 = DIRECTION ( 'NONE',  ( 1.000000000000000000, 0.0000000000000000000, 0.0000000000000000000 ) ) ;
#149 = EDGE_LOOP ( 'NONE', ( #211, #219, #77, #188 ) ) ;
#150 = VERTEX_POINT ( 'NONE', #249 ) ;
#151 = ORIENTED_EDGE ( 'NONE', *, *, #376, .F. ) ;
#152 = DIRECTION ( 'NONE',  ( 0.0000000000000000000, 0.0000000000000000000, -1.000000000000000000 ) ) ;
#153 = VERTEX_POINT ( 'NONE', #113 ) ;
#154 = ORIENTED_EDGE ( 'NONE', *, *, #184, .T. ) ;
#155 = CARTESIAN_POINT ( 'NONE',  ( -24.99999999999999600, -34.99999999999999300, 0.02000000000000000000 ) ) ;
#156 = FACE_OUTER_BOUND ( 'NONE', #131, .T. ) ;
#157 = CARTESIAN_POINT ( 'NONE',  ( -19.00000000000000000, -28.99999999999999600, 0.02000000000000000000 ) ) ;
#158 = AXIS2_PLACEMENT_3D ( 'NONE', #198, #28, #224 ) ;
#159 = MECHANICAL_CONTEXT ( 'NONE', #308, 'mechanical' ) ;
#160 = ORGANIZATION ( 'UNSPECIFIED', 'UNSPECIFIED', '' ) ;
#161 = ADVANCED_FACE ( 'NONE', ( #233 ), #22, .T. ) ;
#162 = DIRECTION ( 'NONE',  ( 9.912705577010325500E-017, -1.000000000000000000, 0.0000000000000000000 ) ) ;
#163 = DIRECTION ( 'NONE',  ( 1.000000000000000000, 0.0000000000000000000, 0.0000000000000000000 ) ) ;
#164 = ORIENTED_EDGE ( 'NONE', *, *, #68, .F. ) ;
#165 = EDGE_LOOP ( 'NONE', ( #291, #338, #59, #340 ) ) ;
#166 = VERTEX_POINT ( 'NONE', #83 ) ;
#167 = AXIS2_PLACEMENT_3D ( 'NONE', #157, #368, #186 ) ;
#168 = CYLINDRICAL_SURFACE ( 'NONE', #349, 6.000000000000001800 ) ;
#169 = CARTESIAN_POINT ( 'NONE',  ( 25.00000000000000400, -28.99999999999997900, -0.02000000000000000000 ) ) ;
#170 = PLANE ( 'NONE',  #19 ) ;
#171 = PERSON_AND_ORGANIZATION_ROLE ( 'classification_officer' ) ;
#172 = LINE ( 'NONE', #258, #38 ) ;
#173 = VERTEX_POINT ( 'NONE', #287 ) ;
#174 = ORIENTED_EDGE ( 'NONE', *, *, #36, .T. ) ;
#175 = CARTESIAN_POINT ( 'NONE',  ( 19.00000000000000700, -34.99999999999999300, 0.02000000000000000000 ) ) ;
#176 = ADVANCED_BREP_SHAPE_REPRESENTATION ( 'sone3D', ( #240, #236 ), #3 ) ;
#177 = AXIS2_PLACEMENT_3D ( 'NONE', #369, #189, #18 ) ;
#178 = EDGE_LOOP ( 'NONE', ( #104, #5, #98, #341, #218, #119, #271, #365 ) ) ;
#179 = LINE ( 'NONE', #65, #263 ) ;
#180 = DIRECTION ( 'NONE',  ( 0.0000000000000000000, 0.0000000000000000000, -1.000000000000000000 ) ) ;
#181 = EDGE_CURVE ( 'NONE', #377, #285, #319, .T. ) ;
#182 = CARTESIAN_POINT ( 'NONE',  ( -25.00000000000000400, 35.00000000000000700, -0.02000000000000000000 ) ) ;
#183 = PERSON_AND_ORGANIZATION ( #29, #160 ) ;
#184 = EDGE_CURVE ( 'NONE', #7, #377, #70, .T. ) ;
#185 = DIRECTION ( 'NONE',  ( 0.0000000000000000000, -0.0000000000000000000, 1.000000000000000000 ) ) ;
#186 = DIRECTION ( 'NONE',  ( 1.000000000000000000, 0.0000000000000000000, 0.0000000000000000000 ) ) ;
#187 = ORIENTED_EDGE ( 'NONE', *, *, #184, .F. ) ;
#188 = ORIENTED_EDGE ( 'NONE', *, *, #344, .T. ) ;
#189 = DIRECTION ( 'NONE',  ( 0.0000000000000000000, -0.0000000000000000000, -1.000000000000000000 ) ) ;
#190 = LINE ( 'NONE', #137, #353 ) ;
#191 = ADVANCED_FACE ( 'NONE', ( #193 ), #116, .F. ) ;
#192 = FACE_OUTER_BOUND ( 'NONE', #46, .T. ) ;
#193 = FACE_OUTER_BOUND ( 'NONE', #34, .T. ) ;
#194 = VERTEX_POINT ( 'NONE', #2 ) ;
#195 = AXIS2_PLACEMENT_3D ( 'NONE', #234, #180, #205 ) ;
#196 = CARTESIAN_POINT ( 'NONE',  ( -25.00000000000000400, 29.00000000000001100, 0.02000000000000000000 ) ) ;
#197 = EDGE_CURVE ( 'NONE', #226, #194, #208, .T. ) ;
#198 = CARTESIAN_POINT ( 'NONE',  ( -19.00000000000000700, 29.00000000000001100, 0.02000000000000000000 ) ) ;
#199 = COORDINATED_UNIVERSAL_TIME_OFFSET ( 9, 0, .AHEAD. ) ;
#200 = CIRCLE ( 'NONE', #144, 6.000000000000001800 ) ;
#201 = APPROVAL_STATUS ( 'not_yet_approved' ) ;
#202 = EDGE_CURVE ( 'NONE', #173, #337, #289, .T. ) ;
#203 = ORIENTED_EDGE ( 'NONE', *, *, #111, .T. ) ;
#204 = LINE ( 'NONE', #334, #78 ) ;
#205 = DIRECTION ( 'NONE',  ( -1.000000000000000000, 0.0000000000000000000, 0.0000000000000000000 ) ) ;
#206 = DATE_AND_TIME ( #115, #141 ) ;
#207 = CARTESIAN_POINT ( 'NONE',  ( -24.99999999999999600, -28.99999999999998900, -0.02000000000000000000 ) ) ;
#208 = CIRCLE ( 'NONE', #251, 6.000000000000001800 ) ;
#209 = CARTESIAN_POINT ( 'NONE',  ( -24.99999999999999600, -34.99999999999999300, 0.02000000000000000000 ) ) ;
#210 = CARTESIAN_POINT ( 'NONE',  ( 19.00000000000000700, -34.99999999999999300, 0.02000000000000000000 ) ) ;
#211 = ORIENTED_EDGE ( 'NONE', *, *, #363, .T. ) ;
#212 = PLANE ( 'NONE',  #239 ) ;
#213 = ADVANCED_FACE ( 'NONE', ( #373 ), #24, .T. ) ;
#214 = AXIS2_PLACEMENT_3D ( 'NONE', #345, #152, #361 ) ;
#215 = DIRECTION ( 'NONE',  ( 9.912705577010328000E-017, -1.000000000000000000, 0.0000000000000000000 ) ) ;
#216 = CC_DESIGN_PERSON_AND_ORGANIZATION_ASSIGNMENT ( #346, #324, ( #255 ) ) ;
#217 = EDGE_CURVE ( 'NONE', #166, #153, #80, .T. ) ;
#218 = ORIENTED_EDGE ( 'NONE', *, *, #127, .F. ) ;
#219 = ORIENTED_EDGE ( 'NONE', *, *, #84, .T. ) ;
#220 = LOCAL_TIME ( 20, 17, 38.00000000000000000, #321 ) ;
#221 = DIRECTION ( 'NONE',  ( -9.912705577010325500E-017, 1.000000000000000000, -0.0000000000000000000 ) ) ;
#222 = ORIENTED_EDGE ( 'NONE', *, *, #13, .F. ) ;
#223 = CARTESIAN_POINT ( 'NONE',  ( 24.99999999999999600, 35.00000000000000700, -0.02000000000000000000 ) ) ;
#224 = DIRECTION ( 'NONE',  ( 1.000000000000000000, 0.0000000000000000000, 0.0000000000000000000 ) ) ;
#225 = SHAPE_DEFINITION_REPRESENTATION ( #298, #176 ) ;
#226 = VERTEX_POINT ( 'NONE', #175 ) ;
#227 = APPROVAL_STATUS ( 'not_yet_approved' ) ;
#228 = CARTESIAN_POINT ( 'NONE',  ( 24.99999999999999600, 29.00000000000001100, 0.02000000000000000000 ) ) ;
#229 = ORIENTED_EDGE ( 'NONE', *, *, #366, .T. ) ;
#230 = PERSON_AND_ORGANIZATION ( #29, #160 ) ;
#231 = LINE ( 'NONE', #155, #67 ) ;
#232 = CARTESIAN_POINT ( 'NONE',  ( -19.00000000000000000, -34.99999999999999300, 0.02000000000000000000 ) ) ;
#233 = FACE_OUTER_BOUND ( 'NONE', #91, .T. ) ;
#234 = CARTESIAN_POINT ( 'NONE',  ( 19.00000000000000700, -28.99999999999997900, 0.02000000000000000000 ) ) ;
#235 = FACE_OUTER_BOUND ( 'NONE', #284, .T. ) ;
#236 = AXIS2_PLACEMENT_3D ( 'NONE', #103, #134, #342 ) ;
#237 = EDGE_CURVE ( 'NONE', #347, #312, #200, .T. ) ;
#238 = ORIENTED_EDGE ( 'NONE', *, *, #52, .T. ) ;
#239 = AXIS2_PLACEMENT_3D ( 'NONE', #209, #270, #185 ) ;
#240 = MANIFOLD_SOLID_BREP ( 'R6', #8 ) ;
#241 = CARTESIAN_POINT ( 'NONE',  ( -25.00000000000000400, 35.00000000000000700, 0.02000000000000000000 ) ) ;
#242 = CC_DESIGN_PERSON_AND_ORGANIZATION_ASSIGNMENT ( #49, #256, ( #268 ) ) ;
#243 =( NAMED_UNIT ( * ) SI_UNIT ( $, .STERADIAN. ) SOLID_ANGLE_UNIT ( ) );
#244 = ORIENTED_EDGE ( 'NONE', *, *, #197, .T. ) ;
#245 = VECTOR ( 'NONE', #15, 1000.000000000000000 ) ;
#246 = DIRECTION ( 'NONE',  ( -0.0000000000000000000, 0.0000000000000000000, 1.000000000000000000 ) ) ;
#247 = VERTEX_POINT ( 'NONE', #232 ) ;
#248 = ORIENTED_EDGE ( 'NONE', *, *, #36, .F. ) ;
#249 = CARTESIAN_POINT ( 'NONE',  ( -19.00000000000000700, 35.00000000000000700, 0.02000000000000000000 ) ) ;
#250 = CARTESIAN_POINT ( 'NONE',  ( 18.99999999999999300, 35.00000000000000700, 0.02000000000000000000 ) ) ;
#251 = AXIS2_PLACEMENT_3D ( 'NONE', #51, #246, #76 ) ;
#252 = ORIENTED_EDGE ( 'NONE', *, *, #127, .T. ) ;
#253 = EDGE_CURVE ( 'NONE', #331, #139, #190, .T. ) ;
#254 = DIRECTION ( 'NONE',  ( 1.000000000000000000, 0.0000000000000000000, 0.0000000000000000000 ) ) ;
#255 = PRODUCT_DEFINITION_FORMATION_WITH_SPECIFIED_SOURCE ( 'ANY', '', #128, .NOT_KNOWN. ) ;
#256 = PERSON_AND_ORGANIZATION_ROLE ( 'creator' ) ;
#257 = LINE ( 'NONE', #196, #33 ) ;
#258 = CARTESIAN_POINT ( 'NONE',  ( -24.99999999999999600, -28.99999999999998900, 0.02000000000000000000 ) ) ;
#259 = CALENDAR_DATE ( 2016, 7, 6 ) ;
#260 = DIRECTION ( 'NONE',  ( 0.0000000000000000000, -0.0000000000000000000, -1.000000000000000000 ) ) ;
#261 = ORIENTED_EDGE ( 'NONE', *, *, #335, .T. ) ;
#262 = APPROVAL_DATE_TIME ( #206, #339 ) ;
#263 = VECTOR ( 'NONE', #10, 1000.000000000000000 ) ;
#264 = EDGE_CURVE ( 'NONE', #194, #347, #92, .T. ) ;
#265 = DIRECTION ( 'NONE',  ( 1.000000000000000000, 0.0000000000000000000, 0.0000000000000000000 ) ) ;
#266 = ADVANCED_FACE ( 'NONE', ( #156 ), #74, .T. ) ;
#267 = ORIENTED_EDGE ( 'NONE', *, *, #202, .F. ) ;
#268 = PRODUCT_DEFINITION ( 'UNKNOWN', '', #255, #87 ) ;
#269 = CARTESIAN_POINT ( 'NONE',  ( 24.99999999999999600, 35.00000000000000700, 0.02000000000000000000 ) ) ;
#270 = DIRECTION ( 'NONE',  ( 0.0000000000000000000, 1.000000000000000000, 0.0000000000000000000 ) ) ;
#271 = ORIENTED_EDGE ( 'NONE', *, *, #356, .F. ) ;
#272 = VECTOR ( 'NONE', #85, 1000.000000000000000 ) ;
#273 = LINE ( 'NONE', #241, #332 ) ;
#274 =( LENGTH_UNIT ( ) NAMED_UNIT ( * ) SI_UNIT ( .MILLI., .METRE. ) );
#275 = PLANE ( 'NONE',  #282 ) ;
#276 = APPLICATION_PROTOCOL_DEFINITION ( 'international standard', 'config_control_design', 1994, #308 ) ;
#277 = DIRECTION ( 'NONE',  ( -0.0000000000000000000, 0.0000000000000000000, 1.000000000000000000 ) ) ;
#278 = APPROVAL ( #201, 'UNSPECIFIED' ) ;
#279 = CARTESIAN_POINT ( 'NONE',  ( 19.00000000000000700, -28.99999999999997900, -0.02000000000000000000 ) ) ;
#280 = CALENDAR_DATE ( 2016, 7, 6 ) ;
#281 = CARTESIAN_POINT ( 'NONE',  ( 0.0000000000000000000, 0.0000000000000000000, 0.02000000000000000000 ) ) ;
#282 = AXIS2_PLACEMENT_3D ( 'NONE', #105, #307, #133 ) ;
#283 = CARTESIAN_POINT ( 'NONE',  ( -19.00000000000000700, 29.00000000000001100, 0.02000000000000000000 ) ) ;
#284 = EDGE_LOOP ( 'NONE', ( #294, #45, #261, #238 ) ) ;
#285 = VERTEX_POINT ( 'NONE', #39 ) ;
#286 = APPROVAL ( #227, 'UNSPECIFIED' ) ;
#287 = CARTESIAN_POINT ( 'NONE',  ( -19.00000000000000000, -34.99999999999999300, -0.02000000000000000000 ) ) ;
#288 = DATE_AND_TIME ( #280, #41 ) ;
#289 = CIRCLE ( 'NONE', #82, 6.000000000000000000 ) ;
#290 = APPROVAL_STATUS ( 'not_yet_approved' ) ;
#291 = ORIENTED_EDGE ( 'NONE', *, *, #111, .F. ) ;
#292 = COORDINATED_UNIVERSAL_TIME_OFFSET ( 9, 0, .AHEAD. ) ;
#293 = LINE ( 'NONE', #223, #272 ) ;
#294 = ORIENTED_EDGE ( 'NONE', *, *, #323, .F. ) ;
#295 = SECURITY_CLASSIFICATION ( '', '', #355 ) ;
#296 = ADVANCED_FACE ( 'NONE', ( #192 ), #125, .T. ) ;
#297 = CALENDAR_DATE ( 2016, 7, 6 ) ;
#298 = PRODUCT_DEFINITION_SHAPE ( 'NONE', 'NONE',  #268 ) ;
#299 = LOCAL_TIME ( 20, 17, 38.00000000000000000, #140 ) ;
#300 = CIRCLE ( 'NONE', #158, 6.000000000000000000 ) ;
#301 = CC_DESIGN_PERSON_AND_ORGANIZATION_ASSIGNMENT ( #11, #372, ( #128 ) ) ;
#302 = ORIENTED_EDGE ( 'NONE', *, *, #264, .F. ) ;
#303 = DATE_AND_TIME ( #48, #299 ) ;
#304 = EDGE_LOOP ( 'NONE', ( #326, #114, #86, #244, #203, #154, #174, #229 ) ) ;
#305 = FACE_OUTER_BOUND ( 'NONE', #165, .T. ) ;
#306 = CARTESIAN_POINT ( 'NONE',  ( 24.99999999999999600, 29.00000000000001100, -0.02000000000000000000 ) ) ;
#307 = DIRECTION ( 'NONE',  ( 1.000000000000000000, 9.912705577010328000E-017, -0.0000000000000000000 ) ) ;
#308 = APPLICATION_CONTEXT ( 'configuration controlled 3d designs of mechanical parts and assemblies' ) ;
#309 = CIRCLE ( 'NONE', #177, 6.000000000000001800 ) ;
#310 = CARTESIAN_POINT ( 'NONE',  ( -25.00000000000000400, 35.00000000000000700, 0.02000000000000000000 ) ) ;
#311 = FACE_OUTER_BOUND ( 'NONE', #178, .T. ) ;
#312 = VERTEX_POINT ( 'NONE', #96 ) ;
#313 = DIRECTION ( 'NONE',  ( 1.000000000000000000, 0.0000000000000000000, 0.0000000000000000000 ) ) ;
#314 = CC_DESIGN_APPROVAL ( #286, ( #268 ) ) ;
#315 = EDGE_CURVE ( 'NONE', #247, #173, #179, .T. ) ;
#316 = DIRECTION ( 'NONE',  ( -0.0000000000000000000, 0.0000000000000000000, 1.000000000000000000 ) ) ;
#317 = ORIENTED_EDGE ( 'NONE', *, *, #181, .F. ) ;
#318 = CIRCLE ( 'NONE', #167, 6.000000000000000000 ) ;
#319 = LINE ( 'NONE', #250, #50 ) ;
#320 = CC_DESIGN_PERSON_AND_ORGANIZATION_ASSIGNMENT ( #183, #147, ( #255 ) ) ;
#321 = COORDINATED_UNIVERSAL_TIME_OFFSET ( 9, 0, .AHEAD. ) ;
#322 = DIRECTION ( 'NONE',  ( 9.912705577010325500E-017, -1.000000000000000000, 0.0000000000000000000 ) ) ;
#323 = EDGE_CURVE ( 'NONE', #247, #226, #231, .T. ) ;
#324 = PERSON_AND_ORGANIZATION_ROLE ( 'creator' ) ;
#325 = VECTOR ( 'NONE', #53, 1000.000000000000000 ) ;
#326 = ORIENTED_EDGE ( 'NONE', *, *, #253, .T. ) ;
#327 = PERSON_AND_ORGANIZATION ( #29, #160 ) ;
#328 = ORIENTED_EDGE ( 'NONE', *, *, #181, .T. ) ;
#329 = AXIS2_PLACEMENT_3D ( 'NONE', #269, #17, #215 ) ;
#330 = CC_DESIGN_DATE_AND_TIME_ASSIGNMENT ( #360, #88, ( #268 ) ) ;
#331 = VERTEX_POINT ( 'NONE', #40 ) ;
#332 = VECTOR ( 'NONE', #69, 1000.000000000000000 ) ;
#333 = LINE ( 'NONE', #71, #325 ) ;
#334 = CARTESIAN_POINT ( 'NONE',  ( -24.99999999999999600, -34.99999999999999300, -0.02000000000000000000 ) ) ;
#335 = EDGE_CURVE ( 'NONE', #173, #312, #204, .T. ) ;
#336 = ORIENTED_EDGE ( 'NONE', *, *, #13, .T. ) ;
#337 = VERTEX_POINT ( 'NONE', #207 ) ;
#338 = ORIENTED_EDGE ( 'NONE', *, *, #264, .T. ) ;
#339 = APPROVAL ( #290, 'UNSPECIFIED' ) ;
#340 = ORIENTED_EDGE ( 'NONE', *, *, #68, .T. ) ;
#341 = ORIENTED_EDGE ( 'NONE', *, *, #217, .T. ) ;
#342 = DIRECTION ( 'NONE',  ( 1.000000000000000000, 0.0000000000000000000, 0.0000000000000000000 ) ) ;
#343 = DIRECTION ( 'NONE',  ( 0.0000000000000000000, -0.0000000000000000000, -1.000000000000000000 ) ) ;
#344 = EDGE_CURVE ( 'NONE', #331, #166, #257, .T. ) ;
#345 = CARTESIAN_POINT ( 'NONE',  ( 18.99999999999999300, 29.00000000000001100, 0.02000000000000000000 ) ) ;
#346 = PERSON_AND_ORGANIZATION ( #29, #160 ) ;
#347 = VERTEX_POINT ( 'NONE', #169 ) ;
#348 = DIRECTION ( 'NONE',  ( 0.0000000000000000000, -0.0000000000000000000, -1.000000000000000000 ) ) ;
#349 = AXIS2_PLACEMENT_3D ( 'NONE', #129, #42, #100 ) ;
#350 = CC_DESIGN_PERSON_AND_ORGANIZATION_ASSIGNMENT ( #327, #171, ( #295 ) ) ;
#351 = DIRECTION ( 'NONE',  ( 0.0000000000000000000, 0.0000000000000000000, -1.000000000000000000 ) ) ;
#352 = PERSON_AND_ORGANIZATION ( #29, #160 ) ;
#353 = VECTOR ( 'NONE', #162, 1000.000000000000000 ) ;
#354 = VECTOR ( 'NONE', #322, 1000.000000000000000 ) ;
#355 = SECURITY_CLASSIFICATION_LEVEL ( 'unclassified' ) ;
#356 = EDGE_CURVE ( 'NONE', #347, #20, #293, .T. ) ;
#357 = PRODUCT_RELATED_PRODUCT_CATEGORY ( 'detail', '', ( #128 ) ) ;
#358 = LINE ( 'NONE', #26, #14 ) ;
#359 = APPROVAL_PERSON_ORGANIZATION ( #230, #278, #35 ) ;
#360 = DATE_AND_TIME ( #259, #117 ) ;
#361 = DIRECTION ( 'NONE',  ( -1.000000000000000000, 0.0000000000000000000, 0.0000000000000000000 ) ) ;
#362 = CC_DESIGN_SECURITY_CLASSIFICATION ( #295, ( #255 ) ) ;
#363 = EDGE_CURVE ( 'NONE', #166, #337, #94, .T. ) ;
#364 = VECTOR ( 'NONE', #374, 1000.000000000000000 ) ;
#365 = ORIENTED_EDGE ( 'NONE', *, *, #237, .T. ) ;
#366 = EDGE_CURVE ( 'NONE', #150, #331, #300, .T. ) ;
#367 = APPROVAL_PERSON_ORGANIZATION ( #352, #286, #60 ) ;
#368 = DIRECTION ( 'NONE',  ( -0.0000000000000000000, 0.0000000000000000000, 1.000000000000000000 ) ) ;
#369 = CARTESIAN_POINT ( 'NONE',  ( 18.99999999999999300, 29.00000000000001100, -0.02000000000000000000 ) ) ;
#370 = CC_DESIGN_APPROVAL ( #339, ( #255 ) ) ;
#371 = ADVANCED_FACE ( 'NONE', ( #311 ), #170, .F. ) ;
#372 = PERSON_AND_ORGANIZATION_ROLE ( 'design_owner' ) ;
#373 = FACE_OUTER_BOUND ( 'NONE', #304, .T. ) ;
#374 = DIRECTION ( 'NONE',  ( 0.0000000000000000000, 0.0000000000000000000, -1.000000000000000000 ) ) ;
#375 = COORDINATED_UNIVERSAL_TIME_OFFSET ( 9, 0, .AHEAD. ) ;
#376 = EDGE_CURVE ( 'NONE', #285, #20, #309, .T. ) ;
#377 = VERTEX_POINT ( 'NONE', #132 ) ;
ENDSEC;
END-ISO-10303-21;
