ISO-10303-21;
HEADER;
FILE_DESCRIPTION (( 'STEP AP203' ),
    '1' );
FILE_NAME ('sone3D.STEP',
    '2013-08-05T09:03:58',
    ( '' ),
    ( '' ),
    'SwSTEP 2.0',
    'SolidWorks 2012',
    '' );
FILE_SCHEMA (( 'CONFIG_CONTROL_DESIGN' ));
ENDSEC;

DATA;
#1 = ORIENTED_EDGE ( 'NONE', *, *, #270, .F. ) ;
#2 = ORIENTED_EDGE ( 'NONE', *, *, #318, .F. ) ;
#3 = PLANE ( 'NONE',  #121 ) ;
#4 = DIRECTION ( 'NONE',  ( 1.000000000000000000, 0.0000000000000000000, 0.0000000000000000000 ) ) ;
#5 = DIRECTION ( 'NONE',  ( 0.0000000000000000000, 0.0000000000000000000, 1.000000000000000000 ) ) ;
#6 = CARTESIAN_POINT ( 'NONE',  ( -30.00000000000000400, 0.0000000000000000000, 1.500000000000000000 ) ) ;
#7 = DIRECTION ( 'NONE',  ( 1.000000000000000000, 0.0000000000000000000, 0.0000000000000000000 ) ) ;
#8 = DIRECTION ( 'NONE',  ( 0.0000000000000000000, 0.0000000000000000000, 1.000000000000000000 ) ) ;
#9 = DIRECTION ( 'NONE',  ( -0.9860132971832692400, -0.1666666666666668000, 0.0000000000000000000 ) ) ;
#10 = FACE_OUTER_BOUND ( 'NONE', #401, .T. ) ;
#11 = FACE_OUTER_BOUND ( 'NONE', #399, .T. ) ;
#12 = AXIS2_PLACEMENT_3D ( 'NONE', #98, #99, #100 ) ;
#13 = AXIS2_PLACEMENT_3D ( 'NONE', #176, #177, #178 ) ;
#14 = VECTOR ( 'NONE', #103, 1000.000000000000200 ) ;
#15 = FACE_BOUND ( 'NONE', #244, .T. ) ;
#16 = VECTOR ( 'NONE', #175, 1000.000000000000100 ) ;
#17 = CYLINDRICAL_SURFACE ( 'NONE', #24, 10.00000000000000000 ) ;
#18 = VECTOR ( 'NONE', #87, 999.9999999999998900 ) ;
#19 = FACE_OUTER_BOUND ( 'NONE', #403, .T. ) ;
#20 = VECTOR ( 'NONE', #74, 1000.000000000000000 ) ;
#21 = AXIS2_PLACEMENT_3D ( 'NONE', #78, #79, #80 ) ;
#22 = AXIS2_PLACEMENT_3D ( 'NONE', #105, #106, #107 ) ;
#23 = VECTOR ( 'NONE', #114, 1000.000000000000000 ) ;
#24 = AXIS2_PLACEMENT_3D ( 'NONE', #71, #75, #76 ) ;
#25 = VECTOR ( 'NONE', #97, 999.9999999999998900 ) ;
#26 = VECTOR ( 'NONE', #185, 1000.000000000000000 ) ;
#27 = AXIS2_PLACEMENT_3D ( 'NONE', #88, #92, #93 ) ;
#28 = VECTOR ( 'NONE', #181, 999.9999999999998900 ) ;
#29 = VECTOR ( 'NONE', #91, 1000.000000000000000 ) ;
#30 = FACE_OUTER_BOUND ( 'NONE', #397, .T. ) ;
#31 = VECTOR ( 'NONE', #110, 1000.000000000000000 ) ;
#32 = AXIS2_PLACEMENT_3D ( 'NONE', #186, #187, #188 ) ;
#33 = AXIS2_PLACEMENT_3D ( 'NONE', #82, #83, #84 ) ;
#34 = VECTOR ( 'NONE', #172, 1000.000000000000000 ) ;
#35 = FACE_OUTER_BOUND ( 'NONE', #248, .T. ) ;
#36 = CARTESIAN_POINT ( 'NONE',  ( -1.666666666666667400, 9.860132971832694400, 1.500000000000000000 ) ) ;
#37 = LINE ( 'NONE', #36, #122 ) ;
#38 = PERSON ( 'UNSPECIFIED', 'UNSPECIFIED', 'UNSPECIFIED', ('UNSPECIFIED'), ('UNSPECIFIED'), ('UNSPECIFIED') ) ;
#39 = UNCERTAINTY_MEASURE_WITH_UNIT (LENGTH_MEASURE( 1.000000000000000100E-005 ), #215, 'distance_accuracy_value', 'NONE');
#40 = ADVANCED_BREP_SHAPE_REPRESENTATION ( 'sone3D', ( #145, #168 ), #228 ) ;
#41 = APPLICATION_CONTEXT ( 'configuration controlled 3d designs of mechanical parts and assemblies' ) ;
#42 = APPLICATION_CONTEXT ( 'configuration controlled 3d designs of mechanical parts and assemblies' ) ;
#43 = LINE ( 'NONE', #44, #137 ) ;
#44 = CARTESIAN_POINT ( 'NONE',  ( -30.83333333333333600, -4.930066485916345400, 1.500000000000000000 ) ) ;
#45 = DIRECTION ( 'NONE',  ( 0.9860132971832692400, -0.1666666666666667400, 0.0000000000000000000 ) ) ;
#46 = CARTESIAN_POINT ( 'NONE',  ( -30.83333333333333600, -4.930066485916345400, 1.500000000000000000 ) ) ;
#47 = DIRECTION ( 'NONE',  ( 0.1666666666666667700, 0.9860132971832693500, -0.0000000000000000000 ) ) ;
#48 = DIRECTION ( 'NONE',  ( -0.9860132971832692400, 0.1666666666666667400, 0.0000000000000000000 ) ) ;
#49 = PLANE ( 'NONE',  #120 ) ;
#50 = CARTESIAN_POINT ( 'NONE',  ( 2.912829318400250000E-016, 5.656854249492377900, 1.500000000000000000 ) ) ;
#51 = DIRECTION ( 'NONE',  ( 0.7071067811865473500, -0.7071067811865477900, 0.0000000000000000000 ) ) ;
#52 = DIRECTION ( 'NONE',  ( 0.7071067811865477900, 0.7071067811865473500, 0.0000000000000000000 ) ) ;
#53 = CARTESIAN_POINT ( 'NONE',  ( -30.00000000000000400, 0.0000000000000000000, 1.500000000000000000 ) ) ;
#54 = DIRECTION ( 'NONE',  ( -0.0000000000000000000, -0.0000000000000000000, -1.000000000000000000 ) ) ;
#55 = DIRECTION ( 'NONE',  ( -1.000000000000000000, 0.0000000000000000000, 0.0000000000000000000 ) ) ;
#56 = LINE ( 'NONE', #57, #133 ) ;
#57 = CARTESIAN_POINT ( 'NONE',  ( -30.83333333333333600, -4.930066485916345400, 0.0000000000000000000 ) ) ;
#58 = DIRECTION ( 'NONE',  ( 0.9860132971832692400, -0.1666666666666667400, 0.0000000000000000000 ) ) ;
#59 = CARTESIAN_POINT ( 'NONE',  ( -30.00000000000000400, 0.0000000000000000000, 1.500000000000000000 ) ) ;
#60 = DIRECTION ( 'NONE',  ( -0.0000000000000000000, -0.0000000000000000000, -1.000000000000000000 ) ) ;
#61 = DIRECTION ( 'NONE',  ( -1.000000000000000000, 0.0000000000000000000, 0.0000000000000000000 ) ) ;
#62 = LINE ( 'NONE', #63, #118 ) ;
#63 = CARTESIAN_POINT ( 'NONE',  ( 2.912829318400250000E-016, 5.656854249492377900, 1.500000000000000000 ) ) ;
#64 = DIRECTION ( 'NONE',  ( -0.0000000000000000000, -0.0000000000000000000, -1.000000000000000000 ) ) ;
#65 = CARTESIAN_POINT ( 'NONE',  ( -30.00000000000000400, 0.0000000000000000000, 0.0000000000000000000 ) ) ;
#66 = LINE ( 'NONE', #67, #132 ) ;
#67 = CARTESIAN_POINT ( 'NONE',  ( 5.656854249492378800, -3.775924206341965300E-015, 0.0000000000000000000 ) ) ;
#68 = DIRECTION ( 'NONE',  ( -0.7071067811865473500, 0.7071067811865476800, 0.0000000000000000000 ) ) ;
#69 = DIRECTION ( 'NONE',  ( 0.0000000000000000000, 0.0000000000000000000, 1.000000000000000000 ) ) ;
#70 = DIRECTION ( 'NONE',  ( 1.000000000000000000, 0.0000000000000000000, 0.0000000000000000000 ) ) ;
#71 = CARTESIAN_POINT ( 'NONE',  ( 0.0000000000000000000, 0.0000000000000000000, 1.500000000000000000 ) ) ;
#72 = LINE ( 'NONE', #73, #20 ) ;
#73 = CARTESIAN_POINT ( 'NONE',  ( -5.656854249492379700, 6.024538613726910000E-017, 1.500000000000000000 ) ) ;
#74 = DIRECTION ( 'NONE',  ( 0.7071067811865475700, -0.7071067811865474600, 0.0000000000000000000 ) ) ;
#75 = DIRECTION ( 'NONE',  ( -0.0000000000000000000, -0.0000000000000000000, -1.000000000000000000 ) ) ;
#76 = DIRECTION ( 'NONE',  ( -1.000000000000000000, 0.0000000000000000000, 0.0000000000000000000 ) ) ;
#77 = PLANE ( 'NONE',  #21 ) ;
#78 = CARTESIAN_POINT ( 'NONE',  ( 0.0000000000000000000, 0.0000000000000000000, 1.500000000000000000 ) ) ;
#79 = DIRECTION ( 'NONE',  ( 0.0000000000000000000, 0.0000000000000000000, 1.000000000000000000 ) ) ;
#80 = DIRECTION ( 'NONE',  ( 1.000000000000000000, 0.0000000000000000000, -0.0000000000000000000 ) ) ;
#81 = PLANE ( 'NONE',  #33 ) ;
#82 = CARTESIAN_POINT ( 'NONE',  ( 0.0000000000000000000, 0.0000000000000000000, 0.0000000000000000000 ) ) ;
#83 = DIRECTION ( 'NONE',  ( 0.0000000000000000000, 0.0000000000000000000, 1.000000000000000000 ) ) ;
#84 = DIRECTION ( 'NONE',  ( 1.000000000000000000, 0.0000000000000000000, -0.0000000000000000000 ) ) ;
#85 = LINE ( 'NONE', #86, #18 ) ;
#86 = CARTESIAN_POINT ( 'NONE',  ( 2.912829318400250000E-016, 5.656854249492377900, 1.500000000000000000 ) ) ;
#87 = DIRECTION ( 'NONE',  ( -0.7071067811865477900, -0.7071067811865473500, 0.0000000000000000000 ) ) ;
#88 = CARTESIAN_POINT ( 'NONE',  ( 0.0000000000000000000, 0.0000000000000000000, 0.0000000000000000000 ) ) ;
#89 = LINE ( 'NONE', #90, #29 ) ;
#90 = CARTESIAN_POINT ( 'NONE',  ( -5.656854249492379700, 6.024538613726910000E-017, 1.500000000000000000 ) ) ;
#91 = DIRECTION ( 'NONE',  ( -0.0000000000000000000, -0.0000000000000000000, -1.000000000000000000 ) ) ;
#92 = DIRECTION ( 'NONE',  ( 0.0000000000000000000, 0.0000000000000000000, 1.000000000000000000 ) ) ;
#93 = DIRECTION ( 'NONE',  ( 1.000000000000000000, 0.0000000000000000000, 0.0000000000000000000 ) ) ;
#94 = PLANE ( 'NONE',  #12 ) ;
#95 = LINE ( 'NONE', #96, #25 ) ;
#96 = CARTESIAN_POINT ( 'NONE',  ( -9.403577088048195000E-016, -5.656854249492378800, 1.500000000000000000 ) ) ;
#97 = DIRECTION ( 'NONE',  ( 0.7071067811865479100, 0.7071067811865472400, 0.0000000000000000000 ) ) ;
#98 = CARTESIAN_POINT ( 'NONE',  ( -1.666666666666667400, 9.860132971832694400, 1.500000000000000000 ) ) ;
#99 = DIRECTION ( 'NONE',  ( 0.1666666666666668000, -0.9860132971832693500, 0.0000000000000000000 ) ) ;
#100 = DIRECTION ( 'NONE',  ( 0.9860132971832692400, 0.1666666666666667700, 0.0000000000000000000 ) ) ;
#101 = LINE ( 'NONE', #102, #14 ) ;
#102 = CARTESIAN_POINT ( 'NONE',  ( -1.666666666666667400, 9.860132971832694400, 0.0000000000000000000 ) ) ;
#103 = DIRECTION ( 'NONE',  ( -0.9860132971832692400, -0.1666666666666668000, 0.0000000000000000000 ) ) ;
#104 = PLANE ( 'NONE',  #22 ) ;
#105 = CARTESIAN_POINT ( 'NONE',  ( -9.403577088048195000E-016, -5.656854249492378800, 1.500000000000000000 ) ) ;
#106 = DIRECTION ( 'NONE',  ( -0.7071067811865472400, 0.7071067811865479100, 0.0000000000000000000 ) ) ;
#107 = DIRECTION ( 'NONE',  ( -0.7071067811865479100, -0.7071067811865472400, 0.0000000000000000000 ) ) ;
#108 = LINE ( 'NONE', #109, #31 ) ;
#109 = CARTESIAN_POINT ( 'NONE',  ( -30.83333333333333600, 4.930066485916343700, 1.500000000000000000 ) ) ;
#110 = DIRECTION ( 'NONE',  ( -0.0000000000000000000, -0.0000000000000000000, -1.000000000000000000 ) ) ;
#111 = PLANE ( 'NONE',  #13 ) ;
#112 = LINE ( 'NONE', #113, #23 ) ;
#113 = CARTESIAN_POINT ( 'NONE',  ( -5.656854249492379700, 6.024538613726910000E-017, 0.0000000000000000000 ) ) ;
#114 = DIRECTION ( 'NONE',  ( 0.7071067811865475700, -0.7071067811865474600, 0.0000000000000000000 ) ) ;
#115 = PRODUCT ( 'sone3D', 'sone3D', '', ( #223 ) ) ;
#116 = VERTEX_POINT ( 'NONE', #400 ) ;
#117 = CYLINDRICAL_SURFACE ( 'NONE', #134, 5.000000000000000900 ) ;
#118 = VECTOR ( 'NONE', #64, 1000.000000000000000 ) ;
#119 = FACE_OUTER_BOUND ( 'NONE', #409, .T. ) ;
#120 = AXIS2_PLACEMENT_3D ( 'NONE', #50, #51, #52 ) ;
#121 = AXIS2_PLACEMENT_3D ( 'NONE', #46, #47, #48 ) ;
#122 = VECTOR ( 'NONE', #9, 1000.000000000000200 ) ;
#123 = FACE_BOUND ( 'NONE', #245, .T. ) ;
#124 = VECTOR ( 'NONE', #394, 1000.000000000000000 ) ;
#125 = VECTOR ( 'NONE', #412, 1000.000000000000000 ) ;
#126 = AXIS2_PLACEMENT_3D ( 'NONE', #396, #8, #7 ) ;
#127 = AXIS2_PLACEMENT_3D ( 'NONE', #65, #69, #70 ) ;
#128 = FACE_OUTER_BOUND ( 'NONE', #404, .T. ) ;
#129 = CLOSED_SHELL ( 'NONE', ( #286, #299, #300, #296, #306, #280, #273, #310, #319, #275, #316 ) ) ;
#130 = FACE_OUTER_BOUND ( 'NONE', #393, .T. ) ;
#131 = CYLINDRICAL_SURFACE ( 'NONE', #140, 5.000000000000000900 ) ;
#132 = VECTOR ( 'NONE', #68, 1000.000000000000100 ) ;
#133 = VECTOR ( 'NONE', #58, 1000.000000000000200 ) ;
#134 = AXIS2_PLACEMENT_3D ( 'NONE', #59, #60, #61 ) ;
#135 = AXIS2_PLACEMENT_3D ( 'NONE', #6, #5, #4 ) ;
#136 = AXIS2_PLACEMENT_3D ( 'NONE', #406, #411, #398 ) ;
#137 = VECTOR ( 'NONE', #45, 1000.000000000000200 ) ;
#138 = FACE_OUTER_BOUND ( 'NONE', #242, .T. ) ;
#139 = AXIS2_PLACEMENT_3D ( 'NONE', #391, #395, #402 ) ;
#140 = AXIS2_PLACEMENT_3D ( 'NONE', #53, #54, #55 ) ;
#141 = FACE_OUTER_BOUND ( 'NONE', #408, .T. ) ;
#142 = FACE_OUTER_BOUND ( 'NONE', #243, .T. ) ;
#143 = DESIGN_CONTEXT ( 'detailed design', #41, 'design' ) ;
#144 = PRODUCT_DEFINITION_SHAPE ( 'NONE', 'NONE',  #285 ) ;
#145 = MANIFOLD_SOLID_BREP ( 'ÎÞ½ - µoµ1', #129 ) ;
#146 = CALENDAR_DATE ( 2013, 5, 8 ) ;
#147 = PRODUCT_DEFINITION_FORMATION_WITH_SPECIFIED_SOURCE ( 'ANY', '', #115, .NOT_KNOWN. ) ;
#148 = COORDINATED_UNIVERSAL_TIME_OFFSET ( 9, 0, .AHEAD. ) ;
#149 = CC_DESIGN_APPROVAL ( #298, ( #147 ) ) ;
#150 = CALENDAR_DATE ( 2013, 5, 8 ) ;
#151 = COORDINATED_UNIVERSAL_TIME_OFFSET ( 9, 0, .AHEAD. ) ;
#152 = APPROVAL_PERSON_ORGANIZATION ( #227, #277, #365 ) ;
#153 = SECURITY_CLASSIFICATION ( '', '', #381 ) ;
#154 = COORDINATED_UNIVERSAL_TIME_OFFSET ( 9, 0, .AHEAD. ) ;
#155 = COORDINATED_UNIVERSAL_TIME_OFFSET ( 9, 0, .AHEAD. ) ;
#156 = APPROVAL_PERSON_ORGANIZATION ( #372, #298, #374 ) ;
#157 = CALENDAR_DATE ( 2013, 5, 8 ) ;
#158 = CALENDAR_DATE ( 2013, 5, 8 ) ;
#159 = CC_DESIGN_SECURITY_CLASSIFICATION ( #153, ( #147 ) ) ;
#160 = APPROVAL_PERSON_ORGANIZATION ( #386, #287, #388 ) ;
#161 = CC_DESIGN_APPROVAL ( #287, ( #153 ) ) ;
#162 = VECTOR ( 'NONE', #195, 1000.000000000000000 ) ;
#163 = ORGANIZATION ( 'UNSPECIFIED', 'UNSPECIFIED', '' ) ;
#164 = CC_DESIGN_APPROVAL ( #277, ( #285 ) ) ;
#165 = COORDINATED_UNIVERSAL_TIME_OFFSET ( 9, 0, .AHEAD. ) ;
#166 = CALENDAR_DATE ( 2013, 5, 8 ) ;
#167 = VECTOR ( 'NONE', #198, 1000.000000000000000 ) ;
#168 = AXIS2_PLACEMENT_3D ( 'NONE', #219, #220, #221 ) ;
#169 = VECTOR ( 'NONE', #191, 999.9999999999998900 ) ;
#170 = LINE ( 'NONE', #171, #34 ) ;
#171 = CARTESIAN_POINT ( 'NONE',  ( 5.656854249492378800, -3.775924206341965300E-015, 1.500000000000000000 ) ) ;
#172 = DIRECTION ( 'NONE',  ( -0.0000000000000000000, -0.0000000000000000000, -1.000000000000000000 ) ) ;
#173 = LINE ( 'NONE', #174, #16 ) ;
#174 = CARTESIAN_POINT ( 'NONE',  ( 5.656854249492378800, -3.775924206341965300E-015, 1.500000000000000000 ) ) ;
#175 = DIRECTION ( 'NONE',  ( -0.7071067811865473500, 0.7071067811865476800, 0.0000000000000000000 ) ) ;
#176 = CARTESIAN_POINT ( 'NONE',  ( -5.656854249492379700, 6.024538613726910000E-017, 1.500000000000000000 ) ) ;
#177 = DIRECTION ( 'NONE',  ( 0.7071067811865474600, 0.7071067811865475700, -0.0000000000000000000 ) ) ;
#178 = DIRECTION ( 'NONE',  ( -0.7071067811865475700, 0.7071067811865474600, 0.0000000000000000000 ) ) ;
#179 = LINE ( 'NONE', #180, #28 ) ;
#180 = CARTESIAN_POINT ( 'NONE',  ( -9.403577088048195000E-016, -5.656854249492378800, 0.0000000000000000000 ) ) ;
#181 = DIRECTION ( 'NONE',  ( 0.7071067811865479100, 0.7071067811865472400, 0.0000000000000000000 ) ) ;
#182 = PLANE ( 'NONE',  #32 ) ;
#183 = LINE ( 'NONE', #184, #26 ) ;
#184 = CARTESIAN_POINT ( 'NONE',  ( -1.666666666666666500, -9.860132971832694400, 1.500000000000000000 ) ) ;
#185 = DIRECTION ( 'NONE',  ( -0.0000000000000000000, -0.0000000000000000000, -1.000000000000000000 ) ) ;
#186 = CARTESIAN_POINT ( 'NONE',  ( 5.656854249492378800, -3.775924206341965300E-015, 1.500000000000000000 ) ) ;
#187 = DIRECTION ( 'NONE',  ( -0.7071067811865476800, -0.7071067811865474600, 0.0000000000000000000 ) ) ;
#188 = DIRECTION ( 'NONE',  ( 0.7071067811865474600, -0.7071067811865476800, 0.0000000000000000000 ) ) ;
#189 = LINE ( 'NONE', #190, #169 ) ;
#190 = CARTESIAN_POINT ( 'NONE',  ( 2.912829318400250000E-016, 5.656854249492377900, 0.0000000000000000000 ) ) ;
#191 = DIRECTION ( 'NONE',  ( -0.7071067811865477900, -0.7071067811865473500, 0.0000000000000000000 ) ) ;
#192 = CARTESIAN_POINT ( 'NONE',  ( -30.83333333333333600, 4.930066485916343700, 0.0000000000000000000 ) ) ;
#193 = LINE ( 'NONE', #194, #162 ) ;
#194 = CARTESIAN_POINT ( 'NONE',  ( -9.403577088048195000E-016, -5.656854249492378800, 1.500000000000000000 ) ) ;
#195 = DIRECTION ( 'NONE',  ( -0.0000000000000000000, -0.0000000000000000000, -1.000000000000000000 ) ) ;
#196 = LINE ( 'NONE', #197, #167 ) ;
#197 = CARTESIAN_POINT ( 'NONE',  ( -1.666666666666667400, 9.860132971832694400, 1.500000000000000000 ) ) ;
#198 = DIRECTION ( 'NONE',  ( -0.0000000000000000000, -0.0000000000000000000, -1.000000000000000000 ) ) ;
#199 = CARTESIAN_POINT ( 'NONE',  ( -1.666666666666666500, -9.860132971832694400, 0.0000000000000000000 ) ) ;
#200 = CARTESIAN_POINT ( 'NONE',  ( -30.83333333333333600, -4.930066485916345400, 1.500000000000000000 ) ) ;
#201 = CARTESIAN_POINT ( 'NONE',  ( -1.666666666666667400, 9.860132971832694400, 0.0000000000000000000 ) ) ;
#202 = CARTESIAN_POINT ( 'NONE',  ( -35.00000000000000000, 0.0000000000000000000, 1.500000000000000000 ) ) ;
#203 = CARTESIAN_POINT ( 'NONE',  ( -1.666666666666667400, 9.860132971832694400, 1.500000000000000000 ) ) ;
#204 = CARTESIAN_POINT ( 'NONE',  ( 5.656854249492378800, -3.775924206341965300E-015, 0.0000000000000000000 ) ) ;
#205 = CARTESIAN_POINT ( 'NONE',  ( -9.403577088048195000E-016, -5.656854249492378800, 1.500000000000000000 ) ) ;
#206 = CARTESIAN_POINT ( 'NONE',  ( -8.673617379884035500E-016, -5.656854249492377900, 0.0000000000000000000 ) ) ;
#207 = CARTESIAN_POINT ( 'NONE',  ( -30.83333333333333600, 4.930066485916343700, 1.500000000000000000 ) ) ;
#208 = CARTESIAN_POINT ( 'NONE',  ( -30.83333333333333600, -4.930066485916345400, 0.0000000000000000000 ) ) ;
#209 = CARTESIAN_POINT ( 'NONE',  ( -5.656854249492379700, 6.024538613726910000E-017, 0.0000000000000000000 ) ) ;
#210 = CARTESIAN_POINT ( 'NONE',  ( -5.656854249492378800, 4.336808689942017700E-016, 1.500000000000000000 ) ) ;
#211 = CARTESIAN_POINT ( 'NONE',  ( 5.656854249492378800, -3.775924206341965300E-015, 1.500000000000000000 ) ) ;
#212 = CARTESIAN_POINT ( 'NONE',  ( 2.912829318400250000E-016, 5.656854249492377900, 1.500000000000000000 ) ) ;
#213 = CARTESIAN_POINT ( 'NONE',  ( -35.00000000000000000, 0.0000000000000000000, 0.0000000000000000000 ) ) ;
#214 = CARTESIAN_POINT ( 'NONE',  ( -1.666666666666666500, -9.860132971832694400, 1.500000000000000000 ) ) ;
#215 =( LENGTH_UNIT ( ) NAMED_UNIT ( * ) SI_UNIT ( .MILLI., .METRE. ) );
#216 =( NAMED_UNIT ( * ) PLANE_ANGLE_UNIT ( ) SI_UNIT ( $, .RADIAN. ) );
#217 =( NAMED_UNIT ( * ) SI_UNIT ( $, .STERADIAN. ) SOLID_ANGLE_UNIT ( ) );
#218 = APPLICATION_PROTOCOL_DEFINITION ( 'international standard', 'config_control_design', 1994, #42 ) ;
#219 = CARTESIAN_POINT ( 'NONE',  ( 0.0000000000000000000, 0.0000000000000000000, 0.0000000000000000000 ) ) ;
#220 = DIRECTION ( 'NONE',  ( 0.0000000000000000000, 0.0000000000000000000, 1.000000000000000000 ) ) ;
#221 = DIRECTION ( 'NONE',  ( 1.000000000000000000, 0.0000000000000000000, 0.0000000000000000000 ) ) ;
#222 = SHAPE_DEFINITION_REPRESENTATION ( #144, #40 ) ;
#223 = MECHANICAL_CONTEXT ( 'NONE', #42, 'mechanical' ) ;
#224 = PERSON_AND_ORGANIZATION ( #38, #163 ) ;
#225 = PERSON_AND_ORGANIZATION_ROLE ( 'design_owner' ) ;
#226 = APPLICATION_PROTOCOL_DEFINITION ( 'international standard', 'config_control_design', 1994, #41 ) ;
#227 = PERSON_AND_ORGANIZATION ( #38, #163 ) ;
#228 =( GEOMETRIC_REPRESENTATION_CONTEXT ( 3 ) GLOBAL_UNCERTAINTY_ASSIGNED_CONTEXT ( ( #39 ) ) GLOBAL_UNIT_ASSIGNED_CONTEXT ( ( #215, #216, #217 ) ) REPRESENTATION_CONTEXT ( 'NONE', 'WORKASPACE' ) );
#229 = ORIENTED_EDGE ( 'NONE', *, *, #307, .F. ) ;
#230 = ORIENTED_EDGE ( 'NONE', *, *, #302, .T. ) ;
#231 = ORIENTED_EDGE ( 'NONE', *, *, #301, .T. ) ;
#232 = ORIENTED_EDGE ( 'NONE', *, *, #317, .T. ) ;
#233 = ORIENTED_EDGE ( 'NONE', *, *, #292, .F. ) ;
#234 = ORIENTED_EDGE ( 'NONE', *, *, #313, .F. ) ;
#235 = ORIENTED_EDGE ( 'NONE', *, *, #303, .F. ) ;
#236 = ORIENTED_EDGE ( 'NONE', *, *, #283, .F. ) ;
#237 = ORIENTED_EDGE ( 'NONE', *, *, #289, .F. ) ;
#238 = ORIENTED_EDGE ( 'NONE', *, *, #321, .T. ) ;
#239 = ORIENTED_EDGE ( 'NONE', *, *, #293, .T. ) ;
#240 = ORIENTED_EDGE ( 'NONE', *, *, #302, .F. ) ;
#241 = ORIENTED_EDGE ( 'NONE', *, *, #320, .F. ) ;
#242 = EDGE_LOOP ( 'NONE', ( #338, #340, #339, #341, #342 ) ) ;
#243 = EDGE_LOOP ( 'NONE', ( #334, #336, #335, #337 ) ) ;
#244 = EDGE_LOOP ( 'NONE', ( #343, #345, #344, #346 ) ) ;
#245 = EDGE_LOOP ( 'NONE', ( #232, #258, #257, #259 ) ) ;
#246 = ORIENTED_EDGE ( 'NONE', *, *, #304, .T. ) ;
#247 = ORIENTED_EDGE ( 'NONE', *, *, #322, .F. ) ;
#248 = EDGE_LOOP ( 'NONE', ( #235, #236, #249, #233, #229 ) ) ;
#249 = ORIENTED_EDGE ( 'NONE', *, *, #265, .F. ) ;
#250 = ORIENTED_EDGE ( 'NONE', *, *, #314, .F. ) ;
#251 = ORIENTED_EDGE ( 'NONE', *, *, #290, .F. ) ;
#252 = ORIENTED_EDGE ( 'NONE', *, *, #289, .T. ) ;
#253 = ORIENTED_EDGE ( 'NONE', *, *, #314, .T. ) ;
#254 = ORIENTED_EDGE ( 'NONE', *, *, #321, .F. ) ;
#255 = ORIENTED_EDGE ( 'NONE', *, *, #317, .F. ) ;
#256 = ORIENTED_EDGE ( 'NONE', *, *, #315, .T. ) ;
#257 = ORIENTED_EDGE ( 'NONE', *, *, #320, .T. ) ;
#258 = ORIENTED_EDGE ( 'NONE', *, *, #290, .T. ) ;
#259 = ORIENTED_EDGE ( 'NONE', *, *, #313, .T. ) ;
#260 = ORIENTED_EDGE ( 'NONE', *, *, #303, .T. ) ;
#261 = ORIENTED_EDGE ( 'NONE', *, *, #268, .F. ) ;
#262 = EDGE_CURVE ( 'NONE', #351, #362, #407, .T. ) ;
#263 = CIRCLE ( 'NONE', #127, 4.999999999999997300 ) ;
#264 = EDGE_CURVE ( 'NONE', #351, #349, #297, .T. ) ;
#265 = EDGE_CURVE ( 'NONE', #362, #357, #281, .T. ) ;
#266 = EDGE_CURVE ( 'NONE', #349, #357, #410, .T. ) ;
#267 = EDGE_CURVE ( 'NONE', #352, #356, #37, .T. ) ;
#268 = EDGE_CURVE ( 'NONE', #363, #352, #312, .T. ) ;
#269 = EDGE_CURVE ( 'NONE', #356, #351, #276, .T. ) ;
#270 = EDGE_CURVE ( 'NONE', #349, #363, #43, .T. ) ;
#271 = LOCAL_TIME ( 18, 3, 58.00000000000000000, #148 ) ;
#272 = PRODUCT_RELATED_PRODUCT_CATEGORY ( 'detail', '', ( #115 ) ) ;
#273 = ADVANCED_FACE ( 'NONE', ( #130 ), #3, .F. ) ;
#274 = LOCAL_TIME ( 18, 3, 58.00000000000000000, #151 ) ;
#275 = ADVANCED_FACE ( 'NONE', ( #128 ), #49, .T. ) ;
#276 = CIRCLE ( 'NONE', #135, 4.999999999999997300 ) ;
#277 = APPROVAL ( #364, 'UNSPECIFIED' ) ;
#278 = CC_DESIGN_PERSON_AND_ORGANIZATION_ASSIGNMENT ( #368, #369, ( #285 ) ) ;
#279 = LOCAL_TIME ( 18, 3, 58.00000000000000000, #154 ) ;
#280 = ADVANCED_FACE ( 'NONE', ( #141 ), #131, .T. ) ;
#281 = CIRCLE ( 'NONE', #139, 4.999999999999997300 ) ;
#282 = CC_DESIGN_PERSON_AND_ORGANIZATION_ASSIGNMENT ( #379, #380, ( #147 ) ) ;
#283 = EDGE_CURVE ( 'NONE', #357, #348, #56, .T. ) ;
#284 = CC_DESIGN_DATE_AND_TIME_ASSIGNMENT ( #370, #371, ( #285 ) ) ;
#285 = PRODUCT_DEFINITION ( 'UNKNOWN', '', #147, #143 ) ;
#286 = ADVANCED_FACE ( 'NONE', ( #142 ), #117, .T. ) ;
#287 = APPROVAL ( #387, 'UNSPECIFIED' ) ;
#288 = CC_DESIGN_DATE_AND_TIME_ASSIGNMENT ( #384, #385, ( #153 ) ) ;
#289 = EDGE_CURVE ( 'NONE', #361, #116, #62, .T. ) ;
#290 = EDGE_CURVE ( 'NONE', #353, #116, #66, .T. ) ;
#291 = CC_DESIGN_PERSON_AND_ORGANIZATION_ASSIGNMENT ( #377, #378, ( #147 ) ) ;
#292 = EDGE_CURVE ( 'NONE', #347, #362, #263, .T. ) ;
#293 = EDGE_CURVE ( 'NONE', #359, #354, #72, .T. ) ;
#294 = LOCAL_TIME ( 18, 3, 58.00000000000000000, #165 ) ;
#295 = CC_DESIGN_PERSON_AND_ORGANIZATION_ASSIGNMENT ( #224, #225, ( #115 ) ) ;
#296 = ADVANCED_FACE ( 'NONE', ( #119 ), #17, .T. ) ;
#297 = CIRCLE ( 'NONE', #136, 4.999999999999997300 ) ;
#298 = APPROVAL ( #373, 'UNSPECIFIED' ) ;
#299 = ADVANCED_FACE ( 'NONE', ( #138, #15 ), #77, .T. ) ;
#300 = ADVANCED_FACE ( 'NONE', ( #35, #123 ), #81, .F. ) ;
#301 = EDGE_CURVE ( 'NONE', #361, #359, #85, .T. ) ;
#302 = EDGE_CURVE ( 'NONE', #359, #358, #89, .T. ) ;
#303 = EDGE_CURVE ( 'NONE', #348, #350, #308, .T. ) ;
#304 = EDGE_CURVE ( 'NONE', #354, #360, #95, .T. ) ;
#305 = LOCAL_TIME ( 18, 3, 58.00000000000000000, #155 ) ;
#306 = ADVANCED_FACE ( 'NONE', ( #11 ), #94, .F. ) ;
#307 = EDGE_CURVE ( 'NONE', #350, #347, #101, .T. ) ;
#308 = CIRCLE ( 'NONE', #27, 10.00000000000000000 ) ;
#309 = CC_DESIGN_PERSON_AND_ORGANIZATION_ASSIGNMENT ( #382, #383, ( #153 ) ) ;
#310 = ADVANCED_FACE ( 'NONE', ( #19 ), #104, .T. ) ;
#311 = EDGE_CURVE ( 'NONE', #356, #347, #108, .T. ) ;
#312 = CIRCLE ( 'NONE', #126, 10.00000000000000000 ) ;
#313 = EDGE_CURVE ( 'NONE', #358, #355, #112, .T. ) ;
#314 = EDGE_CURVE ( 'NONE', #360, #353, #170, .T. ) ;
#315 = EDGE_CURVE ( 'NONE', #360, #361, #173, .T. ) ;
#316 = ADVANCED_FACE ( 'NONE', ( #30 ), #111, .T. ) ;
#317 = EDGE_CURVE ( 'NONE', #355, #353, #179, .T. ) ;
#318 = EDGE_CURVE ( 'NONE', #363, #348, #183, .T. ) ;
#319 = ADVANCED_FACE ( 'NONE', ( #10 ), #182, .T. ) ;
#320 = EDGE_CURVE ( 'NONE', #116, #358, #189, .T. ) ;
#321 = EDGE_CURVE ( 'NONE', #354, #355, #193, .T. ) ;
#322 = EDGE_CURVE ( 'NONE', #352, #350, #196, .T. ) ;
#323 = ORIENTED_EDGE ( 'NONE', *, *, #267, .F. ) ;
#324 = ORIENTED_EDGE ( 'NONE', *, *, #318, .T. ) ;
#325 = ORIENTED_EDGE ( 'NONE', *, *, #307, .T. ) ;
#326 = ORIENTED_EDGE ( 'NONE', *, *, #311, .F. ) ;
#327 = ORIENTED_EDGE ( 'NONE', *, *, #292, .T. ) ;
#328 = ORIENTED_EDGE ( 'NONE', *, *, #322, .T. ) ;
#329 = ORIENTED_EDGE ( 'NONE', *, *, #262, .F. ) ;
#330 = ORIENTED_EDGE ( 'NONE', *, *, #269, .F. ) ;
#331 = ORIENTED_EDGE ( 'NONE', *, *, #311, .T. ) ;
#332 = ORIENTED_EDGE ( 'NONE', *, *, #266, .T. ) ;
#333 = ORIENTED_EDGE ( 'NONE', *, *, #283, .T. ) ;
#334 = ORIENTED_EDGE ( 'NONE', *, *, #264, .F. ) ;
#335 = ORIENTED_EDGE ( 'NONE', *, *, #265, .T. ) ;
#336 = ORIENTED_EDGE ( 'NONE', *, *, #262, .T. ) ;
#337 = ORIENTED_EDGE ( 'NONE', *, *, #266, .F. ) ;
#338 = ORIENTED_EDGE ( 'NONE', *, *, #268, .T. ) ;
#339 = ORIENTED_EDGE ( 'NONE', *, *, #269, .T. ) ;
#340 = ORIENTED_EDGE ( 'NONE', *, *, #267, .T. ) ;
#341 = ORIENTED_EDGE ( 'NONE', *, *, #264, .T. ) ;
#342 = ORIENTED_EDGE ( 'NONE', *, *, #270, .T. ) ;
#343 = ORIENTED_EDGE ( 'NONE', *, *, #315, .F. ) ;
#344 = ORIENTED_EDGE ( 'NONE', *, *, #293, .F. ) ;
#345 = ORIENTED_EDGE ( 'NONE', *, *, #304, .F. ) ;
#346 = ORIENTED_EDGE ( 'NONE', *, *, #301, .F. ) ;
#347 = VERTEX_POINT ( 'NONE', #192 ) ;
#348 = VERTEX_POINT ( 'NONE', #199 ) ;
#349 = VERTEX_POINT ( 'NONE', #200 ) ;
#350 = VERTEX_POINT ( 'NONE', #201 ) ;
#351 = VERTEX_POINT ( 'NONE', #202 ) ;
#352 = VERTEX_POINT ( 'NONE', #203 ) ;
#353 = VERTEX_POINT ( 'NONE', #204 ) ;
#354 = VERTEX_POINT ( 'NONE', #205 ) ;
#355 = VERTEX_POINT ( 'NONE', #206 ) ;
#356 = VERTEX_POINT ( 'NONE', #207 ) ;
#357 = VERTEX_POINT ( 'NONE', #208 ) ;
#358 = VERTEX_POINT ( 'NONE', #209 ) ;
#359 = VERTEX_POINT ( 'NONE', #210 ) ;
#360 = VERTEX_POINT ( 'NONE', #211 ) ;
#361 = VERTEX_POINT ( 'NONE', #212 ) ;
#362 = VERTEX_POINT ( 'NONE', #213 ) ;
#363 = VERTEX_POINT ( 'NONE', #214 ) ;
#364 = APPROVAL_STATUS ( 'not_yet_approved' ) ;
#365 = APPROVAL_ROLE ( '' ) ;
#366 = DATE_AND_TIME ( #157, #305 ) ;
#367 = APPROVAL_DATE_TIME ( #366, #277 ) ;
#368 = PERSON_AND_ORGANIZATION ( #38, #163 ) ;
#369 = PERSON_AND_ORGANIZATION_ROLE ( 'creator' ) ;
#370 = DATE_AND_TIME ( #150, #271 ) ;
#371 = DATE_TIME_ROLE ( 'creation_date' ) ;
#372 = PERSON_AND_ORGANIZATION ( #38, #163 ) ;
#373 = APPROVAL_STATUS ( 'not_yet_approved' ) ;
#374 = APPROVAL_ROLE ( '' ) ;
#375 = DATE_AND_TIME ( #146, #274 ) ;
#376 = APPROVAL_DATE_TIME ( #375, #298 ) ;
#377 = PERSON_AND_ORGANIZATION ( #38, #163 ) ;
#378 = PERSON_AND_ORGANIZATION_ROLE ( 'creator' ) ;
#379 = PERSON_AND_ORGANIZATION ( #38, #163 ) ;
#380 = PERSON_AND_ORGANIZATION_ROLE ( 'design_supplier' ) ;
#381 = SECURITY_CLASSIFICATION_LEVEL ( 'unclassified' ) ;
#382 = PERSON_AND_ORGANIZATION ( #38, #163 ) ;
#383 = PERSON_AND_ORGANIZATION_ROLE ( 'classification_officer' ) ;
#384 = DATE_AND_TIME ( #158, #279 ) ;
#385 = DATE_TIME_ROLE ( 'classification_date' ) ;
#386 = PERSON_AND_ORGANIZATION ( #38, #163 ) ;
#387 = APPROVAL_STATUS ( 'not_yet_approved' ) ;
#388 = APPROVAL_ROLE ( '' ) ;
#389 = DATE_AND_TIME ( #166, #294 ) ;
#390 = APPROVAL_DATE_TIME ( #389, #287 ) ;
#391 = CARTESIAN_POINT ( 'NONE',  ( -30.00000000000000400, 0.0000000000000000000, 0.0000000000000000000 ) ) ;
#392 = CARTESIAN_POINT ( 'NONE',  ( -30.83333333333333600, -4.930066485916345400, 1.500000000000000000 ) ) ;
#393 = EDGE_LOOP ( 'NONE', ( #333, #2, #1, #332 ) ) ;
#394 = DIRECTION ( 'NONE',  ( -0.0000000000000000000, -0.0000000000000000000, -1.000000000000000000 ) ) ;
#395 = DIRECTION ( 'NONE',  ( 0.0000000000000000000, 0.0000000000000000000, 1.000000000000000000 ) ) ;
#396 = CARTESIAN_POINT ( 'NONE',  ( 0.0000000000000000000, 0.0000000000000000000, 1.500000000000000000 ) ) ;
#397 = EDGE_LOOP ( 'NONE', ( #234, #240, #239, #238 ) ) ;
#398 = DIRECTION ( 'NONE',  ( 1.000000000000000000, 0.0000000000000000000, 0.0000000000000000000 ) ) ;
#399 = EDGE_LOOP ( 'NONE', ( #325, #326, #323, #328 ) ) ;
#400 = CARTESIAN_POINT ( 'NONE',  ( 2.912829318400250000E-016, 5.656854249492377900, 0.0000000000000000000 ) ) ;
#401 = EDGE_LOOP ( 'NONE', ( #251, #250, #256, #252 ) ) ;
#402 = DIRECTION ( 'NONE',  ( 1.000000000000000000, 0.0000000000000000000, 0.0000000000000000000 ) ) ;
#403 = EDGE_LOOP ( 'NONE', ( #255, #254, #246, #253 ) ) ;
#404 = EDGE_LOOP ( 'NONE', ( #241, #237, #231, #230 ) ) ;
#405 = CARTESIAN_POINT ( 'NONE',  ( -35.00000000000000000, 0.0000000000000000000, 1.500000000000000000 ) ) ;
#406 = CARTESIAN_POINT ( 'NONE',  ( -30.00000000000000400, 0.0000000000000000000, 1.500000000000000000 ) ) ;
#407 = LINE ( 'NONE', #405, #124 ) ;
#408 = EDGE_LOOP ( 'NONE', ( #329, #330, #331, #327 ) ) ;
#409 = EDGE_LOOP ( 'NONE', ( #260, #247, #261, #324 ) ) ;
#410 = LINE ( 'NONE', #392, #125 ) ;
#411 = DIRECTION ( 'NONE',  ( 0.0000000000000000000, 0.0000000000000000000, 1.000000000000000000 ) ) ;
#412 = DIRECTION ( 'NONE',  ( -0.0000000000000000000, -0.0000000000000000000, -1.000000000000000000 ) ) ;
ENDSEC;
END-ISO-10303-21;
