ISO-10303-21;
HEADER;
FILE_DESCRIPTION (( 'STEP AP203' ),
    '1' );
FILE_NAME ('sone3D.STEP',
    '2013-08-05T09:03:35',
    ( '' ),
    ( '' ),
    'SwSTEP 2.0',
    'SolidWorks 2012',
    '' );
FILE_SCHEMA (( 'CONFIG_CONTROL_DESIGN' ));
ENDSEC;

DATA;
#1 = EDGE_LOOP ( 'NONE', ( #268, #269, #270, #266 ) ) ;
#2 = EDGE_LOOP ( 'NONE', ( #272, #273, #274, #271 ) ) ;
#3 = EDGE_LOOP ( 'NONE', ( #337, #343, #9, #342, #341 ) ) ;
#4 = EDGE_LOOP ( 'NONE', ( #350, #354, #349, #267 ) ) ;
#5 = EDGE_LOOP ( 'NONE', ( #344, #339, #340, #338 ) ) ;
#6 = EDGE_LOOP ( 'NONE', ( #255, #256, #257, #254 ) ) ;
#7 = EDGE_LOOP ( 'NONE', ( #263, #264, #265, #262 ) ) ;
#8 = EDGE_LOOP ( 'NONE', ( #278, #282, #281, #280, #279 ) ) ;
#9 = ORIENTED_EDGE ( 'NONE', *, *, #54, .F. ) ;
#10 = EDGE_LOOP ( 'NONE', ( #259, #260, #261, #258 ) ) ;
#11 = EDGE_LOOP ( 'NONE', ( #333, #335, #336, #334 ) ) ;
#12 = EDGE_LOOP ( 'NONE', ( #276, #252, #275, #253 ) ) ;
#13 = EDGE_LOOP ( 'NONE', ( #345, #347, #346, #348 ) ) ;
#14 = EDGE_LOOP ( 'NONE', ( #277, #351, #352, #353 ) ) ;
#15 = APPROVAL_ROLE ( '' ) ;
#16 = DATE_AND_TIME ( #172, #329 ) ;
#17 = APPROVAL_DATE_TIME ( #16, #324 ) ;
#18 = PERSON_AND_ORGANIZATION ( #99, #143 ) ;
#19 = PERSON_AND_ORGANIZATION_ROLE ( 'creator' ) ;
#20 = DATE_AND_TIME ( #178, #306 ) ;
#21 = DATE_TIME_ROLE ( 'creation_date' ) ;
#22 = PERSON_AND_ORGANIZATION ( #99, #143 ) ;
#23 = APPROVAL_STATUS ( 'not_yet_approved' ) ;
#24 = APPROVAL_ROLE ( '' ) ;
#25 = DATE_AND_TIME ( #163, #309 ) ;
#26 = APPROVAL_DATE_TIME ( #25, #308 ) ;
#27 = PERSON_AND_ORGANIZATION ( #99, #143 ) ;
#28 = PERSON_AND_ORGANIZATION_ROLE ( 'creator' ) ;
#29 = PERSON_AND_ORGANIZATION ( #99, #143 ) ;
#30 = PERSON_AND_ORGANIZATION_ROLE ( 'design_supplier' ) ;
#31 = SECURITY_CLASSIFICATION_LEVEL ( 'unclassified' ) ;
#32 = PERSON_AND_ORGANIZATION ( #99, #143 ) ;
#33 = PERSON_AND_ORGANIZATION_ROLE ( 'classification_officer' ) ;
#34 = DATE_AND_TIME ( #171, #313 ) ;
#35 = DATE_TIME_ROLE ( 'classification_date' ) ;
#36 = PERSON_AND_ORGANIZATION ( #99, #143 ) ;
#37 = APPROVAL_STATUS ( 'not_yet_approved' ) ;
#38 = APPROVAL_ROLE ( '' ) ;
#39 = DATE_AND_TIME ( #158, #316 ) ;
#40 = APPROVAL_DATE_TIME ( #39, #315 ) ;
#41 = LINE ( 'NONE', #103, #140 ) ;
#42 = EDGE_CURVE ( 'NONE', #356, #357, #283, .T. ) ;
#43 = EDGE_CURVE ( 'NONE', #357, #250, #320, .T. ) ;
#44 = ADVANCED_FACE ( 'NONE', ( #112 ), #289, .T. ) ;
#45 = EDGE_CURVE ( 'NONE', #363, #360, #293, .T. ) ;
#46 = EDGE_CURVE ( 'NONE', #243, #246, #297, .T. ) ;
#47 = EDGE_CURVE ( 'NONE', #247, #244, #299, .T. ) ;
#48 = EDGE_CURVE ( 'NONE', #362, #363, #302, .T. ) ;
#49 = EDGE_CURVE ( 'NONE', #244, #243, #41, .T. ) ;
#50 = EDGE_CURVE ( 'NONE', #248, #249, #184, .T. ) ;
#51 = EDGE_CURVE ( 'NONE', #249, #356, #322, .T. ) ;
#52 = CC_DESIGN_PERSON_AND_ORGANIZATION_ASSIGNMENT ( #18, #19, ( #327 ) ) ;
#53 = EDGE_CURVE ( 'NONE', #355, #249, #190, .T. ) ;
#54 = EDGE_CURVE ( 'NONE', #250, #248, #321, .T. ) ;
#55 = ADVANCED_FACE ( 'NONE', ( #124 ), #195, .F. ) ;
#56 = ADVANCED_FACE ( 'NONE', ( #133 ), #199, .T. ) ;
#57 = ADVANCED_FACE ( 'NONE', ( #126 ), #179, .T. ) ;
#58 = ADVANCED_FACE ( 'NONE', ( #170 ), #206, .T. ) ;
#59 = EDGE_CURVE ( 'NONE', #358, #356, #210, .T. ) ;
#60 = ADVANCED_FACE ( 'NONE', ( #177 ), #213, .T. ) ;
#61 = EDGE_CURVE ( 'NONE', #361, #362, #217, .T. ) ;
#62 = ADVANCED_FACE ( 'NONE', ( #139 ), #135, .T. ) ;
#63 = EDGE_CURVE ( 'NONE', #360, #361, #368, .T. ) ;
#64 = CARTESIAN_POINT ( 'NONE',  ( -8.673617379884035500E-016, -5.656854249492377900, 0.0000000000000000000 ) ) ;
#65 = CARTESIAN_POINT ( 'NONE',  ( 5.656854249492378800, -3.775924206341965300E-015, 0.0000000000000000000 ) ) ;
#66 = PLANE ( 'NONE',  #107 ) ;
#67 = CARTESIAN_POINT ( 'NONE',  ( 0.0000000000000000000, 0.0000000000000000000, 2.000000000000000000 ) ) ;
#68 = DIRECTION ( 'NONE',  ( 0.0000000000000000000, 0.0000000000000000000, 1.000000000000000000 ) ) ;
#69 = DIRECTION ( 'NONE',  ( 1.000000000000000000, 0.0000000000000000000, -0.0000000000000000000 ) ) ;
#70 = PLANE ( 'NONE',  #122 ) ;
#71 = CARTESIAN_POINT ( 'NONE',  ( 0.0000000000000000000, 0.0000000000000000000, 0.0000000000000000000 ) ) ;
#72 = DIRECTION ( 'NONE',  ( 0.0000000000000000000, 0.0000000000000000000, 1.000000000000000000 ) ) ;
#73 = DIRECTION ( 'NONE',  ( 1.000000000000000000, 0.0000000000000000000, -0.0000000000000000000 ) ) ;
#74 = LINE ( 'NONE', #75, #105 ) ;
#75 = CARTESIAN_POINT ( 'NONE',  ( -9.403577088048195000E-016, -5.656854249492378800, 2.000000000000000000 ) ) ;
#76 = DIRECTION ( 'NONE',  ( -0.0000000000000000000, -0.0000000000000000000, -1.000000000000000000 ) ) ;
#77 = CARTESIAN_POINT ( 'NONE',  ( -45.00000000000000700, 0.0000000000000000000, 2.000000000000000000 ) ) ;
#78 = LINE ( 'NONE', #79, #117 ) ;
#79 = CARTESIAN_POINT ( 'NONE',  ( 5.656854249492378800, -3.775924206341965300E-015, 2.000000000000000000 ) ) ;
#80 = DIRECTION ( 'NONE',  ( -0.0000000000000000000, -0.0000000000000000000, -1.000000000000000000 ) ) ;
#81 = LINE ( 'NONE', #82, #118 ) ;
#82 = CARTESIAN_POINT ( 'NONE',  ( 2.912829318400250000E-016, 5.656854249492377900, 2.000000000000000000 ) ) ;
#83 = DIRECTION ( 'NONE',  ( -0.0000000000000000000, -0.0000000000000000000, -1.000000000000000000 ) ) ;
#84 = LINE ( 'NONE', #85, #145 ) ;
#85 = CARTESIAN_POINT ( 'NONE',  ( -5.656854249492379700, 6.024538613726910000E-017, 2.000000000000000000 ) ) ;
#86 = DIRECTION ( 'NONE',  ( -0.0000000000000000000, -0.0000000000000000000, -1.000000000000000000 ) ) ;
#87 = LINE ( 'NONE', #88, #138 ) ;
#88 = CARTESIAN_POINT ( 'NONE',  ( -45.55555555555555700, 4.969039949999531000, 2.000000000000000000 ) ) ;
#89 = DIRECTION ( 'NONE',  ( -0.0000000000000000000, -0.0000000000000000000, -1.000000000000000000 ) ) ;
#90 = LINE ( 'NONE', #91, #116 ) ;
#91 = CARTESIAN_POINT ( 'NONE',  ( -50.00000000000000000, 0.0000000000000000000, 2.000000000000000000 ) ) ;
#92 = DIRECTION ( 'NONE',  ( -0.0000000000000000000, -0.0000000000000000000, -1.000000000000000000 ) ) ;
#93 = DIRECTION ( 'NONE',  ( 0.0000000000000000000, 0.0000000000000000000, 1.000000000000000000 ) ) ;
#94 = DIRECTION ( 'NONE',  ( 1.000000000000000000, 0.0000000000000000000, 0.0000000000000000000 ) ) ;
#95 = LINE ( 'NONE', #96, #106 ) ;
#96 = CARTESIAN_POINT ( 'NONE',  ( -45.55555555555555700, -4.969039949999531900, 2.000000000000000000 ) ) ;
#97 = DIRECTION ( 'NONE',  ( -0.0000000000000000000, -0.0000000000000000000, -1.000000000000000000 ) ) ;
#98 = LINE ( 'NONE', #219, #137 ) ;
#99 = PERSON ( 'UNSPECIFIED', 'UNSPECIFIED', 'UNSPECIFIED', ('UNSPECIFIED'), ('UNSPECIFIED'), ('UNSPECIFIED') ) ;
#100 = ADVANCED_BREP_SHAPE_REPRESENTATION ( 'sone3D', ( #332, #136 ), #180 ) ;
#101 = UNCERTAINTY_MEASURE_WITH_UNIT (LENGTH_MEASURE( 1.000000000000000100E-005 ), #227, 'distance_accuracy_value', 'NONE');
#102 = PRODUCT ( 'sone3D', 'sone3D', '', ( #235 ) ) ;
#103 = CARTESIAN_POINT ( 'NONE',  ( -5.656854249492379700, 6.024538613726910000E-017, 2.000000000000000000 ) ) ;
#104 = CC_DESIGN_APPROVAL ( #324, ( #327 ) ) ;
#105 = VECTOR ( 'NONE', #76, 1000.000000000000000 ) ;
#106 = VECTOR ( 'NONE', #97, 1000.000000000000000 ) ;
#107 = AXIS2_PLACEMENT_3D ( 'NONE', #67, #68, #69 ) ;
#108 = VECTOR ( 'NONE', #364, 1000.000000000000000 ) ;
#109 = AXIS2_PLACEMENT_3D ( 'NONE', #207, #208, #209 ) ;
#110 = AXIS2_PLACEMENT_3D ( 'NONE', #365, #366, #367 ) ;
#111 = AXIS2_PLACEMENT_3D ( 'NONE', #296, #187, #188 ) ;
#112 = FACE_OUTER_BOUND ( 'NONE', #6, .T. ) ;
#113 = VECTOR ( 'NONE', #192, 1000.000000000000000 ) ;
#114 = FACE_BOUND ( 'NONE', #5, .T. ) ;
#115 = FACE_OUTER_BOUND ( 'NONE', #3, .T. ) ;
#116 = VECTOR ( 'NONE', #92, 1000.000000000000000 ) ;
#117 = VECTOR ( 'NONE', #80, 1000.000000000000000 ) ;
#118 = VECTOR ( 'NONE', #83, 1000.000000000000000 ) ;
#119 = AXIS2_PLACEMENT_3D ( 'NONE', #387, #388, #389 ) ;
#120 = FACE_OUTER_BOUND ( 'NONE', #8, .T. ) ;
#121 = AXIS2_PLACEMENT_3D ( 'NONE', #286, #287, #288 ) ;
#122 = AXIS2_PLACEMENT_3D ( 'NONE', #71, #72, #73 ) ;
#123 = AXIS2_PLACEMENT_3D ( 'NONE', #200, #201, #202 ) ;
#124 = FACE_OUTER_BOUND ( 'NONE', #2, .T. ) ;
#125 = FACE_OUTER_BOUND ( 'NONE', #4, .T. ) ;
#126 = FACE_OUTER_BOUND ( 'NONE', #1, .T. ) ;
#127 = AXIS2_PLACEMENT_3D ( 'NONE', #189, #193, #194 ) ;
#128 = AXIS2_PLACEMENT_3D ( 'NONE', #371, #372, #373 ) ;
#129 = VECTOR ( 'NONE', #223, 1000.000000000000100 ) ;
#130 = AXIS2_PLACEMENT_3D ( 'NONE', #77, #93, #94 ) ;
#131 = VECTOR ( 'NONE', #295, 1000.000000000000100 ) ;
#132 = AXIS2_PLACEMENT_3D ( 'NONE', #214, #215, #216 ) ;
#133 = FACE_OUTER_BOUND ( 'NONE', #7, .T. ) ;
#134 = AXIS2_PLACEMENT_3D ( 'NONE', #375, #376, #377 ) ;
#135 = CYLINDRICAL_SURFACE ( 'NONE', #110, 4.999999999999997300 ) ;
#136 = AXIS2_PLACEMENT_3D ( 'NONE', #231, #232, #233 ) ;
#137 = VECTOR ( 'NONE', #220, 1000.000000000000100 ) ;
#138 = VECTOR ( 'NONE', #89, 1000.000000000000000 ) ;
#139 = FACE_OUTER_BOUND ( 'NONE', #14, .T. ) ;
#140 = VECTOR ( 'NONE', #183, 1000.000000000000000 ) ;
#141 = CC_DESIGN_APPROVAL ( #315, ( #161 ) ) ;
#142 = AXIS2_PLACEMENT_3D ( 'NONE', #390, #391, #392 ) ;
#143 = ORGANIZATION ( 'UNSPECIFIED', 'UNSPECIFIED', '' ) ;
#144 = AXIS2_PLACEMENT_3D ( 'NONE', #196, #197, #198 ) ;
#145 = VECTOR ( 'NONE', #86, 1000.000000000000000 ) ;
#146 = CC_DESIGN_SECURITY_CLASSIFICATION ( #161, ( #164 ) ) ;
#147 = VECTOR ( 'NONE', #370, 999.9999999999998900 ) ;
#148 = FACE_BOUND ( 'NONE', #11, .T. ) ;
#149 = VECTOR ( 'NONE', #212, 1000.000000000000000 ) ;
#150 = FACE_OUTER_BOUND ( 'NONE', #13, .T. ) ;
#151 = VECTOR ( 'NONE', #301, 999.9999999999998900 ) ;
#152 = VECTOR ( 'NONE', #186, 1000.000000000000100 ) ;
#153 = CLOSED_SHELL ( 'NONE', ( #62, #400, #401, #181, #182, #57, #55, #58, #44, #60, #56 ) ) ;
#154 = VECTOR ( 'NONE', #226, 1000.000000000000100 ) ;
#155 = CYLINDRICAL_SURFACE ( 'NONE', #128, 10.00000000000000000 ) ;
#156 = VECTOR ( 'NONE', #285, 1000.000000000000100 ) ;
#157 = AXIS2_PLACEMENT_3D ( 'NONE', #203, #204, #205 ) ;
#158 = CALENDAR_DATE ( 2013, 5, 8 ) ;
#159 = VECTOR ( 'NONE', #298, 999.9999999999998900 ) ;
#160 = VECTOR ( 'NONE', #305, 999.9999999999998900 ) ;
#161 = SECURITY_CLASSIFICATION ( '', '', #31 ) ;
#162 = CC_DESIGN_APPROVAL ( #308, ( #164 ) ) ;
#163 = CALENDAR_DATE ( 2013, 5, 8 ) ;
#164 = PRODUCT_DEFINITION_FORMATION_WITH_SPECIFIED_SOURCE ( 'ANY', '', #102, .NOT_KNOWN. ) ;
#165 = COORDINATED_UNIVERSAL_TIME_OFFSET ( 9, 0, .AHEAD. ) ;
#166 = APPROVAL_PERSON_ORGANIZATION ( #36, #315, #38 ) ;
#167 = COORDINATED_UNIVERSAL_TIME_OFFSET ( 9, 0, .AHEAD. ) ;
#168 = COORDINATED_UNIVERSAL_TIME_OFFSET ( 9, 0, .AHEAD. ) ;
#169 = COORDINATED_UNIVERSAL_TIME_OFFSET ( 9, 0, .AHEAD. ) ;
#170 = FACE_OUTER_BOUND ( 'NONE', #12, .T. ) ;
#171 = CALENDAR_DATE ( 2013, 5, 8 ) ;
#172 = CALENDAR_DATE ( 2013, 5, 8 ) ;
#173 = APPROVAL_PERSON_ORGANIZATION ( #22, #308, #24 ) ;
#174 = COORDINATED_UNIVERSAL_TIME_OFFSET ( 9, 0, .AHEAD. ) ;
#175 = APPROVAL_PERSON_ORGANIZATION ( #239, #324, #15 ) ;
#176 = AXIS2_PLACEMENT_3D ( 'NONE', #290, #291, #292 ) ;
#177 = FACE_OUTER_BOUND ( 'NONE', #10, .T. ) ;
#178 = CALENDAR_DATE ( 2013, 5, 8 ) ;
#179 = CYLINDRICAL_SURFACE ( 'NONE', #157, 4.999999999999997300 ) ;
#180 =( GEOMETRIC_REPRESENTATION_CONTEXT ( 3 ) GLOBAL_UNCERTAINTY_ASSIGNED_CONTEXT ( ( #101 ) ) GLOBAL_UNIT_ASSIGNED_CONTEXT ( ( #227, #228, #229 ) ) REPRESENTATION_CONTEXT ( 'NONE', 'WORKASPACE' ) );
#181 = ADVANCED_FACE ( 'NONE', ( #150 ), #155, .T. ) ;
#182 = ADVANCED_FACE ( 'NONE', ( #125 ), #374, .F. ) ;
#183 = DIRECTION ( 'NONE',  ( 0.7071067811865475700, -0.7071067811865474600, 0.0000000000000000000 ) ) ;
#184 = LINE ( 'NONE', #185, #152 ) ;
#185 = CARTESIAN_POINT ( 'NONE',  ( -45.55555555555555700, -4.969039949999531900, 0.0000000000000000000 ) ) ;
#186 = DIRECTION ( 'NONE',  ( 0.9938079899999064900, -0.1111111111111111600, 0.0000000000000000000 ) ) ;
#187 = DIRECTION ( 'NONE',  ( 0.0000000000000000000, 0.0000000000000000000, 1.000000000000000000 ) ) ;
#188 = DIRECTION ( 'NONE',  ( 1.000000000000000000, 0.0000000000000000000, 0.0000000000000000000 ) ) ;
#189 = CARTESIAN_POINT ( 'NONE',  ( -45.00000000000000700, 0.0000000000000000000, 0.0000000000000000000 ) ) ;
#190 = LINE ( 'NONE', #191, #113 ) ;
#191 = CARTESIAN_POINT ( 'NONE',  ( -1.111111111111111400, -9.938079899999067400, 2.000000000000000000 ) ) ;
#192 = DIRECTION ( 'NONE',  ( -0.0000000000000000000, -0.0000000000000000000, -1.000000000000000000 ) ) ;
#193 = DIRECTION ( 'NONE',  ( 0.0000000000000000000, 0.0000000000000000000, 1.000000000000000000 ) ) ;
#194 = DIRECTION ( 'NONE',  ( 1.000000000000000000, 0.0000000000000000000, 0.0000000000000000000 ) ) ;
#195 = PLANE ( 'NONE',  #144 ) ;
#196 = CARTESIAN_POINT ( 'NONE',  ( -45.55555555555555700, -4.969039949999531900, 2.000000000000000000 ) ) ;
#197 = DIRECTION ( 'NONE',  ( 0.1111111111111111600, 0.9938079899999066000, -0.0000000000000000000 ) ) ;
#198 = DIRECTION ( 'NONE',  ( -0.9938079899999066000, 0.1111111111111111600, 0.0000000000000000000 ) ) ;
#199 = PLANE ( 'NONE',  #123 ) ;
#200 = CARTESIAN_POINT ( 'NONE',  ( -5.656854249492379700, 6.024538613726910000E-017, 2.000000000000000000 ) ) ;
#201 = DIRECTION ( 'NONE',  ( 0.7071067811865474600, 0.7071067811865475700, -0.0000000000000000000 ) ) ;
#202 = DIRECTION ( 'NONE',  ( -0.7071067811865475700, 0.7071067811865474600, 0.0000000000000000000 ) ) ;
#203 = CARTESIAN_POINT ( 'NONE',  ( -45.00000000000000700, 0.0000000000000000000, 2.000000000000000000 ) ) ;
#204 = DIRECTION ( 'NONE',  ( -0.0000000000000000000, -0.0000000000000000000, -1.000000000000000000 ) ) ;
#205 = DIRECTION ( 'NONE',  ( -1.000000000000000000, 0.0000000000000000000, 0.0000000000000000000 ) ) ;
#206 = PLANE ( 'NONE',  #109 ) ;
#207 = CARTESIAN_POINT ( 'NONE',  ( -9.403577088048195000E-016, -5.656854249492378800, 2.000000000000000000 ) ) ;
#208 = DIRECTION ( 'NONE',  ( -0.7071067811865472400, 0.7071067811865479100, 0.0000000000000000000 ) ) ;
#209 = DIRECTION ( 'NONE',  ( -0.7071067811865479100, -0.7071067811865472400, 0.0000000000000000000 ) ) ;
#210 = LINE ( 'NONE', #211, #149 ) ;
#211 = CARTESIAN_POINT ( 'NONE',  ( -1.111111111111111800, 9.938079899999063800, 2.000000000000000000 ) ) ;
#212 = DIRECTION ( 'NONE',  ( -0.0000000000000000000, -0.0000000000000000000, -1.000000000000000000 ) ) ;
#213 = PLANE ( 'NONE',  #132 ) ;
#214 = CARTESIAN_POINT ( 'NONE',  ( 2.912829318400250000E-016, 5.656854249492377900, 2.000000000000000000 ) ) ;
#215 = DIRECTION ( 'NONE',  ( 0.7071067811865473500, -0.7071067811865477900, 0.0000000000000000000 ) ) ;
#216 = DIRECTION ( 'NONE',  ( 0.7071067811865477900, 0.7071067811865473500, 0.0000000000000000000 ) ) ;
#217 = LINE ( 'NONE', #218, #108 ) ;
#218 = CARTESIAN_POINT ( 'NONE',  ( -5.656854249492379700, 6.024538613726910000E-017, 0.0000000000000000000 ) ) ;
#219 = CARTESIAN_POINT ( 'NONE',  ( -1.111111111111111800, 9.938079899999063800, 2.000000000000000000 ) ) ;
#220 = DIRECTION ( 'NONE',  ( -0.9938079899999064900, -0.1111111111111110900, 0.0000000000000000000 ) ) ;
#221 = LINE ( 'NONE', #222, #129 ) ;
#222 = CARTESIAN_POINT ( 'NONE',  ( 5.656854249492378800, -3.775924206341965300E-015, 2.000000000000000000 ) ) ;
#223 = DIRECTION ( 'NONE',  ( -0.7071067811865473500, 0.7071067811865476800, 0.0000000000000000000 ) ) ;
#224 = LINE ( 'NONE', #225, #154 ) ;
#225 = CARTESIAN_POINT ( 'NONE',  ( -45.55555555555555700, -4.969039949999531900, 2.000000000000000000 ) ) ;
#226 = DIRECTION ( 'NONE',  ( 0.9938079899999064900, -0.1111111111111111600, 0.0000000000000000000 ) ) ;
#227 =( LENGTH_UNIT ( ) NAMED_UNIT ( * ) SI_UNIT ( .MILLI., .METRE. ) );
#228 =( NAMED_UNIT ( * ) PLANE_ANGLE_UNIT ( ) SI_UNIT ( $, .RADIAN. ) );
#229 =( NAMED_UNIT ( * ) SI_UNIT ( $, .STERADIAN. ) SOLID_ANGLE_UNIT ( ) );
#230 = APPLICATION_PROTOCOL_DEFINITION ( 'international standard', 'config_control_design', 1994, #331 ) ;
#231 = CARTESIAN_POINT ( 'NONE',  ( 0.0000000000000000000, 0.0000000000000000000, 0.0000000000000000000 ) ) ;
#232 = DIRECTION ( 'NONE',  ( 0.0000000000000000000, 0.0000000000000000000, 1.000000000000000000 ) ) ;
#233 = DIRECTION ( 'NONE',  ( 1.000000000000000000, 0.0000000000000000000, 0.0000000000000000000 ) ) ;
#234 = SHAPE_DEFINITION_REPRESENTATION ( #242, #100 ) ;
#235 = MECHANICAL_CONTEXT ( 'NONE', #331, 'mechanical' ) ;
#236 = PERSON_AND_ORGANIZATION ( #99, #143 ) ;
#237 = PERSON_AND_ORGANIZATION_ROLE ( 'design_owner' ) ;
#238 = APPLICATION_PROTOCOL_DEFINITION ( 'international standard', 'config_control_design', 1994, #330 ) ;
#239 = PERSON_AND_ORGANIZATION ( #99, #143 ) ;
#240 = APPROVAL_STATUS ( 'not_yet_approved' ) ;
#241 = DESIGN_CONTEXT ( 'detailed design', #330, 'design' ) ;
#242 = PRODUCT_DEFINITION_SHAPE ( 'NONE', 'NONE',  #327 ) ;
#243 = VERTEX_POINT ( 'NONE', #378 ) ;
#244 = VERTEX_POINT ( 'NONE', #379 ) ;
#245 = VERTEX_POINT ( 'NONE', #380 ) ;
#246 = VERTEX_POINT ( 'NONE', #381 ) ;
#247 = VERTEX_POINT ( 'NONE', #382 ) ;
#248 = VERTEX_POINT ( 'NONE', #383 ) ;
#249 = VERTEX_POINT ( 'NONE', #384 ) ;
#250 = VERTEX_POINT ( 'NONE', #385 ) ;
#251 = VERTEX_POINT ( 'NONE', #386 ) ;
#252 = ORIENTED_EDGE ( 'NONE', *, *, #402, .F. ) ;
#253 = ORIENTED_EDGE ( 'NONE', *, *, #403, .T. ) ;
#254 = ORIENTED_EDGE ( 'NONE', *, *, #404, .T. ) ;
#255 = ORIENTED_EDGE ( 'NONE', *, *, #45, .F. ) ;
#256 = ORIENTED_EDGE ( 'NONE', *, *, #403, .F. ) ;
#257 = ORIENTED_EDGE ( 'NONE', *, *, #411, .T. ) ;
#258 = ORIENTED_EDGE ( 'NONE', *, *, #405, .T. ) ;
#259 = ORIENTED_EDGE ( 'NONE', *, *, #63, .F. ) ;
#260 = ORIENTED_EDGE ( 'NONE', *, *, #404, .F. ) ;
#261 = ORIENTED_EDGE ( 'NONE', *, *, #47, .T. ) ;
#262 = ORIENTED_EDGE ( 'NONE', *, *, #402, .T. ) ;
#263 = ORIENTED_EDGE ( 'NONE', *, *, #61, .F. ) ;
#264 = ORIENTED_EDGE ( 'NONE', *, *, #405, .F. ) ;
#265 = ORIENTED_EDGE ( 'NONE', *, *, #49, .T. ) ;
#266 = ORIENTED_EDGE ( 'NONE', *, *, #43, .T. ) ;
#267 = ORIENTED_EDGE ( 'NONE', *, *, #59, .T. ) ;
#268 = ORIENTED_EDGE ( 'NONE', *, *, #407, .F. ) ;
#269 = ORIENTED_EDGE ( 'NONE', *, *, #318, .F. ) ;
#270 = ORIENTED_EDGE ( 'NONE', *, *, #406, .T. ) ;
#271 = ORIENTED_EDGE ( 'NONE', *, *, #409, .T. ) ;
#272 = ORIENTED_EDGE ( 'NONE', *, *, #50, .T. ) ;
#273 = ORIENTED_EDGE ( 'NONE', *, *, #53, .F. ) ;
#274 = ORIENTED_EDGE ( 'NONE', *, *, #412, .F. ) ;
#275 = ORIENTED_EDGE ( 'NONE', *, *, #46, .T. ) ;
#276 = ORIENTED_EDGE ( 'NONE', *, *, #48, .F. ) ;
#277 = ORIENTED_EDGE ( 'NONE', *, *, #408, .F. ) ;
#278 = ORIENTED_EDGE ( 'NONE', *, *, #319, .T. ) ;
#279 = ORIENTED_EDGE ( 'NONE', *, *, #412, .T. ) ;
#280 = ORIENTED_EDGE ( 'NONE', *, *, #408, .T. ) ;
#281 = ORIENTED_EDGE ( 'NONE', *, *, #318, .T. ) ;
#282 = ORIENTED_EDGE ( 'NONE', *, *, #410, .T. ) ;
#283 = LINE ( 'NONE', #284, #156 ) ;
#284 = CARTESIAN_POINT ( 'NONE',  ( -1.111111111111111800, 9.938079899999063800, 0.0000000000000000000 ) ) ;
#285 = DIRECTION ( 'NONE',  ( -0.9938079899999064900, -0.1111111111111110900, 0.0000000000000000000 ) ) ;
#286 = CARTESIAN_POINT ( 'NONE',  ( -45.00000000000000700, 0.0000000000000000000, 0.0000000000000000000 ) ) ;
#287 = DIRECTION ( 'NONE',  ( 0.0000000000000000000, 0.0000000000000000000, 1.000000000000000000 ) ) ;
#288 = DIRECTION ( 'NONE',  ( 1.000000000000000000, 0.0000000000000000000, 0.0000000000000000000 ) ) ;
#289 = PLANE ( 'NONE',  #176 ) ;
#290 = CARTESIAN_POINT ( 'NONE',  ( 5.656854249492378800, -3.775924206341965300E-015, 2.000000000000000000 ) ) ;
#291 = DIRECTION ( 'NONE',  ( -0.7071067811865477900, -0.7071067811865473500, 0.0000000000000000000 ) ) ;
#292 = DIRECTION ( 'NONE',  ( 0.7071067811865473500, -0.7071067811865477900, 0.0000000000000000000 ) ) ;
#293 = LINE ( 'NONE', #294, #131 ) ;
#294 = CARTESIAN_POINT ( 'NONE',  ( 5.656854249492378800, -3.775924206341965300E-015, 0.0000000000000000000 ) ) ;
#295 = DIRECTION ( 'NONE',  ( -0.7071067811865473500, 0.7071067811865476800, 0.0000000000000000000 ) ) ;
#296 = CARTESIAN_POINT ( 'NONE',  ( 0.0000000000000000000, 0.0000000000000000000, 0.0000000000000000000 ) ) ;
#297 = LINE ( 'NONE', #300, #151 ) ;
#298 = DIRECTION ( 'NONE',  ( -0.7071067811865477900, -0.7071067811865473500, 0.0000000000000000000 ) ) ;
#299 = LINE ( 'NONE', #304, #159 ) ;
#300 = CARTESIAN_POINT ( 'NONE',  ( -9.403577088048195000E-016, -5.656854249492378800, 2.000000000000000000 ) ) ;
#301 = DIRECTION ( 'NONE',  ( 0.7071067811865479100, 0.7071067811865472400, 0.0000000000000000000 ) ) ;
#302 = LINE ( 'NONE', #303, #160 ) ;
#303 = CARTESIAN_POINT ( 'NONE',  ( -9.403577088048195000E-016, -5.656854249492378800, 0.0000000000000000000 ) ) ;
#304 = CARTESIAN_POINT ( 'NONE',  ( 2.912829318400250000E-016, 5.656854249492377900, 2.000000000000000000 ) ) ;
#305 = DIRECTION ( 'NONE',  ( 0.7071067811865479100, 0.7071067811865472400, 0.0000000000000000000 ) ) ;
#306 = LOCAL_TIME ( 18, 3, 35.00000000000000000, #169 ) ;
#307 = CC_DESIGN_DATE_AND_TIME_ASSIGNMENT ( #20, #21, ( #327 ) ) ;
#308 = APPROVAL ( #23, 'UNSPECIFIED' ) ;
#309 = LOCAL_TIME ( 18, 3, 35.00000000000000000, #174 ) ;
#310 = CC_DESIGN_PERSON_AND_ORGANIZATION_ASSIGNMENT ( #27, #28, ( #164 ) ) ;
#311 = CC_DESIGN_PERSON_AND_ORGANIZATION_ASSIGNMENT ( #29, #30, ( #164 ) ) ;
#312 = CC_DESIGN_PERSON_AND_ORGANIZATION_ASSIGNMENT ( #32, #33, ( #161 ) ) ;
#313 = LOCAL_TIME ( 18, 3, 35.00000000000000000, #167 ) ;
#314 = CC_DESIGN_DATE_AND_TIME_ASSIGNMENT ( #34, #35, ( #161 ) ) ;
#315 = APPROVAL ( #37, 'UNSPECIFIED' ) ;
#316 = LOCAL_TIME ( 18, 3, 35.00000000000000000, #165 ) ;
#317 = PRODUCT_RELATED_PRODUCT_CATEGORY ( 'detail', '', ( #102 ) ) ;
#318 = EDGE_CURVE ( 'NONE', #251, #245, #323, .T. ) ;
#319 = EDGE_CURVE ( 'NONE', #355, #358, #326, .T. ) ;
#320 = CIRCLE ( 'NONE', #121, 4.999999999999997300 ) ;
#321 = CIRCLE ( 'NONE', #127, 4.999999999999997300 ) ;
#322 = CIRCLE ( 'NONE', #111, 10.00000000000000000 ) ;
#323 = CIRCLE ( 'NONE', #119, 4.999999999999997300 ) ;
#324 = APPROVAL ( #240, 'UNSPECIFIED' ) ;
#325 = CIRCLE ( 'NONE', #130, 4.999999999999997300 ) ;
#326 = CIRCLE ( 'NONE', #142, 10.00000000000000000 ) ;
#327 = PRODUCT_DEFINITION ( 'UNKNOWN', '', #164, #241 ) ;
#328 = CC_DESIGN_PERSON_AND_ORGANIZATION_ASSIGNMENT ( #236, #237, ( #102 ) ) ;
#329 = LOCAL_TIME ( 18, 3, 35.00000000000000000, #168 ) ;
#330 = APPLICATION_CONTEXT ( 'configuration controlled 3d designs of mechanical parts and assemblies' ) ;
#331 = APPLICATION_CONTEXT ( 'configuration controlled 3d designs of mechanical parts and assemblies' ) ;
#332 = MANIFOLD_SOLID_BREP ( 'ÎÞ½ - µoµ1', #153 ) ;
#333 = ORIENTED_EDGE ( 'NONE', *, *, #411, .F. ) ;
#334 = ORIENTED_EDGE ( 'NONE', *, *, #47, .F. ) ;
#335 = ORIENTED_EDGE ( 'NONE', *, *, #46, .F. ) ;
#336 = ORIENTED_EDGE ( 'NONE', *, *, #49, .F. ) ;
#337 = ORIENTED_EDGE ( 'NONE', *, *, #51, .F. ) ;
#338 = ORIENTED_EDGE ( 'NONE', *, *, #61, .T. ) ;
#339 = ORIENTED_EDGE ( 'NONE', *, *, #45, .T. ) ;
#340 = ORIENTED_EDGE ( 'NONE', *, *, #63, .T. ) ;
#341 = ORIENTED_EDGE ( 'NONE', *, *, #42, .F. ) ;
#342 = ORIENTED_EDGE ( 'NONE', *, *, #43, .F. ) ;
#343 = ORIENTED_EDGE ( 'NONE', *, *, #50, .F. ) ;
#344 = ORIENTED_EDGE ( 'NONE', *, *, #48, .T. ) ;
#345 = ORIENTED_EDGE ( 'NONE', *, *, #51, .T. ) ;
#346 = ORIENTED_EDGE ( 'NONE', *, *, #319, .F. ) ;
#347 = ORIENTED_EDGE ( 'NONE', *, *, #59, .F. ) ;
#348 = ORIENTED_EDGE ( 'NONE', *, *, #53, .T. ) ;
#349 = ORIENTED_EDGE ( 'NONE', *, *, #410, .F. ) ;
#350 = ORIENTED_EDGE ( 'NONE', *, *, #42, .T. ) ;
#351 = ORIENTED_EDGE ( 'NONE', *, *, #407, .T. ) ;
#352 = ORIENTED_EDGE ( 'NONE', *, *, #54, .T. ) ;
#353 = ORIENTED_EDGE ( 'NONE', *, *, #409, .F. ) ;
#354 = ORIENTED_EDGE ( 'NONE', *, *, #406, .F. ) ;
#355 = VERTEX_POINT ( 'NONE', #393 ) ;
#356 = VERTEX_POINT ( 'NONE', #394 ) ;
#357 = VERTEX_POINT ( 'NONE', #395 ) ;
#358 = VERTEX_POINT ( 'NONE', #396 ) ;
#359 = VERTEX_POINT ( 'NONE', #397 ) ;
#360 = VERTEX_POINT ( 'NONE', #398 ) ;
#361 = VERTEX_POINT ( 'NONE', #399 ) ;
#362 = VERTEX_POINT ( 'NONE', #64 ) ;
#363 = VERTEX_POINT ( 'NONE', #65 ) ;
#364 = DIRECTION ( 'NONE',  ( 0.7071067811865475700, -0.7071067811865474600, 0.0000000000000000000 ) ) ;
#365 = CARTESIAN_POINT ( 'NONE',  ( -45.00000000000000700, 0.0000000000000000000, 2.000000000000000000 ) ) ;
#366 = DIRECTION ( 'NONE',  ( -0.0000000000000000000, -0.0000000000000000000, -1.000000000000000000 ) ) ;
#367 = DIRECTION ( 'NONE',  ( -1.000000000000000000, 0.0000000000000000000, 0.0000000000000000000 ) ) ;
#368 = LINE ( 'NONE', #369, #147 ) ;
#369 = CARTESIAN_POINT ( 'NONE',  ( 2.912829318400250000E-016, 5.656854249492377900, 0.0000000000000000000 ) ) ;
#370 = DIRECTION ( 'NONE',  ( -0.7071067811865477900, -0.7071067811865473500, 0.0000000000000000000 ) ) ;
#371 = CARTESIAN_POINT ( 'NONE',  ( 0.0000000000000000000, 0.0000000000000000000, 2.000000000000000000 ) ) ;
#372 = DIRECTION ( 'NONE',  ( -0.0000000000000000000, -0.0000000000000000000, -1.000000000000000000 ) ) ;
#373 = DIRECTION ( 'NONE',  ( -1.000000000000000000, 0.0000000000000000000, 0.0000000000000000000 ) ) ;
#374 = PLANE ( 'NONE',  #134 ) ;
#375 = CARTESIAN_POINT ( 'NONE',  ( -1.111111111111111800, 9.938079899999063800, 2.000000000000000000 ) ) ;
#376 = DIRECTION ( 'NONE',  ( 0.1111111111111110900, -0.9938079899999066000, 0.0000000000000000000 ) ) ;
#377 = DIRECTION ( 'NONE',  ( 0.9938079899999066000, 0.1111111111111110900, 0.0000000000000000000 ) ) ;
#378 = CARTESIAN_POINT ( 'NONE',  ( -9.403577088048195000E-016, -5.656854249492378800, 2.000000000000000000 ) ) ;
#379 = CARTESIAN_POINT ( 'NONE',  ( -5.656854249492378800, 4.336808689942017700E-016, 2.000000000000000000 ) ) ;
#380 = CARTESIAN_POINT ( 'NONE',  ( -50.00000000000000000, 0.0000000000000000000, 2.000000000000000000 ) ) ;
#381 = CARTESIAN_POINT ( 'NONE',  ( 5.656854249492378800, -3.775924206341965300E-015, 2.000000000000000000 ) ) ;
#382 = CARTESIAN_POINT ( 'NONE',  ( 2.912829318400250000E-016, 5.656854249492377900, 2.000000000000000000 ) ) ;
#383 = CARTESIAN_POINT ( 'NONE',  ( -45.55555555555555700, -4.969039949999531900, 0.0000000000000000000 ) ) ;
#384 = CARTESIAN_POINT ( 'NONE',  ( -1.111111111111111400, -9.938079899999067400, 0.0000000000000000000 ) ) ;
#385 = CARTESIAN_POINT ( 'NONE',  ( -50.00000000000000000, 0.0000000000000000000, 0.0000000000000000000 ) ) ;
#386 = CARTESIAN_POINT ( 'NONE',  ( -45.55555555555555700, 4.969039949999531000, 2.000000000000000000 ) ) ;
#387 = CARTESIAN_POINT ( 'NONE',  ( -45.00000000000000700, 0.0000000000000000000, 2.000000000000000000 ) ) ;
#388 = DIRECTION ( 'NONE',  ( 0.0000000000000000000, 0.0000000000000000000, 1.000000000000000000 ) ) ;
#389 = DIRECTION ( 'NONE',  ( 1.000000000000000000, 0.0000000000000000000, 0.0000000000000000000 ) ) ;
#390 = CARTESIAN_POINT ( 'NONE',  ( 0.0000000000000000000, 0.0000000000000000000, 2.000000000000000000 ) ) ;
#391 = DIRECTION ( 'NONE',  ( 0.0000000000000000000, 0.0000000000000000000, 1.000000000000000000 ) ) ;
#392 = DIRECTION ( 'NONE',  ( 1.000000000000000000, 0.0000000000000000000, 0.0000000000000000000 ) ) ;
#393 = CARTESIAN_POINT ( 'NONE',  ( -1.111111111111111400, -9.938079899999067400, 2.000000000000000000 ) ) ;
#394 = CARTESIAN_POINT ( 'NONE',  ( -1.111111111111111800, 9.938079899999063800, 0.0000000000000000000 ) ) ;
#395 = CARTESIAN_POINT ( 'NONE',  ( -45.55555555555555700, 4.969039949999531000, 0.0000000000000000000 ) ) ;
#396 = CARTESIAN_POINT ( 'NONE',  ( -1.111111111111111800, 9.938079899999063800, 2.000000000000000000 ) ) ;
#397 = CARTESIAN_POINT ( 'NONE',  ( -45.55555555555555700, -4.969039949999531900, 2.000000000000000000 ) ) ;
#398 = CARTESIAN_POINT ( 'NONE',  ( 2.912829318400250000E-016, 5.656854249492377900, 0.0000000000000000000 ) ) ;
#399 = CARTESIAN_POINT ( 'NONE',  ( -5.656854249492379700, 6.024538613726910000E-017, 0.0000000000000000000 ) ) ;
#400 = ADVANCED_FACE ( 'NONE', ( #120, #148 ), #66, .T. ) ;
#401 = ADVANCED_FACE ( 'NONE', ( #115, #114 ), #70, .F. ) ;
#402 = EDGE_CURVE ( 'NONE', #243, #362, #74, .T. ) ;
#403 = EDGE_CURVE ( 'NONE', #246, #363, #78, .T. ) ;
#404 = EDGE_CURVE ( 'NONE', #247, #360, #81, .T. ) ;
#405 = EDGE_CURVE ( 'NONE', #244, #361, #84, .T. ) ;
#406 = EDGE_CURVE ( 'NONE', #251, #357, #87, .T. ) ;
#407 = EDGE_CURVE ( 'NONE', #245, #250, #90, .T. ) ;
#408 = EDGE_CURVE ( 'NONE', #245, #359, #325, .T. ) ;
#409 = EDGE_CURVE ( 'NONE', #359, #248, #95, .T. ) ;
#410 = EDGE_CURVE ( 'NONE', #358, #251, #98, .T. ) ;
#411 = EDGE_CURVE ( 'NONE', #246, #247, #221, .T. ) ;
#412 = EDGE_CURVE ( 'NONE', #359, #355, #224, .T. ) ;
ENDSEC;
END-ISO-10303-21;
