ISO-10303-21;
HEADER;
FILE_DESCRIPTION (( 'STEP AP203' ),
    '1' );
FILE_NAME ('sone3D.STEP',
    '2013-08-05T09:03:14',
    ( '' ),
    ( '' ),
    'SwSTEP 2.0',
    'SolidWorks 2012',
    '' );
FILE_SCHEMA (( 'CONFIG_CONTROL_DESIGN' ));
ENDSEC;

DATA;
#1 = EDGE_LOOP ( 'NONE', ( #265, #232, #212, #269 ) ) ;
#2 = EDGE_LOOP ( 'NONE', ( #246, #213, #264, #254 ) ) ;
#3 = EDGE_LOOP ( 'NONE', ( #234, #207, #235, #221 ) ) ;
#4 = EDGE_LOOP ( 'NONE', ( #229, #263, #236, #237 ) ) ;
#5 = EDGE_LOOP ( 'NONE', ( #257, #220, #238, #227 ) ) ;
#6 = EDGE_LOOP ( 'NONE', ( #244, #209, #247, #225 ) ) ;
#7 = EDGE_LOOP ( 'NONE', ( #248, #216, #262, #218 ) ) ;
#8 = EDGE_LOOP ( 'NONE', ( #13, #233, #17, #267 ) ) ;
#9 = EDGE_LOOP ( 'NONE', ( #219, #268, #240, #231, #226 ) ) ;
#10 = EDGE_LOOP ( 'NONE', ( #208, #15, #349, #16, #255 ) ) ;
#11 = EDGE_LOOP ( 'NONE', ( #251, #239, #261, #259 ) ) ;
#12 = EDGE_LOOP ( 'NONE', ( #230, #348, #347, #350 ) ) ;
#13 = ORIENTED_EDGE ( 'NONE', *, *, #27, .T. ) ;
#14 = EDGE_LOOP ( 'NONE', ( #228, #206, #224, #266 ) ) ;
#15 = ORIENTED_EDGE ( 'NONE', *, *, #409, .F. ) ;
#16 = ORIENTED_EDGE ( 'NONE', *, *, #26, .F. ) ;
#17 = ORIENTED_EDGE ( 'NONE', *, *, #25, .T. ) ;
#18 = EDGE_CURVE ( 'NONE', #214, #242, #351, .T. ) ;
#19 = CIRCLE ( 'NONE', #162, 5.000000000000004400 ) ;
#20 = EDGE_CURVE ( 'NONE', #241, #223, #355, .T. ) ;
#21 = EDGE_CURVE ( 'NONE', #215, #243, #358, .T. ) ;
#22 = EDGE_CURVE ( 'NONE', #256, #250, #361, .T. ) ;
#23 = EDGE_CURVE ( 'NONE', #258, #252, #295, .T. ) ;
#24 = EDGE_CURVE ( 'NONE', #258, #211, #19, .T. ) ;
#25 = EDGE_CURVE ( 'NONE', #250, #241, #301, .T. ) ;
#26 = EDGE_CURVE ( 'NONE', #245, #252, #283, .T. ) ;
#27 = EDGE_CURVE ( 'NONE', #223, #256, #307, .T. ) ;
#28 = EDGE_CURVE ( 'NONE', #243, #245, #310, .T. ) ;
#29 = EDGE_CURVE ( 'NONE', #252, #260, #284, .T. ) ;
#30 = ADVANCED_FACE ( 'NONE', ( #165, #168 ), #367, .F. ) ;
#31 = PERSON_AND_ORGANIZATION_ROLE ( 'creator' ) ;
#32 = DATE_AND_TIME ( #101, #293 ) ;
#33 = DATE_TIME_ROLE ( 'creation_date' ) ;
#34 = PERSON_AND_ORGANIZATION ( #53, #124 ) ;
#35 = APPROVAL_STATUS ( 'not_yet_approved' ) ;
#36 = APPROVAL_ROLE ( '' ) ;
#37 = DATE_AND_TIME ( #152, #192 ) ;
#38 = APPROVAL_DATE_TIME ( #37, #191 ) ;
#39 = PERSON_AND_ORGANIZATION ( #53, #124 ) ;
#40 = PERSON_AND_ORGANIZATION_ROLE ( 'creator' ) ;
#41 = PERSON_AND_ORGANIZATION ( #53, #124 ) ;
#42 = PERSON_AND_ORGANIZATION_ROLE ( 'design_supplier' ) ;
#43 = SECURITY_CLASSIFICATION_LEVEL ( 'unclassified' ) ;
#44 = PERSON_AND_ORGANIZATION ( #53, #124 ) ;
#45 = PERSON_AND_ORGANIZATION_ROLE ( 'classification_officer' ) ;
#46 = DATE_AND_TIME ( #157, #196 ) ;
#47 = DATE_TIME_ROLE ( 'classification_date' ) ;
#48 = PERSON_AND_ORGANIZATION ( #53, #124 ) ;
#49 = APPROVAL_STATUS ( 'not_yet_approved' ) ;
#50 = APPROVAL_ROLE ( '' ) ;
#51 = DATE_AND_TIME ( #156, #199 ) ;
#52 = APPROVAL_DATE_TIME ( #51, #198 ) ;
#53 = PERSON ( 'UNSPECIFIED', 'UNSPECIFIED', 'UNSPECIFIED', ('UNSPECIFIED'), ('UNSPECIFIED'), ('UNSPECIFIED') ) ;
#54 = UNCERTAINTY_MEASURE_WITH_UNIT (LENGTH_MEASURE( 1.000000000000000100E-005 ), #172, 'distance_accuracy_value', 'NONE');
#55 = ADVANCED_BREP_SHAPE_REPRESENTATION ( 'sone3D', ( #205, #105 ), #190 ) ;
#56 = PRODUCT ( 'sone3D', 'sone3D', '', ( #180 ) ) ;
#57 = CARTESIAN_POINT ( 'NONE',  ( -0.7142857142857141900, 9.974457174120670900, 2.000000000000000000 ) ) ;
#58 = DIRECTION ( 'NONE',  ( 0.07142857142857136900, -0.9974457174120673300, 0.0000000000000000000 ) ) ;
#59 = DIRECTION ( 'NONE',  ( 0.9974457174120672200, 0.07142857142857135500, 0.0000000000000000000 ) ) ;
#60 = CARTESIAN_POINT ( 'NONE',  ( -69.99999999999998600, 0.0000000000000000000, 2.000000000000000000 ) ) ;
#61 = DIRECTION ( 'NONE',  ( -0.0000000000000000000, -0.0000000000000000000, -1.000000000000000000 ) ) ;
#62 = DIRECTION ( 'NONE',  ( -1.000000000000000000, 0.0000000000000000000, 0.0000000000000000000 ) ) ;
#63 = PLANE ( 'NONE',  #142 ) ;
#64 = CARTESIAN_POINT ( 'NONE',  ( -70.35714285714286100, -4.987228587060333700, 2.000000000000000000 ) ) ;
#65 = DIRECTION ( 'NONE',  ( 0.07142857142857143800, 0.9974457174120673300, -0.0000000000000000000 ) ) ;
#66 = DIRECTION ( 'NONE',  ( -0.9974457174120672200, 0.07142857142857142500, 0.0000000000000000000 ) ) ;
#67 = PLANE ( 'NONE',  #143 ) ;
#68 = CARTESIAN_POINT ( 'NONE',  ( -9.403577088048195000E-016, -5.656854249492378800, 2.000000000000000000 ) ) ;
#69 = DIRECTION ( 'NONE',  ( -0.7071067811865472400, 0.7071067811865479100, 0.0000000000000000000 ) ) ;
#70 = DIRECTION ( 'NONE',  ( -0.7071067811865479100, -0.7071067811865472400, 0.0000000000000000000 ) ) ;
#71 = PLANE ( 'NONE',  #103 ) ;
#72 = CARTESIAN_POINT ( 'NONE',  ( 5.656854249492378800, -3.775924206341965300E-015, 2.000000000000000000 ) ) ;
#73 = DIRECTION ( 'NONE',  ( -0.7071067811865477900, -0.7071067811865473500, 0.0000000000000000000 ) ) ;
#74 = DIRECTION ( 'NONE',  ( 0.7071067811865473500, -0.7071067811865477900, 0.0000000000000000000 ) ) ;
#75 = PLANE ( 'NONE',  #125 ) ;
#76 = CARTESIAN_POINT ( 'NONE',  ( 2.912829318400250000E-016, 5.656854249492377900, 2.000000000000000000 ) ) ;
#77 = DIRECTION ( 'NONE',  ( 0.7071067811865473500, -0.7071067811865477900, 0.0000000000000000000 ) ) ;
#78 = DIRECTION ( 'NONE',  ( 0.7071067811865477900, 0.7071067811865473500, 0.0000000000000000000 ) ) ;
#79 = LINE ( 'NONE', #80, #104 ) ;
#80 = CARTESIAN_POINT ( 'NONE',  ( -9.403577088048195000E-016, -5.656854249492378800, 2.000000000000000000 ) ) ;
#81 = DIRECTION ( 'NONE',  ( -0.0000000000000000000, -0.0000000000000000000, -1.000000000000000000 ) ) ;
#82 = PLANE ( 'NONE',  #146 ) ;
#83 = LINE ( 'NONE', #84, #98 ) ;
#84 = CARTESIAN_POINT ( 'NONE',  ( 5.656854249492378800, -3.775924206341965300E-015, 2.000000000000000000 ) ) ;
#85 = DIRECTION ( 'NONE',  ( -0.0000000000000000000, -0.0000000000000000000, -1.000000000000000000 ) ) ;
#86 = LINE ( 'NONE', #87, #120 ) ;
#87 = CARTESIAN_POINT ( 'NONE',  ( 2.912829318400250000E-016, 5.656854249492377900, 2.000000000000000000 ) ) ;
#88 = DIRECTION ( 'NONE',  ( -0.0000000000000000000, -0.0000000000000000000, -1.000000000000000000 ) ) ;
#89 = LINE ( 'NONE', #90, #118 ) ;
#90 = CARTESIAN_POINT ( 'NONE',  ( -5.656854249492379700, 6.024538613726910000E-017, 2.000000000000000000 ) ) ;
#91 = DIRECTION ( 'NONE',  ( -0.0000000000000000000, -0.0000000000000000000, -1.000000000000000000 ) ) ;
#92 = CARTESIAN_POINT ( 'NONE',  ( -5.656854249492379700, 6.024538613726910000E-017, 2.000000000000000000 ) ) ;
#93 = CYLINDRICAL_SURFACE ( 'NONE', #133, 5.000000000000004400 ) ;
#94 = AXIS2_PLACEMENT_3D ( 'NONE', #300, #304, #305 ) ;
#95 = CC_DESIGN_APPROVAL ( #290, ( #289 ) ) ;
#96 = AXIS2_PLACEMENT_3D ( 'NONE', #57, #58, #59 ) ;
#97 = VECTOR ( 'NONE', #303, 999.9999999999998900 ) ;
#98 = VECTOR ( 'NONE', #85, 1000.000000000000000 ) ;
#99 = APPROVAL_PERSON_ORGANIZATION ( #34, #191, #36 ) ;
#100 = PRODUCT_DEFINITION_FORMATION_WITH_SPECIFIED_SOURCE ( 'ANY', '', #56, .NOT_KNOWN. ) ;
#101 = CALENDAR_DATE ( 2013, 5, 8 ) ;
#102 = COORDINATED_UNIVERSAL_TIME_OFFSET ( 9, 0, .AHEAD. ) ;
#103 = AXIS2_PLACEMENT_3D ( 'NONE', #72, #73, #74 ) ;
#104 = VECTOR ( 'NONE', #81, 1000.000000000000000 ) ;
#105 = AXIS2_PLACEMENT_3D ( 'NONE', #176, #177, #178 ) ;
#106 = VECTOR ( 'NONE', #171, 1000.000000000000000 ) ;
#107 = VECTOR ( 'NONE', #338, 999.9999999999998900 ) ;
#108 = VECTOR ( 'NONE', #344, 999.9999999999998900 ) ;
#109 = VECTOR ( 'NONE', #341, 1000.000000000000200 ) ;
#110 = VECTOR ( 'NONE', #335, 1000.000000000000200 ) ;
#111 = VECTOR ( 'NONE', #332, 1000.000000000000200 ) ;
#112 = VECTOR ( 'NONE', #329, 1000.000000000000000 ) ;
#113 = AXIS2_PLACEMENT_3D ( 'NONE', #323, #345, #346 ) ;
#114 = VECTOR ( 'NONE', #326, 1000.000000000000100 ) ;
#115 = VECTOR ( 'NONE', #316, 1000.000000000000000 ) ;
#116 = AXIS2_PLACEMENT_3D ( 'NONE', #317, #318, #319 ) ;
#117 = AXIS2_PLACEMENT_3D ( 'NONE', #320, #321, #322 ) ;
#118 = VECTOR ( 'NONE', #91, 1000.000000000000000 ) ;
#119 = FACE_OUTER_BOUND ( 'NONE', #2, .T. ) ;
#120 = VECTOR ( 'NONE', #88, 1000.000000000000000 ) ;
#121 = CALENDAR_DATE ( 2013, 5, 8 ) ;
#122 = CLOSED_SHELL ( 'NONE', ( #272, #270, #30, #271, #273, #274, #275, #276, #277, #278, #400 ) ) ;
#123 = AXIS2_PLACEMENT_3D ( 'NONE', #306, #365, #366 ) ;
#124 = ORGANIZATION ( 'UNSPECIFIED', 'UNSPECIFIED', '' ) ;
#125 = AXIS2_PLACEMENT_3D ( 'NONE', #76, #77, #78 ) ;
#126 = COORDINATED_UNIVERSAL_TIME_OFFSET ( 9, 0, .AHEAD. ) ;
#127 = COORDINATED_UNIVERSAL_TIME_OFFSET ( 9, 0, .AHEAD. ) ;
#128 = APPROVAL_PERSON_ORGANIZATION ( #48, #198, #50 ) ;
#129 = VECTOR ( 'NONE', #363, 1000.000000000000100 ) ;
#130 = AXIS2_PLACEMENT_3D ( 'NONE', #390, #391, #392 ) ;
#131 = FACE_OUTER_BOUND ( 'NONE', #7, .T. ) ;
#132 = FACE_BOUND ( 'NONE', #12, .T. ) ;
#133 = AXIS2_PLACEMENT_3D ( 'NONE', #396, #397, #398 ) ;
#134 = FACE_OUTER_BOUND ( 'NONE', #3, .T. ) ;
#135 = CYLINDRICAL_SURFACE ( 'NONE', #136, 5.000000000000004400 ) ;
#136 = AXIS2_PLACEMENT_3D ( 'NONE', #60, #61, #62 ) ;
#137 = VECTOR ( 'NONE', #297, 1000.000000000000000 ) ;
#138 = FACE_OUTER_BOUND ( 'NONE', #1, .T. ) ;
#139 = FACE_OUTER_BOUND ( 'NONE', #5, .T. ) ;
#140 = FACE_OUTER_BOUND ( 'NONE', #11, .T. ) ;
#141 = AXIS2_PLACEMENT_3D ( 'NONE', #393, #394, #395 ) ;
#142 = AXIS2_PLACEMENT_3D ( 'NONE', #64, #65, #66 ) ;
#143 = AXIS2_PLACEMENT_3D ( 'NONE', #68, #69, #70 ) ;
#144 = CC_DESIGN_SECURITY_CLASSIFICATION ( #154, ( #100 ) ) ;
#145 = CC_DESIGN_APPROVAL ( #198, ( #154 ) ) ;
#146 = AXIS2_PLACEMENT_3D ( 'NONE', #92, #312, #313 ) ;
#147 = FACE_OUTER_BOUND ( 'NONE', #9, .T. ) ;
#148 = FACE_OUTER_BOUND ( 'NONE', #14, .T. ) ;
#149 = APPROVAL_PERSON_ORGANIZATION ( #184, #290, #186 ) ;
#150 = VECTOR ( 'NONE', #309, 999.9999999999998900 ) ;
#151 = COORDINATED_UNIVERSAL_TIME_OFFSET ( 9, 0, .AHEAD. ) ;
#152 = CALENDAR_DATE ( 2013, 5, 8 ) ;
#153 = CC_DESIGN_APPROVAL ( #191, ( #100 ) ) ;
#154 = SECURITY_CLASSIFICATION ( '', '', #43 ) ;
#155 = COORDINATED_UNIVERSAL_TIME_OFFSET ( 9, 0, .AHEAD. ) ;
#156 = CALENDAR_DATE ( 2013, 5, 8 ) ;
#157 = CALENDAR_DATE ( 2013, 5, 8 ) ;
#158 = VECTOR ( 'NONE', #360, 1000.000000000000000 ) ;
#159 = VECTOR ( 'NONE', #357, 1000.000000000000000 ) ;
#160 = VECTOR ( 'NONE', #353, 1000.000000000000000 ) ;
#161 = FACE_OUTER_BOUND ( 'NONE', #4, .T. ) ;
#162 = AXIS2_PLACEMENT_3D ( 'NONE', #354, #298, #299 ) ;
#163 = VECTOR ( 'NONE', #364, 1000.000000000000200 ) ;
#164 = CYLINDRICAL_SURFACE ( 'NONE', #141, 9.999999999999996400 ) ;
#165 = FACE_OUTER_BOUND ( 'NONE', #10, .T. ) ;
#166 = AXIS2_PLACEMENT_3D ( 'NONE', #368, #369, #370 ) ;
#167 = FACE_OUTER_BOUND ( 'NONE', #6, .T. ) ;
#168 = FACE_BOUND ( 'NONE', #8, .T. ) ;
#169 = LINE ( 'NONE', #170, #106 ) ;
#170 = CARTESIAN_POINT ( 'NONE',  ( -5.656854249492379700, 6.024538613726910000E-017, 2.000000000000000000 ) ) ;
#171 = DIRECTION ( 'NONE',  ( 0.7071067811865475700, -0.7071067811865474600, 0.0000000000000000000 ) ) ;
#172 =( LENGTH_UNIT ( ) NAMED_UNIT ( * ) SI_UNIT ( .MILLI., .METRE. ) );
#173 =( NAMED_UNIT ( * ) PLANE_ANGLE_UNIT ( ) SI_UNIT ( $, .RADIAN. ) );
#174 =( NAMED_UNIT ( * ) SI_UNIT ( $, .STERADIAN. ) SOLID_ANGLE_UNIT ( ) );
#175 = APPLICATION_PROTOCOL_DEFINITION ( 'international standard', 'config_control_design', 1994, #201 ) ;
#176 = CARTESIAN_POINT ( 'NONE',  ( 0.0000000000000000000, 0.0000000000000000000, 0.0000000000000000000 ) ) ;
#177 = DIRECTION ( 'NONE',  ( 0.0000000000000000000, 0.0000000000000000000, 1.000000000000000000 ) ) ;
#178 = DIRECTION ( 'NONE',  ( 1.000000000000000000, 0.0000000000000000000, 0.0000000000000000000 ) ) ;
#179 = SHAPE_DEFINITION_REPRESENTATION ( #203, #55 ) ;
#180 = MECHANICAL_CONTEXT ( 'NONE', #201, 'mechanical' ) ;
#181 = PERSON_AND_ORGANIZATION ( #53, #124 ) ;
#182 = PERSON_AND_ORGANIZATION_ROLE ( 'design_owner' ) ;
#183 = APPLICATION_PROTOCOL_DEFINITION ( 'international standard', 'config_control_design', 1994, #202 ) ;
#184 = PERSON_AND_ORGANIZATION ( #53, #124 ) ;
#185 = APPROVAL_STATUS ( 'not_yet_approved' ) ;
#186 = APPROVAL_ROLE ( '' ) ;
#187 = DATE_AND_TIME ( #121, #291 ) ;
#188 = APPROVAL_DATE_TIME ( #187, #290 ) ;
#189 = PERSON_AND_ORGANIZATION ( #53, #124 ) ;
#190 =( GEOMETRIC_REPRESENTATION_CONTEXT ( 3 ) GLOBAL_UNCERTAINTY_ASSIGNED_CONTEXT ( ( #54 ) ) GLOBAL_UNIT_ASSIGNED_CONTEXT ( ( #172, #173, #174 ) ) REPRESENTATION_CONTEXT ( 'NONE', 'WORKASPACE' ) );
#191 = APPROVAL ( #35, 'UNSPECIFIED' ) ;
#192 = LOCAL_TIME ( 18, 3, 14.00000000000000000, #151 ) ;
#193 = CC_DESIGN_PERSON_AND_ORGANIZATION_ASSIGNMENT ( #39, #40, ( #100 ) ) ;
#194 = CC_DESIGN_PERSON_AND_ORGANIZATION_ASSIGNMENT ( #41, #42, ( #100 ) ) ;
#195 = CC_DESIGN_PERSON_AND_ORGANIZATION_ASSIGNMENT ( #44, #45, ( #154 ) ) ;
#196 = LOCAL_TIME ( 18, 3, 14.00000000000000000, #155 ) ;
#197 = CC_DESIGN_DATE_AND_TIME_ASSIGNMENT ( #46, #47, ( #154 ) ) ;
#198 = APPROVAL ( #49, 'UNSPECIFIED' ) ;
#199 = LOCAL_TIME ( 18, 3, 14.00000000000000000, #127 ) ;
#200 = PRODUCT_RELATED_PRODUCT_CATEGORY ( 'detail', '', ( #56 ) ) ;
#201 = APPLICATION_CONTEXT ( 'configuration controlled 3d designs of mechanical parts and assemblies' ) ;
#202 = APPLICATION_CONTEXT ( 'configuration controlled 3d designs of mechanical parts and assemblies' ) ;
#203 = PRODUCT_DEFINITION_SHAPE ( 'NONE', 'NONE',  #289 ) ;
#204 = DESIGN_CONTEXT ( 'detailed design', #202, 'design' ) ;
#205 = MANIFOLD_SOLID_BREP ( 'ÎÞ½ - µoµ1', #122 ) ;
#206 = ORIENTED_EDGE ( 'NONE', *, *, #18, .F. ) ;
#207 = ORIENTED_EDGE ( 'NONE', *, *, #23, .T. ) ;
#208 = ORIENTED_EDGE ( 'NONE', *, *, #411, .F. ) ;
#209 = ORIENTED_EDGE ( 'NONE', *, *, #21, .F. ) ;
#210 = VERTEX_POINT ( 'NONE', #371 ) ;
#211 = VERTEX_POINT ( 'NONE', #372 ) ;
#212 = ORIENTED_EDGE ( 'NONE', *, *, #407, .F. ) ;
#213 = ORIENTED_EDGE ( 'NONE', *, *, #282, .F. ) ;
#214 = VERTEX_POINT ( 'NONE', #373 ) ;
#215 = VERTEX_POINT ( 'NONE', #374 ) ;
#216 = ORIENTED_EDGE ( 'NONE', *, *, #281, .F. ) ;
#217 = VERTEX_POINT ( 'NONE', #375 ) ;
#218 = ORIENTED_EDGE ( 'NONE', *, *, #282, .T. ) ;
#219 = ORIENTED_EDGE ( 'NONE', *, *, #402, .T. ) ;
#220 = ORIENTED_EDGE ( 'NONE', *, *, #279, .F. ) ;
#221 = ORIENTED_EDGE ( 'NONE', *, *, #405, .F. ) ;
#222 = VERTEX_POINT ( 'NONE', #376 ) ;
#223 = VERTEX_POINT ( 'NONE', #377 ) ;
#224 = ORIENTED_EDGE ( 'NONE', *, *, #406, .F. ) ;
#225 = ORIENTED_EDGE ( 'NONE', *, *, #18, .T. ) ;
#226 = ORIENTED_EDGE ( 'NONE', *, *, #406, .T. ) ;
#227 = ORIENTED_EDGE ( 'NONE', *, *, #280, .T. ) ;
#228 = ORIENTED_EDGE ( 'NONE', *, *, #409, .T. ) ;
#229 = ORIENTED_EDGE ( 'NONE', *, *, #23, .F. ) ;
#230 = ORIENTED_EDGE ( 'NONE', *, *, #404, .F. ) ;
#231 = ORIENTED_EDGE ( 'NONE', *, *, #24, .T. ) ;
#232 = ORIENTED_EDGE ( 'NONE', *, *, #401, .F. ) ;
#233 = ORIENTED_EDGE ( 'NONE', *, *, #22, .T. ) ;
#234 = ORIENTED_EDGE ( 'NONE', *, *, #24, .F. ) ;
#235 = ORIENTED_EDGE ( 'NONE', *, *, #29, .T. ) ;
#236 = ORIENTED_EDGE ( 'NONE', *, *, #401, .T. ) ;
#237 = ORIENTED_EDGE ( 'NONE', *, *, #26, .T. ) ;
#238 = ORIENTED_EDGE ( 'NONE', *, *, #408, .T. ) ;
#239 = ORIENTED_EDGE ( 'NONE', *, *, #280, .F. ) ;
#240 = ORIENTED_EDGE ( 'NONE', *, *, #403, .T. ) ;
#241 = VERTEX_POINT ( 'NONE', #378 ) ;
#242 = VERTEX_POINT ( 'NONE', #379 ) ;
#243 = VERTEX_POINT ( 'NONE', #380 ) ;
#244 = ORIENTED_EDGE ( 'NONE', *, *, #411, .T. ) ;
#245 = VERTEX_POINT ( 'NONE', #381 ) ;
#246 = ORIENTED_EDGE ( 'NONE', *, *, #20, .F. ) ;
#247 = ORIENTED_EDGE ( 'NONE', *, *, #402, .F. ) ;
#248 = ORIENTED_EDGE ( 'NONE', *, *, #25, .F. ) ;
#249 = VERTEX_POINT ( 'NONE', #382 ) ;
#250 = VERTEX_POINT ( 'NONE', #383 ) ;
#251 = ORIENTED_EDGE ( 'NONE', *, *, #22, .F. ) ;
#252 = VERTEX_POINT ( 'NONE', #384 ) ;
#253 = VERTEX_POINT ( 'NONE', #385 ) ;
#254 = ORIENTED_EDGE ( 'NONE', *, *, #279, .T. ) ;
#255 = ORIENTED_EDGE ( 'NONE', *, *, #28, .F. ) ;
#256 = VERTEX_POINT ( 'NONE', #386 ) ;
#257 = ORIENTED_EDGE ( 'NONE', *, *, #27, .F. ) ;
#258 = VERTEX_POINT ( 'NONE', #387 ) ;
#259 = ORIENTED_EDGE ( 'NONE', *, *, #281, .T. ) ;
#260 = VERTEX_POINT ( 'NONE', #388 ) ;
#261 = ORIENTED_EDGE ( 'NONE', *, *, #404, .T. ) ;
#262 = ORIENTED_EDGE ( 'NONE', *, *, #410, .T. ) ;
#263 = ORIENTED_EDGE ( 'NONE', *, *, #403, .F. ) ;
#264 = ORIENTED_EDGE ( 'NONE', *, *, #412, .T. ) ;
#265 = ORIENTED_EDGE ( 'NONE', *, *, #28, .T. ) ;
#266 = ORIENTED_EDGE ( 'NONE', *, *, #405, .T. ) ;
#267 = ORIENTED_EDGE ( 'NONE', *, *, #20, .T. ) ;
#268 = ORIENTED_EDGE ( 'NONE', *, *, #407, .T. ) ;
#269 = ORIENTED_EDGE ( 'NONE', *, *, #21, .T. ) ;
#270 = ADVANCED_FACE ( 'NONE', ( #147, #132 ), #389, .T. ) ;
#271 = ADVANCED_FACE ( 'NONE', ( #167 ), #164, .T. ) ;
#272 = ADVANCED_FACE ( 'NONE', ( #134 ), #93, .T. ) ;
#273 = ADVANCED_FACE ( 'NONE', ( #138 ), #399, .F. ) ;
#274 = ADVANCED_FACE ( 'NONE', ( #161 ), #135, .T. ) ;
#275 = ADVANCED_FACE ( 'NONE', ( #148 ), #63, .F. ) ;
#276 = ADVANCED_FACE ( 'NONE', ( #139 ), #67, .T. ) ;
#277 = ADVANCED_FACE ( 'NONE', ( #140 ), #71, .T. ) ;
#278 = ADVANCED_FACE ( 'NONE', ( #131 ), #75, .T. ) ;
#279 = EDGE_CURVE ( 'NONE', #217, #223, #79, .T. ) ;
#280 = EDGE_CURVE ( 'NONE', #222, #256, #83, .T. ) ;
#281 = EDGE_CURVE ( 'NONE', #210, #250, #86, .T. ) ;
#282 = EDGE_CURVE ( 'NONE', #253, #241, #89, .T. ) ;
#283 = CIRCLE ( 'NONE', #94, 5.000000000000004400 ) ;
#284 = CIRCLE ( 'NONE', #123, 5.000000000000004400 ) ;
#285 = CIRCLE ( 'NONE', #116, 9.999999999999996400 ) ;
#286 = CIRCLE ( 'NONE', #117, 5.000000000000004400 ) ;
#287 = CIRCLE ( 'NONE', #113, 9.999999999999996400 ) ;
#288 = CC_DESIGN_PERSON_AND_ORGANIZATION_ASSIGNMENT ( #181, #182, ( #56 ) ) ;
#289 = PRODUCT_DEFINITION ( 'UNKNOWN', '', #100, #204 ) ;
#290 = APPROVAL ( #185, 'UNSPECIFIED' ) ;
#291 = LOCAL_TIME ( 18, 3, 14.00000000000000000, #126 ) ;
#292 = CC_DESIGN_PERSON_AND_ORGANIZATION_ASSIGNMENT ( #189, #31, ( #289 ) ) ;
#293 = LOCAL_TIME ( 18, 3, 14.00000000000000000, #102 ) ;
#294 = CC_DESIGN_DATE_AND_TIME_ASSIGNMENT ( #32, #33, ( #289 ) ) ;
#295 = LINE ( 'NONE', #296, #137 ) ;
#296 = CARTESIAN_POINT ( 'NONE',  ( -75.00000000000000000, 0.0000000000000000000, 2.000000000000000000 ) ) ;
#297 = DIRECTION ( 'NONE',  ( -0.0000000000000000000, -0.0000000000000000000, -1.000000000000000000 ) ) ;
#298 = DIRECTION ( 'NONE',  ( 0.0000000000000000000, 0.0000000000000000000, 1.000000000000000000 ) ) ;
#299 = DIRECTION ( 'NONE',  ( 1.000000000000000000, 0.0000000000000000000, 0.0000000000000000000 ) ) ;
#300 = CARTESIAN_POINT ( 'NONE',  ( -69.99999999999998600, 0.0000000000000000000, 0.0000000000000000000 ) ) ;
#301 = LINE ( 'NONE', #302, #97 ) ;
#302 = CARTESIAN_POINT ( 'NONE',  ( 2.912829318400250000E-016, 5.656854249492377900, 0.0000000000000000000 ) ) ;
#303 = DIRECTION ( 'NONE',  ( -0.7071067811865477900, -0.7071067811865473500, 0.0000000000000000000 ) ) ;
#304 = DIRECTION ( 'NONE',  ( 0.0000000000000000000, 0.0000000000000000000, 1.000000000000000000 ) ) ;
#305 = DIRECTION ( 'NONE',  ( 1.000000000000000000, 0.0000000000000000000, 0.0000000000000000000 ) ) ;
#306 = CARTESIAN_POINT ( 'NONE',  ( -69.99999999999998600, 0.0000000000000000000, 0.0000000000000000000 ) ) ;
#307 = LINE ( 'NONE', #308, #150 ) ;
#308 = CARTESIAN_POINT ( 'NONE',  ( -9.403577088048195000E-016, -5.656854249492378800, 0.0000000000000000000 ) ) ;
#309 = DIRECTION ( 'NONE',  ( 0.7071067811865479100, 0.7071067811865472400, 0.0000000000000000000 ) ) ;
#310 = LINE ( 'NONE', #311, #163 ) ;
#311 = CARTESIAN_POINT ( 'NONE',  ( -0.7142857142857141900, 9.974457174120670900, 0.0000000000000000000 ) ) ;
#312 = DIRECTION ( 'NONE',  ( 0.7071067811865474600, 0.7071067811865475700, -0.0000000000000000000 ) ) ;
#313 = DIRECTION ( 'NONE',  ( -0.7071067811865475700, 0.7071067811865474600, 0.0000000000000000000 ) ) ;
#314 = LINE ( 'NONE', #315, #115 ) ;
#315 = CARTESIAN_POINT ( 'NONE',  ( -70.35714285714286100, 4.987228587060336300, 2.000000000000000000 ) ) ;
#316 = DIRECTION ( 'NONE',  ( -0.0000000000000000000, -0.0000000000000000000, -1.000000000000000000 ) ) ;
#317 = CARTESIAN_POINT ( 'NONE',  ( 0.0000000000000000000, 0.0000000000000000000, 2.000000000000000000 ) ) ;
#318 = DIRECTION ( 'NONE',  ( 0.0000000000000000000, 0.0000000000000000000, 1.000000000000000000 ) ) ;
#319 = DIRECTION ( 'NONE',  ( 1.000000000000000000, 0.0000000000000000000, 0.0000000000000000000 ) ) ;
#320 = CARTESIAN_POINT ( 'NONE',  ( -69.99999999999998600, 0.0000000000000000000, 2.000000000000000000 ) ) ;
#321 = DIRECTION ( 'NONE',  ( 0.0000000000000000000, 0.0000000000000000000, 1.000000000000000000 ) ) ;
#322 = DIRECTION ( 'NONE',  ( 1.000000000000000000, 0.0000000000000000000, 0.0000000000000000000 ) ) ;
#323 = CARTESIAN_POINT ( 'NONE',  ( 0.0000000000000000000, 0.0000000000000000000, 0.0000000000000000000 ) ) ;
#324 = LINE ( 'NONE', #325, #114 ) ;
#325 = CARTESIAN_POINT ( 'NONE',  ( 5.656854249492378800, -3.775924206341965300E-015, 2.000000000000000000 ) ) ;
#326 = DIRECTION ( 'NONE',  ( -0.7071067811865473500, 0.7071067811865476800, 0.0000000000000000000 ) ) ;
#327 = LINE ( 'NONE', #328, #112 ) ;
#328 = CARTESIAN_POINT ( 'NONE',  ( -70.35714285714286100, -4.987228587060333700, 2.000000000000000000 ) ) ;
#329 = DIRECTION ( 'NONE',  ( -0.0000000000000000000, -0.0000000000000000000, -1.000000000000000000 ) ) ;
#330 = LINE ( 'NONE', #331, #111 ) ;
#331 = CARTESIAN_POINT ( 'NONE',  ( -70.35714285714286100, -4.987228587060333700, 2.000000000000000000 ) ) ;
#332 = DIRECTION ( 'NONE',  ( 0.9974457174120672200, -0.07142857142857142500, 0.0000000000000000000 ) ) ;
#333 = LINE ( 'NONE', #334, #110 ) ;
#334 = CARTESIAN_POINT ( 'NONE',  ( -0.7142857142857141900, 9.974457174120670900, 2.000000000000000000 ) ) ;
#335 = DIRECTION ( 'NONE',  ( -0.9974457174120672200, -0.07142857142857135500, 0.0000000000000000000 ) ) ;
#336 = LINE ( 'NONE', #337, #107 ) ;
#337 = CARTESIAN_POINT ( 'NONE',  ( -9.403577088048195000E-016, -5.656854249492378800, 2.000000000000000000 ) ) ;
#338 = DIRECTION ( 'NONE',  ( 0.7071067811865479100, 0.7071067811865472400, 0.0000000000000000000 ) ) ;
#339 = LINE ( 'NONE', #340, #109 ) ;
#340 = CARTESIAN_POINT ( 'NONE',  ( -70.35714285714286100, -4.987228587060333700, 0.0000000000000000000 ) ) ;
#341 = DIRECTION ( 'NONE',  ( 0.9974457174120672200, -0.07142857142857142500, 0.0000000000000000000 ) ) ;
#342 = LINE ( 'NONE', #343, #108 ) ;
#343 = CARTESIAN_POINT ( 'NONE',  ( 2.912829318400250000E-016, 5.656854249492377900, 2.000000000000000000 ) ) ;
#344 = DIRECTION ( 'NONE',  ( -0.7071067811865477900, -0.7071067811865473500, 0.0000000000000000000 ) ) ;
#345 = DIRECTION ( 'NONE',  ( 0.0000000000000000000, 0.0000000000000000000, 1.000000000000000000 ) ) ;
#346 = DIRECTION ( 'NONE',  ( 1.000000000000000000, 0.0000000000000000000, 0.0000000000000000000 ) ) ;
#347 = ORIENTED_EDGE ( 'NONE', *, *, #412, .F. ) ;
#348 = ORIENTED_EDGE ( 'NONE', *, *, #408, .F. ) ;
#349 = ORIENTED_EDGE ( 'NONE', *, *, #29, .F. ) ;
#350 = ORIENTED_EDGE ( 'NONE', *, *, #410, .F. ) ;
#351 = LINE ( 'NONE', #352, #160 ) ;
#352 = CARTESIAN_POINT ( 'NONE',  ( -0.7142857142857145200, -9.974457174120670900, 2.000000000000000000 ) ) ;
#353 = DIRECTION ( 'NONE',  ( -0.0000000000000000000, -0.0000000000000000000, -1.000000000000000000 ) ) ;
#354 = CARTESIAN_POINT ( 'NONE',  ( -69.99999999999998600, 0.0000000000000000000, 2.000000000000000000 ) ) ;
#355 = LINE ( 'NONE', #356, #159 ) ;
#356 = CARTESIAN_POINT ( 'NONE',  ( -5.656854249492379700, 6.024538613726910000E-017, 0.0000000000000000000 ) ) ;
#357 = DIRECTION ( 'NONE',  ( 0.7071067811865475700, -0.7071067811865474600, 0.0000000000000000000 ) ) ;
#358 = LINE ( 'NONE', #359, #158 ) ;
#359 = CARTESIAN_POINT ( 'NONE',  ( -0.7142857142857141900, 9.974457174120670900, 2.000000000000000000 ) ) ;
#360 = DIRECTION ( 'NONE',  ( -0.0000000000000000000, -0.0000000000000000000, -1.000000000000000000 ) ) ;
#361 = LINE ( 'NONE', #362, #129 ) ;
#362 = CARTESIAN_POINT ( 'NONE',  ( 5.656854249492378800, -3.775924206341965300E-015, 0.0000000000000000000 ) ) ;
#363 = DIRECTION ( 'NONE',  ( -0.7071067811865473500, 0.7071067811865476800, 0.0000000000000000000 ) ) ;
#364 = DIRECTION ( 'NONE',  ( -0.9974457174120672200, -0.07142857142857135500, 0.0000000000000000000 ) ) ;
#365 = DIRECTION ( 'NONE',  ( 0.0000000000000000000, 0.0000000000000000000, 1.000000000000000000 ) ) ;
#366 = DIRECTION ( 'NONE',  ( 1.000000000000000000, 0.0000000000000000000, 0.0000000000000000000 ) ) ;
#367 = PLANE ( 'NONE',  #166 ) ;
#368 = CARTESIAN_POINT ( 'NONE',  ( 0.0000000000000000000, 0.0000000000000000000, 0.0000000000000000000 ) ) ;
#369 = DIRECTION ( 'NONE',  ( 0.0000000000000000000, 0.0000000000000000000, 1.000000000000000000 ) ) ;
#370 = DIRECTION ( 'NONE',  ( 1.000000000000000000, 0.0000000000000000000, -0.0000000000000000000 ) ) ;
#371 = CARTESIAN_POINT ( 'NONE',  ( 2.912829318400250000E-016, 5.656854249492377900, 2.000000000000000000 ) ) ;
#372 = CARTESIAN_POINT ( 'NONE',  ( -70.35714285714286100, -4.987228587060333700, 2.000000000000000000 ) ) ;
#373 = CARTESIAN_POINT ( 'NONE',  ( -0.7142857142857145200, -9.974457174120670900, 2.000000000000000000 ) ) ;
#374 = CARTESIAN_POINT ( 'NONE',  ( -0.7142857142857141900, 9.974457174120670900, 2.000000000000000000 ) ) ;
#375 = CARTESIAN_POINT ( 'NONE',  ( -9.403577088048195000E-016, -5.656854249492378800, 2.000000000000000000 ) ) ;
#376 = CARTESIAN_POINT ( 'NONE',  ( 5.656854249492378800, -3.775924206341965300E-015, 2.000000000000000000 ) ) ;
#377 = CARTESIAN_POINT ( 'NONE',  ( -8.673617379884035500E-016, -5.656854249492377900, 0.0000000000000000000 ) ) ;
#378 = CARTESIAN_POINT ( 'NONE',  ( -5.656854249492379700, 6.024538613726910000E-017, 0.0000000000000000000 ) ) ;
#379 = CARTESIAN_POINT ( 'NONE',  ( -0.7142857142857145200, -9.974457174120670900, 0.0000000000000000000 ) ) ;
#380 = CARTESIAN_POINT ( 'NONE',  ( -0.7142857142857141900, 9.974457174120670900, 0.0000000000000000000 ) ) ;
#381 = CARTESIAN_POINT ( 'NONE',  ( -70.35714285714286100, 4.987228587060336300, 0.0000000000000000000 ) ) ;
#382 = CARTESIAN_POINT ( 'NONE',  ( -70.35714285714286100, 4.987228587060336300, 2.000000000000000000 ) ) ;
#383 = CARTESIAN_POINT ( 'NONE',  ( 2.912829318400250000E-016, 5.656854249492377900, 0.0000000000000000000 ) ) ;
#384 = CARTESIAN_POINT ( 'NONE',  ( -75.00000000000000000, 0.0000000000000000000, 0.0000000000000000000 ) ) ;
#385 = CARTESIAN_POINT ( 'NONE',  ( -5.656854249492378800, 4.336808689942017700E-016, 2.000000000000000000 ) ) ;
#386 = CARTESIAN_POINT ( 'NONE',  ( 5.656854249492378800, -3.775924206341965300E-015, 0.0000000000000000000 ) ) ;
#387 = CARTESIAN_POINT ( 'NONE',  ( -75.00000000000000000, 0.0000000000000000000, 2.000000000000000000 ) ) ;
#388 = CARTESIAN_POINT ( 'NONE',  ( -70.35714285714286100, -4.987228587060333700, 0.0000000000000000000 ) ) ;
#389 = PLANE ( 'NONE',  #130 ) ;
#390 = CARTESIAN_POINT ( 'NONE',  ( 0.0000000000000000000, 0.0000000000000000000, 2.000000000000000000 ) ) ;
#391 = DIRECTION ( 'NONE',  ( 0.0000000000000000000, 0.0000000000000000000, 1.000000000000000000 ) ) ;
#392 = DIRECTION ( 'NONE',  ( 1.000000000000000000, 0.0000000000000000000, -0.0000000000000000000 ) ) ;
#393 = CARTESIAN_POINT ( 'NONE',  ( 0.0000000000000000000, 0.0000000000000000000, 2.000000000000000000 ) ) ;
#394 = DIRECTION ( 'NONE',  ( -0.0000000000000000000, -0.0000000000000000000, -1.000000000000000000 ) ) ;
#395 = DIRECTION ( 'NONE',  ( -1.000000000000000000, 0.0000000000000000000, 0.0000000000000000000 ) ) ;
#396 = CARTESIAN_POINT ( 'NONE',  ( -69.99999999999998600, 0.0000000000000000000, 2.000000000000000000 ) ) ;
#397 = DIRECTION ( 'NONE',  ( -0.0000000000000000000, -0.0000000000000000000, -1.000000000000000000 ) ) ;
#398 = DIRECTION ( 'NONE',  ( -1.000000000000000000, 0.0000000000000000000, 0.0000000000000000000 ) ) ;
#399 = PLANE ( 'NONE',  #96 ) ;
#400 = ADVANCED_FACE ( 'NONE', ( #119 ), #82, .T. ) ;
#401 = EDGE_CURVE ( 'NONE', #249, #245, #314, .T. ) ;
#402 = EDGE_CURVE ( 'NONE', #214, #215, #285, .T. ) ;
#403 = EDGE_CURVE ( 'NONE', #249, #258, #286, .T. ) ;
#404 = EDGE_CURVE ( 'NONE', #222, #210, #324, .T. ) ;
#405 = EDGE_CURVE ( 'NONE', #211, #260, #327, .T. ) ;
#406 = EDGE_CURVE ( 'NONE', #211, #214, #330, .T. ) ;
#407 = EDGE_CURVE ( 'NONE', #215, #249, #333, .T. ) ;
#408 = EDGE_CURVE ( 'NONE', #217, #222, #336, .T. ) ;
#409 = EDGE_CURVE ( 'NONE', #260, #242, #339, .T. ) ;
#410 = EDGE_CURVE ( 'NONE', #210, #253, #342, .T. ) ;
#411 = EDGE_CURVE ( 'NONE', #242, #243, #287, .T. ) ;
#412 = EDGE_CURVE ( 'NONE', #253, #217, #169, .T. ) ;
ENDSEC;
END-ISO-10303-21;
