ISO-10303-21;
HEADER;
FILE_DESCRIPTION (( 'STEP AP203' ),
    '1' );
FILE_NAME ('sone3D.STEP',
    '2013-08-05T08:25:25',
    ( '' ),
    ( '' ),
    'SwSTEP 2.0',
    'SolidWorks 2012',
    '' );
FILE_SCHEMA (( 'CONFIG_CONTROL_DESIGN' ));
ENDSEC;

DATA;
#1 = MANIFOLD_SOLID_BREP ( 'µoµ1', #33 ) ;
#2 = PRODUCT_DEFINITION_SHAPE ( 'NONE', 'NONE',  #120 ) ;
#3 = DESIGN_CONTEXT ( 'detailed design', #81, 'design' ) ;
#4 = VECTOR ( 'NONE', #266, 1000.000000000000000 ) ;
#5 = FACE_OUTER_BOUND ( 'NONE', #294, .T. ) ;
#6 = FACE_OUTER_BOUND ( 'NONE', #335, .T. ) ;
#7 = AXIS2_PLACEMENT_3D ( 'NONE', #364, #329, #352 ) ;
#8 = FACE_OUTER_BOUND ( 'NONE', #313, .T. ) ;
#9 = AXIS2_PLACEMENT_3D ( 'NONE', #232, #241, #187 ) ;
#10 = AXIS2_PLACEMENT_3D ( 'NONE', #324, #365, #372 ) ;
#11 = VECTOR ( 'NONE', #216, 1000.000000000000000 ) ;
#12 = AXIS2_PLACEMENT_3D ( 'NONE', #188, #272, #194 ) ;
#13 = VECTOR ( 'NONE', #263, 1000.000000000000000 ) ;
#14 = FACE_OUTER_BOUND ( 'NONE', #388, .T. ) ;
#15 = AXIS2_PLACEMENT_3D ( 'NONE', #345, #378, #379 ) ;
#16 = VECTOR ( 'NONE', #354, 1000.000000000000000 ) ;
#17 = VECTOR ( 'NONE', #271, 1000.000000000000000 ) ;
#18 = VECTOR ( 'NONE', #262, 1000.000000000000000 ) ;
#19 = VECTOR ( 'NONE', #257, 1000.000000000000000 ) ;
#20 = VECTOR ( 'NONE', #239, 1000.000000000000000 ) ;
#21 = AXIS2_PLACEMENT_3D ( 'NONE', #207, #210, #255 ) ;
#22 = VECTOR ( 'NONE', #350, 1000.000000000000000 ) ;
#23 = FACE_BOUND ( 'NONE', #310, .T. ) ;
#24 = AXIS2_PLACEMENT_3D ( 'NONE', #317, #184, #185 ) ;
#25 = VECTOR ( 'NONE', #274, 1000.000000000000000 ) ;
#26 = CYLINDRICAL_SURFACE ( 'NONE', #56, 11.50000000000000000 ) ;
#27 = AXIS2_PLACEMENT_3D ( 'NONE', #320, #371, #393 ) ;
#28 = AXIS2_PLACEMENT_3D ( 'NONE', #233, #248, #256 ) ;
#29 = CYLINDRICAL_SURFACE ( 'NONE', #7, 11.49999999999999600 ) ;
#30 = VECTOR ( 'NONE', #319, 1000.000000000000000 ) ;
#31 = FACE_OUTER_BOUND ( 'NONE', #293, .T. ) ;
#32 = AXIS2_PLACEMENT_3D ( 'NONE', #252, #242, #243 ) ;
#33 = CLOSED_SHELL ( 'NONE', ( #86, #84, #91, #88, #100, #97, #95, #102, #99, #94, #90 ) ) ;
#34 = CYLINDRICAL_SURFACE ( 'NONE', #58, 11.49999999999999600 ) ;
#35 = AXIS2_PLACEMENT_3D ( 'NONE', #253, #186, #226 ) ;
#36 = VECTOR ( 'NONE', #214, 1000.000000000000100 ) ;
#37 = AXIS2_PLACEMENT_3D ( 'NONE', #385, #395, #342 ) ;
#38 = VECTOR ( 'NONE', #251, 999.9999999999998900 ) ;
#39 = FACE_OUTER_BOUND ( 'NONE', #306, .T. ) ;
#40 = VECTOR ( 'NONE', #344, 1000.000000000000000 ) ;
#41 = VECTOR ( 'NONE', #269, 1000.000000000000100 ) ;
#42 = FACE_OUTER_BOUND ( 'NONE', #356, .T. ) ;
#43 = VECTOR ( 'NONE', #212, 1000.000000000000000 ) ;
#44 = VECTOR ( 'NONE', #410, 999.9999999999998900 ) ;
#45 = AXIS2_PLACEMENT_3D ( 'NONE', #195, #179, #158 ) ;
#46 = VECTOR ( 'NONE', #237, 1000.000000000000000 ) ;
#47 = FACE_BOUND ( 'NONE', #287, .T. ) ;
#48 = FACE_OUTER_BOUND ( 'NONE', #346, .T. ) ;
#49 = AXIS2_PLACEMENT_3D ( 'NONE', #402, #349, #334 ) ;
#50 = VECTOR ( 'NONE', #325, 1000.000000000000000 ) ;
#51 = FACE_OUTER_BOUND ( 'NONE', #289, .T. ) ;
#52 = AXIS2_PLACEMENT_3D ( 'NONE', #408, #404, #407 ) ;
#53 = VECTOR ( 'NONE', #198, 1000.000000000000000 ) ;
#54 = FACE_OUTER_BOUND ( 'NONE', #369, .T. ) ;
#55 = AXIS2_PLACEMENT_3D ( 'NONE', #208, #201, #204 ) ;
#56 = AXIS2_PLACEMENT_3D ( 'NONE', #411, #412, #405 ) ;
#57 = FACE_OUTER_BOUND ( 'NONE', #363, .T. ) ;
#58 = AXIS2_PLACEMENT_3D ( 'NONE', #384, #323, #390 ) ;
#59 = VECTOR ( 'NONE', #229, 1000.000000000000000 ) ;
#60 = COORDINATED_UNIVERSAL_TIME_OFFSET ( 9, 0, .AHEAD. ) ;
#61 = CC_DESIGN_APPROVAL ( #134, ( #63 ) ) ;
#62 = CC_DESIGN_APPROVAL ( #141, ( #71 ) ) ;
#63 = PRODUCT_DEFINITION_FORMATION_WITH_SPECIFIED_SOURCE ( 'ANY', '', #144, .NOT_KNOWN. ) ;
#64 = APPROVAL_PERSON_ORGANIZATION ( #171, #134, #172 ) ;
#65 = APPROVAL_PERSON_ORGANIZATION ( #159, #119, #164 ) ;
#66 = COORDINATED_UNIVERSAL_TIME_OFFSET ( 9, 0, .AHEAD. ) ;
#67 = CALENDAR_DATE ( 2013, 5, 8 ) ;
#68 = CC_DESIGN_SECURITY_CLASSIFICATION ( #71, ( #63 ) ) ;
#69 = COORDINATED_UNIVERSAL_TIME_OFFSET ( 9, 0, .AHEAD. ) ;
#70 = CC_DESIGN_APPROVAL ( #119, ( #120 ) ) ;
#71 = SECURITY_CLASSIFICATION ( '', '', #149 ) ;
#72 = CALENDAR_DATE ( 2013, 5, 8 ) ;
#73 = CALENDAR_DATE ( 2013, 5, 8 ) ;
#74 = ORGANIZATION ( 'UNSPECIFIED', 'UNSPECIFIED', '' ) ;
#75 = CALENDAR_DATE ( 2013, 5, 8 ) ;
#76 = COORDINATED_UNIVERSAL_TIME_OFFSET ( 9, 0, .AHEAD. ) ;
#77 = CALENDAR_DATE ( 2013, 5, 8 ) ;
#78 = COORDINATED_UNIVERSAL_TIME_OFFSET ( 9, 0, .AHEAD. ) ;
#79 = APPROVAL_PERSON_ORGANIZATION ( #180, #141, #178 ) ;
#80 =( GEOMETRIC_REPRESENTATION_CONTEXT ( 3 ) GLOBAL_UNCERTAINTY_ASSIGNED_CONTEXT ( ( #145 ) ) GLOBAL_UNIT_ASSIGNED_CONTEXT ( ( #211, #217, #260 ) ) REPRESENTATION_CONTEXT ( 'NONE', 'WORKASPACE' ) );
#81 = APPLICATION_CONTEXT ( 'configuration controlled 3d designs of mechanical parts and assemblies' ) ;
#82 = APPLICATION_CONTEXT ( 'configuration controlled 3d designs of mechanical parts and assemblies' ) ;
#83 = EDGE_CURVE ( 'NONE', #353, #380, #375, .T. ) ;
#84 = ADVANCED_FACE ( 'NONE', ( #51, #47 ), #399, .T. ) ;
#85 = EDGE_CURVE ( 'NONE', #367, #358, #386, .T. ) ;
#86 = ADVANCED_FACE ( 'NONE', ( #31 ), #29, .T. ) ;
#87 = EDGE_CURVE ( 'NONE', #358, #381, #374, .T. ) ;
#88 = ADVANCED_FACE ( 'NONE', ( #8 ), #34, .T. ) ;
#89 = EDGE_CURVE ( 'NONE', #351, #303, #341, .T. ) ;
#90 = ADVANCED_FACE ( 'NONE', ( #6 ), #403, .T. ) ;
#91 = ADVANCED_FACE ( 'NONE', ( #39, #23 ), #383, .F. ) ;
#92 = EDGE_CURVE ( 'NONE', #351, #362, #126, .T. ) ;
#93 = CIRCLE ( 'NONE', #55, 11.49999999999999600 ) ;
#94 = ADVANCED_FACE ( 'NONE', ( #57 ), #337, .T. ) ;
#95 = ADVANCED_FACE ( 'NONE', ( #54 ), #382, .F. ) ;
#96 = EDGE_CURVE ( 'NONE', #380, #302, #406, .T. ) ;
#97 = ADVANCED_FACE ( 'NONE', ( #42 ), #26, .T. ) ;
#98 = EDGE_CURVE ( 'NONE', #304, #302, #318, .T. ) ;
#99 = ADVANCED_FACE ( 'NONE', ( #14 ), #316, .T. ) ;
#100 = ADVANCED_FACE ( 'NONE', ( #5 ), #224, .F. ) ;
#101 = EDGE_CURVE ( 'NONE', #367, #296, #221, .T. ) ;
#102 = ADVANCED_FACE ( 'NONE', ( #48 ), #193, .T. ) ;
#103 = EDGE_CURVE ( 'NONE', #398, #288, #202, .T. ) ;
#104 = EDGE_CURVE ( 'NONE', #288, #286, #93, .T. ) ;
#105 = EDGE_CURVE ( 'NONE', #303, #398, #125, .T. ) ;
#106 = EDGE_CURVE ( 'NONE', #389, #351, #220, .T. ) ;
#107 = EDGE_CURVE ( 'NONE', #302, #296, #190, .T. ) ;
#108 = EDGE_CURVE ( 'NONE', #381, #380, #275, .T. ) ;
#109 = EDGE_CURVE ( 'NONE', #392, #288, #231, .T. ) ;
#110 = EDGE_CURVE ( 'NONE', #362, #398, #209, .T. ) ;
#111 = EDGE_CURVE ( 'NONE', #353, #304, #227, .T. ) ;
#112 = EDGE_CURVE ( 'NONE', #304, #367, #244, .T. ) ;
#113 = EDGE_CURVE ( 'NONE', #296, #381, #206, .T. ) ;
#114 = EDGE_CURVE ( 'NONE', #358, #353, #268, .T. ) ;
#115 = EDGE_CURVE ( 'NONE', #347, #303, #250, .T. ) ;
#116 = EDGE_CURVE ( 'NONE', #362, #392, #223, .T. ) ;
#117 = CC_DESIGN_PERSON_AND_ORGANIZATION_ASSIGNMENT ( #168, #167, ( #120 ) ) ;
#118 = LOCAL_TIME ( 17, 25, 25.00000000000000000, #69 ) ;
#119 = APPROVAL ( #161, 'UNSPECIFIED' ) ;
#120 = PRODUCT_DEFINITION ( 'UNKNOWN', '', #63, #3 ) ;
#121 = CC_DESIGN_PERSON_AND_ORGANIZATION_ASSIGNMENT ( #162, #154, ( #144 ) ) ;
#122 = CIRCLE ( 'NONE', #9, 11.49999999999999600 ) ;
#123 = CIRCLE ( 'NONE', #28, 11.49999999999999600 ) ;
#124 = CIRCLE ( 'NONE', #32, 11.49999999999999600 ) ;
#125 = CIRCLE ( 'NONE', #21, 11.50000000000000000 ) ;
#126 = CIRCLE ( 'NONE', #10, 11.50000000000000000 ) ;
#127 = EDGE_CURVE ( 'NONE', #321, #286, #273, .T. ) ;
#128 = EDGE_CURVE ( 'NONE', #321, #389, #124, .T. ) ;
#129 = EDGE_CURVE ( 'NONE', #392, #321, #123, .T. ) ;
#130 = EDGE_CURVE ( 'NONE', #389, #347, #245, .T. ) ;
#131 = EDGE_CURVE ( 'NONE', #286, #347, #122, .T. ) ;
#132 = LOCAL_TIME ( 17, 25, 25.00000000000000000, #76 ) ;
#133 = CC_DESIGN_DATE_AND_TIME_ASSIGNMENT ( #169, #170, ( #120 ) ) ;
#134 = APPROVAL ( #173, 'UNSPECIFIED' ) ;
#135 = LOCAL_TIME ( 17, 25, 25.00000000000000000, #78 ) ;
#136 = CC_DESIGN_PERSON_AND_ORGANIZATION_ASSIGNMENT ( #152, #175, ( #63 ) ) ;
#137 = CC_DESIGN_PERSON_AND_ORGANIZATION_ASSIGNMENT ( #176, #151, ( #63 ) ) ;
#138 = CC_DESIGN_PERSON_AND_ORGANIZATION_ASSIGNMENT ( #165, #150, ( #71 ) ) ;
#139 = LOCAL_TIME ( 17, 25, 25.00000000000000000, #66 ) ;
#140 = CC_DESIGN_DATE_AND_TIME_ASSIGNMENT ( #148, #153, ( #71 ) ) ;
#141 = APPROVAL ( #182, 'UNSPECIFIED' ) ;
#142 = LOCAL_TIME ( 17, 25, 25.00000000000000000, #60 ) ;
#143 = PRODUCT_RELATED_PRODUCT_CATEGORY ( 'detail', '', ( #144 ) ) ;
#144 = PRODUCT ( 'sone3D', 'sone3D', '', ( #160 ) ) ;
#145 = UNCERTAINTY_MEASURE_WITH_UNIT (LENGTH_MEASURE( 1.000000000000000100E-005 ), #211, 'distance_accuracy_value', 'NONE');
#146 = ADVANCED_BREP_SHAPE_REPRESENTATION ( 'sone3D', ( #1, #45 ), #80 ) ;
#147 = PERSON ( 'UNSPECIFIED', 'UNSPECIFIED', 'UNSPECIFIED', ('UNSPECIFIED'), ('UNSPECIFIED'), ('UNSPECIFIED') ) ;
#148 = DATE_AND_TIME ( #72, #139 ) ;
#149 = SECURITY_CLASSIFICATION_LEVEL ( 'unclassified' ) ;
#150 = PERSON_AND_ORGANIZATION_ROLE ( 'classification_officer' ) ;
#151 = PERSON_AND_ORGANIZATION_ROLE ( 'design_supplier' ) ;
#152 = PERSON_AND_ORGANIZATION ( #147, #74 ) ;
#153 = DATE_TIME_ROLE ( 'classification_date' ) ;
#154 = PERSON_AND_ORGANIZATION_ROLE ( 'design_owner' ) ;
#155 = DATE_AND_TIME ( #77, #118 ) ;
#156 = SHAPE_DEFINITION_REPRESENTATION ( #2, #146 ) ;
#157 = APPLICATION_PROTOCOL_DEFINITION ( 'international standard', 'config_control_design', 1994, #82 ) ;
#158 = DIRECTION ( 'NONE',  ( 1.000000000000000000, 0.0000000000000000000, 0.0000000000000000000 ) ) ;
#159 = PERSON_AND_ORGANIZATION ( #147, #74 ) ;
#160 = MECHANICAL_CONTEXT ( 'NONE', #82, 'mechanical' ) ;
#161 = APPROVAL_STATUS ( 'not_yet_approved' ) ;
#162 = PERSON_AND_ORGANIZATION ( #147, #74 ) ;
#163 = APPLICATION_PROTOCOL_DEFINITION ( 'international standard', 'config_control_design', 1994, #81 ) ;
#164 = APPROVAL_ROLE ( '' ) ;
#165 = PERSON_AND_ORGANIZATION ( #147, #74 ) ;
#166 = APPROVAL_DATE_TIME ( #155, #119 ) ;
#167 = PERSON_AND_ORGANIZATION_ROLE ( 'creator' ) ;
#168 = PERSON_AND_ORGANIZATION ( #147, #74 ) ;
#169 = DATE_AND_TIME ( #75, #132 ) ;
#170 = DATE_TIME_ROLE ( 'creation_date' ) ;
#171 = PERSON_AND_ORGANIZATION ( #147, #74 ) ;
#172 = APPROVAL_ROLE ( '' ) ;
#173 = APPROVAL_STATUS ( 'not_yet_approved' ) ;
#174 = DATE_AND_TIME ( #73, #135 ) ;
#175 = PERSON_AND_ORGANIZATION_ROLE ( 'creator' ) ;
#176 = PERSON_AND_ORGANIZATION ( #147, #74 ) ;
#177 = APPROVAL_DATE_TIME ( #174, #134 ) ;
#178 = APPROVAL_ROLE ( '' ) ;
#179 = DIRECTION ( 'NONE',  ( 0.0000000000000000000, 0.0000000000000000000, 1.000000000000000000 ) ) ;
#180 = PERSON_AND_ORGANIZATION ( #147, #74 ) ;
#181 = APPROVAL_DATE_TIME ( #183, #141 ) ;
#182 = APPROVAL_STATUS ( 'not_yet_approved' ) ;
#183 = DATE_AND_TIME ( #67, #142 ) ;
#184 = DIRECTION ( 'NONE',  ( -0.7071067811865487900, 0.7071067811865463500, 0.0000000000000000000 ) ) ;
#185 = DIRECTION ( 'NONE',  ( -0.7071067811865463500, -0.7071067811865487900, 0.0000000000000000000 ) ) ;
#186 = DIRECTION ( 'NONE',  ( 0.7071067811865462400, 0.7071067811865489100, -0.0000000000000000000 ) ) ;
#187 = DIRECTION ( 'NONE',  ( 1.000000000000000000, 0.0000000000000000000, 0.0000000000000000000 ) ) ;
#188 = CARTESIAN_POINT ( 'NONE',  ( -41.50000000000000000, -11.49999999999999600, 2.000000000000000000 ) ) ;
#189 = CARTESIAN_POINT ( 'NONE',  ( -41.50000000000000000, -11.49999999999999600, 2.000000000000000000 ) ) ;
#190 = LINE ( 'NONE', #218, #11 ) ;
#191 = CARTESIAN_POINT ( 'NONE',  ( -5.727564927611036100, -9.540979117872439000E-015, 2.000000000000000000 ) ) ;
#192 = CARTESIAN_POINT ( 'NONE',  ( -1.387778780781445700E-014, 5.727564927611034300, 2.000000000000000000 ) ) ;
#193 = PLANE ( 'NONE',  #35 ) ;
#194 = DIRECTION ( 'NONE',  ( -1.000000000000000000, 8.360113137237623700E-017, 0.0000000000000000000 ) ) ;
#195 = CARTESIAN_POINT ( 'NONE',  ( 0.0000000000000000000, 0.0000000000000000000, 0.0000000000000000000 ) ) ;
#196 = CARTESIAN_POINT ( 'NONE',  ( -41.50000000000000000, 11.49999999999999600, 2.000000000000000000 ) ) ;
#197 = CARTESIAN_POINT ( 'NONE',  ( -41.50000000000000000, 11.49999999999999600, 0.0000000000000000000 ) ) ;
#198 = DIRECTION ( 'NONE',  ( 1.000000000000000000, -8.360113137237623700E-017, 0.0000000000000000000 ) ) ;
#199 = CARTESIAN_POINT ( 'NONE',  ( 5.727564927611035200, 1.084202172485504400E-014, 2.000000000000000000 ) ) ;
#200 = CARTESIAN_POINT ( 'NONE',  ( -41.50000000000000000, 11.49999999999999600, 2.000000000000000000 ) ) ;
#201 = DIRECTION ( 'NONE',  ( 0.0000000000000000000, 0.0000000000000000000, 1.000000000000000000 ) ) ;
#202 = LINE ( 'NONE', #197, #59 ) ;
#203 = CARTESIAN_POINT ( 'NONE',  ( -5.727564927611036100, -9.540979117872439000E-015, 2.000000000000000000 ) ) ;
#204 = DIRECTION ( 'NONE',  ( 1.000000000000000000, 0.0000000000000000000, 0.0000000000000000000 ) ) ;
#205 = CARTESIAN_POINT ( 'NONE',  ( 9.540979117872439000E-015, -5.727564927611034300, 2.000000000000000000 ) ) ;
#206 = LINE ( 'NONE', #259, #13 ) ;
#207 = CARTESIAN_POINT ( 'NONE',  ( 0.0000000000000000000, 0.0000000000000000000, 0.0000000000000000000 ) ) ;
#208 = CARTESIAN_POINT ( 'NONE',  ( -41.50000000000000000, 0.0000000000000000000, 0.0000000000000000000 ) ) ;
#209 = LINE ( 'NONE', #235, #19 ) ;
#210 = DIRECTION ( 'NONE',  ( 0.0000000000000000000, 0.0000000000000000000, 1.000000000000000000 ) ) ;
#211 =( LENGTH_UNIT ( ) NAMED_UNIT ( * ) SI_UNIT ( .MILLI., .METRE. ) );
#212 = DIRECTION ( 'NONE',  ( 0.7071067811865489100, -0.7071067811865462400, 0.0000000000000000000 ) ) ;
#213 = CARTESIAN_POINT ( 'NONE',  ( -41.50000000000000000, 11.49999999999999600, 2.000000000000000000 ) ) ;
#214 = DIRECTION ( 'NONE',  ( -0.7071067811865489100, 0.7071067811865461300, -0.0000000000000000000 ) ) ;
#215 = CARTESIAN_POINT ( 'NONE',  ( -41.50000000000000000, -11.49999999999999600, 2.000000000000000000 ) ) ;
#216 = DIRECTION ( 'NONE',  ( 0.7071067811865489100, -0.7071067811865462400, 0.0000000000000000000 ) ) ;
#217 =( NAMED_UNIT ( * ) PLANE_ANGLE_UNIT ( ) SI_UNIT ( $, .RADIAN. ) );
#218 = CARTESIAN_POINT ( 'NONE',  ( -5.727564927611036100, -9.540979117872439000E-015, 0.0000000000000000000 ) ) ;
#219 = CARTESIAN_POINT ( 'NONE',  ( -2.112515728529184100E-015, -11.50000000000000000, 0.0000000000000000000 ) ) ;
#220 = LINE ( 'NONE', #215, #53 ) ;
#221 = LINE ( 'NONE', #228, #18 ) ;
#222 = CARTESIAN_POINT ( 'NONE',  ( 5.727564927611035200, 1.084202172485504400E-014, 0.0000000000000000000 ) ) ;
#223 = LINE ( 'NONE', #200, #25 ) ;
#224 = PLANE ( 'NONE',  #12 ) ;
#225 = CARTESIAN_POINT ( 'NONE',  ( -41.50000000000000000, 11.49999999999999600, 0.0000000000000000000 ) ) ;
#226 = DIRECTION ( 'NONE',  ( -0.7071067811865489100, 0.7071067811865462400, 0.0000000000000000000 ) ) ;
#227 = LINE ( 'NONE', #191, #38 ) ;
#228 = CARTESIAN_POINT ( 'NONE',  ( 9.540979117872439000E-015, -5.727564927611034300, 2.000000000000000000 ) ) ;
#229 = DIRECTION ( 'NONE',  ( -1.000000000000000000, -8.360113137237623700E-017, -0.0000000000000000000 ) ) ;
#230 = CARTESIAN_POINT ( 'NONE',  ( -53.00000000000000000, 0.0000000000000000000, 2.000000000000000000 ) ) ;
#231 = LINE ( 'NONE', #196, #17 ) ;
#232 = CARTESIAN_POINT ( 'NONE',  ( -41.50000000000000000, 0.0000000000000000000, 0.0000000000000000000 ) ) ;
#233 = CARTESIAN_POINT ( 'NONE',  ( -41.50000000000000000, 0.0000000000000000000, 2.000000000000000000 ) ) ;
#234 = CARTESIAN_POINT ( 'NONE',  ( -41.50000000000000000, -11.49999999999999600, 0.0000000000000000000 ) ) ;
#235 = CARTESIAN_POINT ( 'NONE',  ( 0.0000000000000000000, 11.50000000000000000, 2.000000000000000000 ) ) ;
#236 = CARTESIAN_POINT ( 'NONE',  ( -53.00000000000000000, 0.0000000000000000000, 2.000000000000000000 ) ) ;
#237 = DIRECTION ( 'NONE',  ( -0.0000000000000000000, -0.0000000000000000000, -1.000000000000000000 ) ) ;
#238 = CARTESIAN_POINT ( 'NONE',  ( -53.00000000000000000, 0.0000000000000000000, 0.0000000000000000000 ) ) ;
#239 = DIRECTION ( 'NONE',  ( 1.000000000000000000, -8.360113137237623700E-017, 0.0000000000000000000 ) ) ;
#240 = CARTESIAN_POINT ( 'NONE',  ( -1.084202172485504400E-014, 5.727564927611034300, 0.0000000000000000000 ) ) ;
#241 = DIRECTION ( 'NONE',  ( 0.0000000000000000000, 0.0000000000000000000, 1.000000000000000000 ) ) ;
#242 = DIRECTION ( 'NONE',  ( 0.0000000000000000000, 0.0000000000000000000, 1.000000000000000000 ) ) ;
#243 = DIRECTION ( 'NONE',  ( 1.000000000000000000, 0.0000000000000000000, 0.0000000000000000000 ) ) ;
#244 = LINE ( 'NONE', #265, #43 ) ;
#245 = LINE ( 'NONE', #189, #4 ) ;
#246 = CARTESIAN_POINT ( 'NONE',  ( 0.0000000000000000000, 11.50000000000000000, 2.000000000000000000 ) ) ;
#247 = CARTESIAN_POINT ( 'NONE',  ( 0.0000000000000000000, 11.50000000000000000, 0.0000000000000000000 ) ) ;
#248 = DIRECTION ( 'NONE',  ( 0.0000000000000000000, 0.0000000000000000000, 1.000000000000000000 ) ) ;
#249 = CARTESIAN_POINT ( 'NONE',  ( -5.727564927611034300, -6.938893903907228400E-015, 0.0000000000000000000 ) ) ;
#250 = LINE ( 'NONE', #258, #20 ) ;
#251 = DIRECTION ( 'NONE',  ( -0.7071067811865463500, -0.7071067811865487900, -0.0000000000000000000 ) ) ;
#252 = CARTESIAN_POINT ( 'NONE',  ( -41.50000000000000000, 0.0000000000000000000, 2.000000000000000000 ) ) ;
#253 = CARTESIAN_POINT ( 'NONE',  ( -5.727564927611036100, -9.540979117872439000E-015, 2.000000000000000000 ) ) ;
#254 = CARTESIAN_POINT ( 'NONE',  ( -1.084202172485504400E-014, 5.727564927611034300, 0.0000000000000000000 ) ) ;
#255 = DIRECTION ( 'NONE',  ( 1.000000000000000000, 0.0000000000000000000, 0.0000000000000000000 ) ) ;
#256 = DIRECTION ( 'NONE',  ( 1.000000000000000000, 0.0000000000000000000, 0.0000000000000000000 ) ) ;
#257 = DIRECTION ( 'NONE',  ( -0.0000000000000000000, -0.0000000000000000000, -1.000000000000000000 ) ) ;
#258 = CARTESIAN_POINT ( 'NONE',  ( -41.50000000000000000, -11.49999999999999600, 0.0000000000000000000 ) ) ;
#259 = CARTESIAN_POINT ( 'NONE',  ( 9.540979117872439000E-015, -5.727564927611034300, 0.0000000000000000000 ) ) ;
#260 =( NAMED_UNIT ( * ) SI_UNIT ( $, .STERADIAN. ) SOLID_ANGLE_UNIT ( ) );
#261 = CARTESIAN_POINT ( 'NONE',  ( 9.540979117872439000E-015, -5.727564927611034300, 0.0000000000000000000 ) ) ;
#262 = DIRECTION ( 'NONE',  ( -0.0000000000000000000, -0.0000000000000000000, -1.000000000000000000 ) ) ;
#263 = DIRECTION ( 'NONE',  ( 0.7071067811865463500, 0.7071067811865487900, 0.0000000000000000000 ) ) ;
#264 = CARTESIAN_POINT ( 'NONE',  ( -2.112515728529184100E-015, -11.50000000000000000, 2.000000000000000000 ) ) ;
#265 = CARTESIAN_POINT ( 'NONE',  ( -5.727564927611036100, -9.540979117872439000E-015, 2.000000000000000000 ) ) ;
#266 = DIRECTION ( 'NONE',  ( -0.0000000000000000000, -0.0000000000000000000, -1.000000000000000000 ) ) ;
#267 = CARTESIAN_POINT ( 'NONE',  ( -1.084202172485504400E-014, 5.727564927611034300, 2.000000000000000000 ) ) ;
#268 = LINE ( 'NONE', #267, #36 ) ;
#269 = DIRECTION ( 'NONE',  ( -0.7071067811865489100, 0.7071067811865461300, -0.0000000000000000000 ) ) ;
#270 = CARTESIAN_POINT ( 'NONE',  ( -41.50000000000000000, -11.49999999999999600, 2.000000000000000000 ) ) ;
#271 = DIRECTION ( 'NONE',  ( -0.0000000000000000000, -0.0000000000000000000, -1.000000000000000000 ) ) ;
#272 = DIRECTION ( 'NONE',  ( 8.360113137237623700E-017, 1.000000000000000000, -0.0000000000000000000 ) ) ;
#273 = LINE ( 'NONE', #230, #46 ) ;
#274 = DIRECTION ( 'NONE',  ( -1.000000000000000000, -8.360113137237623700E-017, -0.0000000000000000000 ) ) ;
#275 = LINE ( 'NONE', #254, #41 ) ;
#276 = ORIENTED_EDGE ( 'NONE', *, *, #101, .T. ) ;
#277 = ORIENTED_EDGE ( 'NONE', *, *, #89, .F. ) ;
#278 = ORIENTED_EDGE ( 'NONE', *, *, #89, .T. ) ;
#279 = ORIENTED_EDGE ( 'NONE', *, *, #103, .T. ) ;
#280 = ORIENTED_EDGE ( 'NONE', *, *, #109, .F. ) ;
#281 = ORIENTED_EDGE ( 'NONE', *, *, #98, .F. ) ;
#282 = ORIENTED_EDGE ( 'NONE', *, *, #111, .T. ) ;
#283 = ORIENTED_EDGE ( 'NONE', *, *, #130, .T. ) ;
#284 = ORIENTED_EDGE ( 'NONE', *, *, #92, .F. ) ;
#285 = ORIENTED_EDGE ( 'NONE', *, *, #87, .T. ) ;
#286 = VERTEX_POINT ( 'NONE', #238 ) ;
#287 = EDGE_LOOP ( 'NONE', ( #373, #400, #336, #397 ) ) ;
#288 = VERTEX_POINT ( 'NONE', #225 ) ;
#289 = EDGE_LOOP ( 'NONE', ( #338, #326, #333, #360, #332 ) ) ;
#290 = ORIENTED_EDGE ( 'NONE', *, *, #96, .F. ) ;
#291 = ORIENTED_EDGE ( 'NONE', *, *, #112, .T. ) ;
#292 = ORIENTED_EDGE ( 'NONE', *, *, #110, .T. ) ;
#293 = EDGE_LOOP ( 'NONE', ( #340, #376, #348, #331 ) ) ;
#294 = EDGE_LOOP ( 'NONE', ( #322, #277, #368, #283 ) ) ;
#295 = ORIENTED_EDGE ( 'NONE', *, *, #83, .F. ) ;
#296 = VERTEX_POINT ( 'NONE', #261 ) ;
#297 = ORIENTED_EDGE ( 'NONE', *, *, #98, .T. ) ;
#298 = ORIENTED_EDGE ( 'NONE', *, *, #107, .F. ) ;
#299 = ORIENTED_EDGE ( 'NONE', *, *, #113, .F. ) ;
#300 = ORIENTED_EDGE ( 'NONE', *, *, #108, .F. ) ;
#301 = ORIENTED_EDGE ( 'NONE', *, *, #87, .F. ) ;
#302 = VERTEX_POINT ( 'NONE', #249 ) ;
#303 = VERTEX_POINT ( 'NONE', #219 ) ;
#304 = VERTEX_POINT ( 'NONE', #203 ) ;
#305 = ORIENTED_EDGE ( 'NONE', *, *, #85, .T. ) ;
#306 = EDGE_LOOP ( 'NONE', ( #330, #396, #339, #327, #370 ) ) ;
#307 = ORIENTED_EDGE ( 'NONE', *, *, #116, .F. ) ;
#308 = ORIENTED_EDGE ( 'NONE', *, *, #114, .T. ) ;
#309 = ORIENTED_EDGE ( 'NONE', *, *, #101, .F. ) ;
#310 = EDGE_LOOP ( 'NONE', ( #359, #377, #357, #401 ) ) ;
#311 = ORIENTED_EDGE ( 'NONE', *, *, #83, .T. ) ;
#312 = ORIENTED_EDGE ( 'NONE', *, *, #105, .T. ) ;
#313 = EDGE_LOOP ( 'NONE', ( #355, #366, #328, #343 ) ) ;
#314 = ORIENTED_EDGE ( 'NONE', *, *, #110, .F. ) ;
#315 = CARTESIAN_POINT ( 'NONE',  ( -5.727564927611036100, -9.540979117872439000E-015, 2.000000000000000000 ) ) ;
#316 = PLANE ( 'NONE',  #24 ) ;
#317 = CARTESIAN_POINT ( 'NONE',  ( 9.540979117872439000E-015, -5.727564927611034300, 2.000000000000000000 ) ) ;
#318 = LINE ( 'NONE', #315, #30 ) ;
#319 = DIRECTION ( 'NONE',  ( -0.0000000000000000000, -0.0000000000000000000, -1.000000000000000000 ) ) ;
#320 = CARTESIAN_POINT ( 'NONE',  ( -41.50000000000000000, 0.0000000000000000000, 2.000000000000000000 ) ) ;
#321 = VERTEX_POINT ( 'NONE', #236 ) ;
#322 = ORIENTED_EDGE ( 'NONE', *, *, #115, .T. ) ;
#323 = DIRECTION ( 'NONE',  ( -0.0000000000000000000, -0.0000000000000000000, -1.000000000000000000 ) ) ;
#324 = CARTESIAN_POINT ( 'NONE',  ( 0.0000000000000000000, 0.0000000000000000000, 2.000000000000000000 ) ) ;
#325 = DIRECTION ( 'NONE',  ( -0.0000000000000000000, -0.0000000000000000000, -1.000000000000000000 ) ) ;
#326 = ORIENTED_EDGE ( 'NONE', *, *, #128, .T. ) ;
#327 = ORIENTED_EDGE ( 'NONE', *, *, #115, .F. ) ;
#328 = ORIENTED_EDGE ( 'NONE', *, *, #109, .T. ) ;
#329 = DIRECTION ( 'NONE',  ( -0.0000000000000000000, -0.0000000000000000000, -1.000000000000000000 ) ) ;
#330 = ORIENTED_EDGE ( 'NONE', *, *, #104, .F. ) ;
#331 = ORIENTED_EDGE ( 'NONE', *, *, #130, .F. ) ;
#332 = ORIENTED_EDGE ( 'NONE', *, *, #116, .T. ) ;
#333 = ORIENTED_EDGE ( 'NONE', *, *, #106, .T. ) ;
#334 = DIRECTION ( 'NONE',  ( 1.000000000000000000, 0.0000000000000000000, -0.0000000000000000000 ) ) ;
#335 = EDGE_LOOP ( 'NONE', ( #290, #295, #282, #297 ) ) ;
#336 = ORIENTED_EDGE ( 'NONE', *, *, #111, .F. ) ;
#337 = PLANE ( 'NONE',  #37 ) ;
#338 = ORIENTED_EDGE ( 'NONE', *, *, #129, .T. ) ;
#339 = ORIENTED_EDGE ( 'NONE', *, *, #105, .F. ) ;
#340 = ORIENTED_EDGE ( 'NONE', *, *, #128, .F. ) ;
#341 = LINE ( 'NONE', #391, #50 ) ;
#342 = DIRECTION ( 'NONE',  ( 0.7071067811865489100, -0.7071067811865461300, 0.0000000000000000000 ) ) ;
#343 = ORIENTED_EDGE ( 'NONE', *, *, #104, .T. ) ;
#344 = DIRECTION ( 'NONE',  ( -0.0000000000000000000, -0.0000000000000000000, -1.000000000000000000 ) ) ;
#345 = CARTESIAN_POINT ( 'NONE',  ( -5.727564927611036100, -9.540979117872439000E-015, 2.000000000000000000 ) ) ;
#346 = EDGE_LOOP ( 'NONE', ( #298, #281, #291, #276 ) ) ;
#347 = VERTEX_POINT ( 'NONE', #234 ) ;
#348 = ORIENTED_EDGE ( 'NONE', *, *, #131, .T. ) ;
#349 = DIRECTION ( 'NONE',  ( 0.0000000000000000000, 0.0000000000000000000, 1.000000000000000000 ) ) ;
#350 = DIRECTION ( 'NONE',  ( 0.7071067811865463500, 0.7071067811865487900, 0.0000000000000000000 ) ) ;
#351 = VERTEX_POINT ( 'NONE', #264 ) ;
#352 = DIRECTION ( 'NONE',  ( -1.000000000000000000, 0.0000000000000000000, 0.0000000000000000000 ) ) ;
#353 = VERTEX_POINT ( 'NONE', #192 ) ;
#354 = DIRECTION ( 'NONE',  ( -0.0000000000000000000, -0.0000000000000000000, -1.000000000000000000 ) ) ;
#355 = ORIENTED_EDGE ( 'NONE', *, *, #127, .F. ) ;
#356 = EDGE_LOOP ( 'NONE', ( #312, #314, #284, #278 ) ) ;
#357 = ORIENTED_EDGE ( 'NONE', *, *, #108, .T. ) ;
#358 = VERTEX_POINT ( 'NONE', #199 ) ;
#359 = ORIENTED_EDGE ( 'NONE', *, *, #107, .T. ) ;
#360 = ORIENTED_EDGE ( 'NONE', *, *, #92, .T. ) ;
#361 = CARTESIAN_POINT ( 'NONE',  ( 9.540979117872439000E-015, -5.727564927611034300, 2.000000000000000000 ) ) ;
#362 = VERTEX_POINT ( 'NONE', #246 ) ;
#363 = EDGE_LOOP ( 'NONE', ( #300, #301, #308, #311 ) ) ;
#364 = CARTESIAN_POINT ( 'NONE',  ( -41.50000000000000000, 0.0000000000000000000, 2.000000000000000000 ) ) ;
#365 = DIRECTION ( 'NONE',  ( 0.0000000000000000000, 0.0000000000000000000, 1.000000000000000000 ) ) ;
#366 = ORIENTED_EDGE ( 'NONE', *, *, #129, .F. ) ;
#367 = VERTEX_POINT ( 'NONE', #205 ) ;
#368 = ORIENTED_EDGE ( 'NONE', *, *, #106, .F. ) ;
#369 = EDGE_LOOP ( 'NONE', ( #279, #280, #307, #292 ) ) ;
#370 = ORIENTED_EDGE ( 'NONE', *, *, #131, .F. ) ;
#371 = DIRECTION ( 'NONE',  ( 0.0000000000000000000, 0.0000000000000000000, 1.000000000000000000 ) ) ;
#372 = DIRECTION ( 'NONE',  ( 1.000000000000000000, 0.0000000000000000000, 0.0000000000000000000 ) ) ;
#373 = ORIENTED_EDGE ( 'NONE', *, *, #85, .F. ) ;
#374 = LINE ( 'NONE', #394, #16 ) ;
#375 = LINE ( 'NONE', #387, #40 ) ;
#376 = ORIENTED_EDGE ( 'NONE', *, *, #127, .T. ) ;
#377 = ORIENTED_EDGE ( 'NONE', *, *, #113, .T. ) ;
#378 = DIRECTION ( 'NONE',  ( 0.7071067811865487900, -0.7071067811865463500, 0.0000000000000000000 ) ) ;
#379 = DIRECTION ( 'NONE',  ( 0.7071067811865463500, 0.7071067811865487900, 0.0000000000000000000 ) ) ;
#380 = VERTEX_POINT ( 'NONE', #240 ) ;
#381 = VERTEX_POINT ( 'NONE', #222 ) ;
#382 = PLANE ( 'NONE',  #52 ) ;
#383 = PLANE ( 'NONE',  #49 ) ;
#384 = CARTESIAN_POINT ( 'NONE',  ( -41.50000000000000000, 0.0000000000000000000, 2.000000000000000000 ) ) ;
#385 = CARTESIAN_POINT ( 'NONE',  ( -1.084202172485504400E-014, 5.727564927611034300, 2.000000000000000000 ) ) ;
#386 = LINE ( 'NONE', #361, #22 ) ;
#387 = CARTESIAN_POINT ( 'NONE',  ( -1.084202172485504400E-014, 5.727564927611034300, 2.000000000000000000 ) ) ;
#388 = EDGE_LOOP ( 'NONE', ( #299, #309, #305, #285 ) ) ;
#389 = VERTEX_POINT ( 'NONE', #270 ) ;
#390 = DIRECTION ( 'NONE',  ( -1.000000000000000000, 0.0000000000000000000, 0.0000000000000000000 ) ) ;
#391 = CARTESIAN_POINT ( 'NONE',  ( -2.112515728529184100E-015, -11.50000000000000000, 2.000000000000000000 ) ) ;
#392 = VERTEX_POINT ( 'NONE', #213 ) ;
#393 = DIRECTION ( 'NONE',  ( 1.000000000000000000, 0.0000000000000000000, -0.0000000000000000000 ) ) ;
#394 = CARTESIAN_POINT ( 'NONE',  ( 5.727564927611035200, 1.084202172485504400E-014, 2.000000000000000000 ) ) ;
#395 = DIRECTION ( 'NONE',  ( -0.7071067811865461300, -0.7071067811865489100, 0.0000000000000000000 ) ) ;
#396 = ORIENTED_EDGE ( 'NONE', *, *, #103, .F. ) ;
#397 = ORIENTED_EDGE ( 'NONE', *, *, #114, .F. ) ;
#398 = VERTEX_POINT ( 'NONE', #247 ) ;
#399 = PLANE ( 'NONE',  #27 ) ;
#400 = ORIENTED_EDGE ( 'NONE', *, *, #112, .F. ) ;
#401 = ORIENTED_EDGE ( 'NONE', *, *, #96, .T. ) ;
#402 = CARTESIAN_POINT ( 'NONE',  ( -41.50000000000000000, 0.0000000000000000000, 0.0000000000000000000 ) ) ;
#403 = PLANE ( 'NONE',  #15 ) ;
#404 = DIRECTION ( 'NONE',  ( 8.360113137237623700E-017, -1.000000000000000000, 0.0000000000000000000 ) ) ;
#405 = DIRECTION ( 'NONE',  ( -1.000000000000000000, 0.0000000000000000000, 0.0000000000000000000 ) ) ;
#406 = LINE ( 'NONE', #409, #44 ) ;
#407 = DIRECTION ( 'NONE',  ( 1.000000000000000000, 8.360113137237623700E-017, 0.0000000000000000000 ) ) ;
#408 = CARTESIAN_POINT ( 'NONE',  ( -41.50000000000000000, 11.49999999999999600, 2.000000000000000000 ) ) ;
#409 = CARTESIAN_POINT ( 'NONE',  ( -5.727564927611036100, -9.540979117872439000E-015, 0.0000000000000000000 ) ) ;
#410 = DIRECTION ( 'NONE',  ( -0.7071067811865463500, -0.7071067811865487900, -0.0000000000000000000 ) ) ;
#411 = CARTESIAN_POINT ( 'NONE',  ( 0.0000000000000000000, 0.0000000000000000000, 2.000000000000000000 ) ) ;
#412 = DIRECTION ( 'NONE',  ( -0.0000000000000000000, -0.0000000000000000000, -1.000000000000000000 ) ) ;
ENDSEC;
END-ISO-10303-21;
