ISO-10303-21;
HEADER;
FILE_DESCRIPTION (( 'STEP AP203' ),
    '1' );
FILE_NAME ('sone3D.STEP',
    '2013-08-05T09:01:30',
    ( '' ),
    ( '' ),
    'SwSTEP 2.0',
    'SolidWorks 2012',
    '' );
FILE_SCHEMA (( 'CONFIG_CONTROL_DESIGN' ));
ENDSEC;

DATA;
#1 = CC_DESIGN_APPROVAL ( #355, ( #347 ) ) ;
#2 = VECTOR ( 'NONE', #262, 1000.000000000000100 ) ;
#3 = AXIS2_PLACEMENT_3D ( 'NONE', #246, #245, #219 ) ;
#4 = AXIS2_PLACEMENT_3D ( 'NONE', #92, #63, #89 ) ;
#5 = AXIS2_PLACEMENT_3D ( 'NONE', #238, #239, #258 ) ;
#6 = VECTOR ( 'NONE', #216, 999.9999999999998900 ) ;
#7 = VECTOR ( 'NONE', #235, 1000.000000000000000 ) ;
#8 = APPROVAL_PERSON_ORGANIZATION ( #66, #355, #94 ) ;
#9 = FACE_OUTER_BOUND ( 'NONE', #132, .T. ) ;
#10 = CC_DESIGN_APPROVAL ( #350, ( #39 ) ) ;
#11 = APPROVAL_PERSON_ORGANIZATION ( #74, #341, #71 ) ;
#12 = CALENDAR_DATE ( 2013, 5, 8 ) ;
#13 = VECTOR ( 'NONE', #279, 1000.000000000000100 ) ;
#14 = AXIS2_PLACEMENT_3D ( 'NONE', #269, #257, #256 ) ;
#15 = CALENDAR_DATE ( 2013, 5, 8 ) ;
#16 = VECTOR ( 'NONE', #250, 1000.000000000000200 ) ;
#17 = CC_DESIGN_SECURITY_CLASSIFICATION ( #39, ( #44 ) ) ;
#18 = APPROVAL_PERSON_ORGANIZATION ( #61, #350, #91 ) ;
#19 = FACE_OUTER_BOUND ( 'NONE', #143, .T. ) ;
#20 = AXIS2_PLACEMENT_3D ( 'NONE', #186, #183, #229 ) ;
#21 = FACE_OUTER_BOUND ( 'NONE', #165, .T. ) ;
#22 = AXIS2_PLACEMENT_3D ( 'NONE', #276, #275, #273 ) ;
#23 = FACE_BOUND ( 'NONE', #138, .T. ) ;
#24 = VECTOR ( 'NONE', #240, 1000.000000000000200 ) ;
#25 = FACE_OUTER_BOUND ( 'NONE', #124, .T. ) ;
#26 = CC_DESIGN_APPROVAL ( #341, ( #44 ) ) ;
#27 = FACE_BOUND ( 'NONE', #147, .T. ) ;
#28 = COORDINATED_UNIVERSAL_TIME_OFFSET ( 9, 0, .AHEAD. ) ;
#29 = CALENDAR_DATE ( 2013, 5, 8 ) ;
#30 = AXIS2_PLACEMENT_3D ( 'NONE', #237, #232, #242 ) ;
#31 = AXIS2_PLACEMENT_3D ( 'NONE', #231, #187, #212 ) ;
#32 = AXIS2_PLACEMENT_3D ( 'NONE', #243, #261, #184 ) ;
#33 = VECTOR ( 'NONE', #254, 999.9999999999998900 ) ;
#34 = COORDINATED_UNIVERSAL_TIME_OFFSET ( 9, 0, .AHEAD. ) ;
#35 = FACE_OUTER_BOUND ( 'NONE', #157, .T. ) ;
#36 = COORDINATED_UNIVERSAL_TIME_OFFSET ( 9, 0, .AHEAD. ) ;
#37 = VECTOR ( 'NONE', #222, 1000.000000000000200 ) ;
#38 = CALENDAR_DATE ( 2013, 5, 8 ) ;
#39 = SECURITY_CLASSIFICATION ( '', '', #62 ) ;
#40 = VECTOR ( 'NONE', #320, 1000.000000000000200 ) ;
#41 = VECTOR ( 'NONE', #189, 1000.000000000000000 ) ;
#42 = AXIS2_PLACEMENT_3D ( 'NONE', #286, #285, #284 ) ;
#43 = CYLINDRICAL_SURFACE ( 'NONE', #14, 5.000000000000004400 ) ;
#44 = PRODUCT_DEFINITION_FORMATION_WITH_SPECIFIED_SOURCE ( 'ANY', '', #180, .NOT_KNOWN. ) ;
#45 = COORDINATED_UNIVERSAL_TIME_OFFSET ( 9, 0, .AHEAD. ) ;
#46 = CALENDAR_DATE ( 2013, 5, 8 ) ;
#47 = CYLINDRICAL_SURFACE ( 'NONE', #31, 5.000000000000004400 ) ;
#48 = AXIS2_PLACEMENT_3D ( 'NONE', #278, #277, #272 ) ;
#49 = FACE_OUTER_BOUND ( 'NONE', #107, .T. ) ;
#50 = VECTOR ( 'NONE', #281, 1000.000000000000000 ) ;
#51 = COORDINATED_UNIVERSAL_TIME_OFFSET ( 9, 0, .AHEAD. ) ;
#52 = ORGANIZATION ( 'UNSPECIFIED', 'UNSPECIFIED', '' ) ;
#53 = FACE_OUTER_BOUND ( 'NONE', #100, .T. ) ;
#54 = VECTOR ( 'NONE', #267, 999.9999999999998900 ) ;
#55 = FACE_OUTER_BOUND ( 'NONE', #122, .T. ) ;
#56 = AXIS2_PLACEMENT_3D ( 'NONE', #211, #207, #208 ) ;
#57 = AXIS2_PLACEMENT_3D ( 'NONE', #190, #227, #215 ) ;
#58 = FACE_OUTER_BOUND ( 'NONE', #136, .T. ) ;
#59 = PERSON_AND_ORGANIZATION_ROLE ( 'design_supplier' ) ;
#60 = PERSON_AND_ORGANIZATION ( #177, #52 ) ;
#61 = PERSON_AND_ORGANIZATION ( #177, #52 ) ;
#62 = SECURITY_CLASSIFICATION_LEVEL ( 'unclassified' ) ;
#63 = DIRECTION ( 'NONE',  ( 0.0000000000000000000, 0.0000000000000000000, 1.000000000000000000 ) ) ;
#64 = PERSON_AND_ORGANIZATION_ROLE ( 'design_owner' ) ;
#65 = MECHANICAL_CONTEXT ( 'NONE', #175, 'mechanical' ) ;
#66 = PERSON_AND_ORGANIZATION ( #177, #52 ) ;
#67 = APPROVAL_STATUS ( 'not_yet_approved' ) ;
#68 = APPLICATION_PROTOCOL_DEFINITION ( 'international standard', 'config_control_design', 1994, #174 ) ;
#69 = PERSON_AND_ORGANIZATION ( #177, #52 ) ;
#70 = DATE_AND_TIME ( #12, #353 ) ;
#71 = APPROVAL_ROLE ( '' ) ;
#72 = APPROVAL_STATUS ( 'not_yet_approved' ) ;
#73 = APPROVAL_DATE_TIME ( #70, #341 ) ;
#74 = PERSON_AND_ORGANIZATION ( #177, #52 ) ;
#75 = SHAPE_DEFINITION_REPRESENTATION ( #323, #179 ) ;
#76 = PERSON_AND_ORGANIZATION ( #177, #52 ) ;
#77 = APPROVAL_DATE_TIME ( #81, #355 ) ;
#78 = PERSON_AND_ORGANIZATION ( #177, #52 ) ;
#79 = DATE_AND_TIME ( #15, #328 ) ;
#80 = PERSON_AND_ORGANIZATION_ROLE ( 'creator' ) ;
#81 = DATE_AND_TIME ( #29, #336 ) ;
#82 = DATE_TIME_ROLE ( 'creation_date' ) ;
#83 = PERSON_AND_ORGANIZATION_ROLE ( 'creator' ) ;
#84 = DATE_TIME_ROLE ( 'classification_date' ) ;
#85 = DATE_AND_TIME ( #38, #332 ) ;
#86 = PERSON_AND_ORGANIZATION_ROLE ( 'classification_officer' ) ;
#87 = APPROVAL_DATE_TIME ( #95, #350 ) ;
#88 = APPROVAL_STATUS ( 'not_yet_approved' ) ;
#89 = DIRECTION ( 'NONE',  ( 1.000000000000000000, 0.0000000000000000000, 0.0000000000000000000 ) ) ;
#90 = PERSON_AND_ORGANIZATION ( #177, #52 ) ;
#91 = APPROVAL_ROLE ( '' ) ;
#92 = CARTESIAN_POINT ( 'NONE',  ( 0.0000000000000000000, 0.0000000000000000000, 0.0000000000000000000 ) ) ;
#93 = APPLICATION_PROTOCOL_DEFINITION ( 'international standard', 'config_control_design', 1994, #175 ) ;
#94 = APPROVAL_ROLE ( '' ) ;
#95 = DATE_AND_TIME ( #46, #337 ) ;
#96 = ORIENTED_EDGE ( 'NONE', *, *, #379, .T. ) ;
#97 = VERTEX_POINT ( 'NONE', #359 ) ;
#98 = VERTEX_POINT ( 'NONE', #321 ) ;
#99 = VERTEX_POINT ( 'NONE', #233 ) ;
#100 = EDGE_LOOP ( 'NONE', ( #150, #129, #161, #139 ) ) ;
#101 = ORIENTED_EDGE ( 'NONE', *, *, #393, .F. ) ;
#102 = VERTEX_POINT ( 'NONE', #251 ) ;
#103 = ORIENTED_EDGE ( 'NONE', *, *, #379, .F. ) ;
#104 = ORIENTED_EDGE ( 'NONE', *, *, #365, .T. ) ;
#105 = ORIENTED_EDGE ( 'NONE', *, *, #384, .F. ) ;
#106 = ORIENTED_EDGE ( 'NONE', *, *, #365, .F. ) ;
#107 = EDGE_LOOP ( 'NONE', ( #151, #135, #114, #148, #123 ) ) ;
#108 = ORIENTED_EDGE ( 'NONE', *, *, #382, .T. ) ;
#109 = VERTEX_POINT ( 'NONE', #214 ) ;
#110 = ORIENTED_EDGE ( 'NONE', *, *, #371, .F. ) ;
#111 = ORIENTED_EDGE ( 'NONE', *, *, #333, .F. ) ;
#112 = VERTEX_POINT ( 'NONE', #224 ) ;
#113 = VERTEX_POINT ( 'NONE', #209 ) ;
#114 = ORIENTED_EDGE ( 'NONE', *, *, #375, .T. ) ;
#115 = ORIENTED_EDGE ( 'NONE', *, *, #390, .F. ) ;
#116 = EDGE_LOOP ( 'NONE', ( #357, #168, #358, #158 ) ) ;
#117 = VERTEX_POINT ( 'NONE', #221 ) ;
#118 = EDGE_LOOP ( 'NONE', ( #144, #170, #145, #172 ) ) ;
#119 = ORIENTED_EDGE ( 'NONE', *, *, #338, .T. ) ;
#120 = ORIENTED_EDGE ( 'NONE', *, *, #327, .F. ) ;
#121 = ORIENTED_EDGE ( 'NONE', *, *, #391, .T. ) ;
#122 = EDGE_LOOP ( 'NONE', ( #111, #160, #104, #152 ) ) ;
#123 = ORIENTED_EDGE ( 'NONE', *, *, #387, .T. ) ;
#124 = EDGE_LOOP ( 'NONE', ( #363, #362, #360, #361 ) ) ;
#125 = ORIENTED_EDGE ( 'NONE', *, *, #392, .T. ) ;
#126 = ORIENTED_EDGE ( 'NONE', *, *, #388, .T. ) ;
#127 = ORIENTED_EDGE ( 'NONE', *, *, #331, .F. ) ;
#128 = ORIENTED_EDGE ( 'NONE', *, *, #342, .T. ) ;
#129 = ORIENTED_EDGE ( 'NONE', *, *, #346, .F. ) ;
#130 = VERTEX_POINT ( 'NONE', #210 ) ;
#131 = ORIENTED_EDGE ( 'NONE', *, *, #375, .F. ) ;
#132 = EDGE_LOOP ( 'NONE', ( #162, #103, #127, #156, #140 ) ) ;
#133 = VERTEX_POINT ( 'NONE', #206 ) ;
#134 = VERTEX_POINT ( 'NONE', #225 ) ;
#135 = ORIENTED_EDGE ( 'NONE', *, *, #384, .T. ) ;
#136 = EDGE_LOOP ( 'NONE', ( #96, #142, #149, #128 ) ) ;
#137 = VERTEX_POINT ( 'NONE', #226 ) ;
#138 = EDGE_LOOP ( 'NONE', ( #167, #101, #106, #155 ) ) ;
#139 = ORIENTED_EDGE ( 'NONE', *, *, #371, .T. ) ;
#140 = ORIENTED_EDGE ( 'NONE', *, *, #382, .F. ) ;
#141 = VERTEX_POINT ( 'NONE', #223 ) ;
#142 = ORIENTED_EDGE ( 'NONE', *, *, #366, .F. ) ;
#143 = EDGE_LOOP ( 'NONE', ( #146, #110, #163, #126 ) ) ;
#144 = ORIENTED_EDGE ( 'NONE', *, *, #392, .F. ) ;
#145 = ORIENTED_EDGE ( 'NONE', *, *, #393, .T. ) ;
#146 = ORIENTED_EDGE ( 'NONE', *, *, #338, .F. ) ;
#147 = EDGE_LOOP ( 'NONE', ( #125, #121, #119, #356 ) ) ;
#148 = ORIENTED_EDGE ( 'NONE', *, *, #343, .T. ) ;
#149 = ORIENTED_EDGE ( 'NONE', *, *, #387, .F. ) ;
#150 = ORIENTED_EDGE ( 'NONE', *, *, #391, .F. ) ;
#151 = ORIENTED_EDGE ( 'NONE', *, *, #367, .T. ) ;
#152 = ORIENTED_EDGE ( 'NONE', *, *, #335, .T. ) ;
#153 = ORIENTED_EDGE ( 'NONE', *, *, #390, .T. ) ;
#154 = VERTEX_POINT ( 'NONE', #218 ) ;
#155 = ORIENTED_EDGE ( 'NONE', *, *, #377, .F. ) ;
#156 = ORIENTED_EDGE ( 'NONE', *, *, #389, .F. ) ;
#157 = EDGE_LOOP ( 'NONE', ( #120, #131, #153, #166 ) ) ;
#158 = ORIENTED_EDGE ( 'NONE', *, *, #366, .T. ) ;
#159 = VERTEX_POINT ( 'NONE', #205 ) ;
#160 = ORIENTED_EDGE ( 'NONE', *, *, #388, .F. ) ;
#161 = ORIENTED_EDGE ( 'NONE', *, *, #373, .T. ) ;
#162 = ORIENTED_EDGE ( 'NONE', *, *, #368, .F. ) ;
#163 = ORIENTED_EDGE ( 'NONE', *, *, #377, .T. ) ;
#164 = ORIENTED_EDGE ( 'NONE', *, *, #364, .T. ) ;
#165 = EDGE_LOOP ( 'NONE', ( #108, #115, #105, #164 ) ) ;
#166 = ORIENTED_EDGE ( 'NONE', *, *, #389, .T. ) ;
#167 = ORIENTED_EDGE ( 'NONE', *, *, #373, .F. ) ;
#168 = ORIENTED_EDGE ( 'NONE', *, *, #364, .F. ) ;
#169 = VERTEX_POINT ( 'NONE', #204 ) ;
#170 = ORIENTED_EDGE ( 'NONE', *, *, #335, .F. ) ;
#171 = VERTEX_POINT ( 'NONE', #203 ) ;
#172 = ORIENTED_EDGE ( 'NONE', *, *, #346, .T. ) ;
#173 = VERTEX_POINT ( 'NONE', #202 ) ;
#174 = APPLICATION_CONTEXT ( 'configuration controlled 3d designs of mechanical parts and assemblies' ) ;
#175 = APPLICATION_CONTEXT ( 'configuration controlled 3d designs of mechanical parts and assemblies' ) ;
#176 = MANIFOLD_SOLID_BREP ( 'ÎÞ½ - µoµ1', #406 ) ;
#177 = PERSON ( 'UNSPECIFIED', 'UNSPECIFIED', 'UNSPECIFIED', ('UNSPECIFIED'), ('UNSPECIFIED'), ('UNSPECIFIED') ) ;
#178 = UNCERTAINTY_MEASURE_WITH_UNIT (LENGTH_MEASURE( 1.000000000000000100E-005 ), #188, 'distance_accuracy_value', 'NONE');
#179 = ADVANCED_BREP_SHAPE_REPRESENTATION ( 'sone3D', ( #176, #4 ), #394 ) ;
#180 = PRODUCT ( 'sone3D', 'sone3D', '', ( #65 ) ) ;
#181 = PLANE ( 'NONE',  #57 ) ;
#182 = LINE ( 'NONE', #274, #41 ) ;
#183 = DIRECTION ( 'NONE',  ( 0.0000000000000000000, 0.0000000000000000000, 1.000000000000000000 ) ) ;
#184 = DIRECTION ( 'NONE',  ( 0.9986139979479091700, 0.05263157894736841800, 0.0000000000000000000 ) ) ;
#185 = LINE ( 'NONE', #263, #13 ) ;
#186 = CARTESIAN_POINT ( 'NONE',  ( -95.00000000000000000, 0.0000000000000000000, 3.000000000000000000 ) ) ;
#187 = DIRECTION ( 'NONE',  ( -0.0000000000000000000, -0.0000000000000000000, -1.000000000000000000 ) ) ;
#188 =( LENGTH_UNIT ( ) NAMED_UNIT ( * ) SI_UNIT ( .MILLI., .METRE. ) );
#189 = DIRECTION ( 'NONE',  ( -0.0000000000000000000, -0.0000000000000000000, -1.000000000000000000 ) ) ;
#190 = CARTESIAN_POINT ( 'NONE',  ( -95.26315789473683500, -4.993069989739548300, 3.000000000000000000 ) ) ;
#191 = CARTESIAN_POINT ( 'NONE',  ( -9.403577088048195000E-016, -5.656854249492378800, 3.000000000000000000 ) ) ;
#192 = CARTESIAN_POINT ( 'NONE',  ( -9.403577088048195000E-016, -5.656854249492378800, 0.0000000000000000000 ) ) ;
#193 = CARTESIAN_POINT ( 'NONE',  ( -5.656854249492379700, 6.024538613726910000E-017, 0.0000000000000000000 ) ) ;
#194 = LINE ( 'NONE', #193, #409 ) ;
#195 = CARTESIAN_POINT ( 'NONE',  ( -95.00000000000000000, 0.0000000000000000000, 3.000000000000000000 ) ) ;
#196 = DIRECTION ( 'NONE',  ( 1.000000000000000000, 0.0000000000000000000, 0.0000000000000000000 ) ) ;
#197 = DIRECTION ( 'NONE',  ( 0.0000000000000000000, 0.0000000000000000000, 1.000000000000000000 ) ) ;
#198 = CARTESIAN_POINT ( 'NONE',  ( -95.00000000000000000, 0.0000000000000000000, 0.0000000000000000000 ) ) ;
#199 = DIRECTION ( 'NONE',  ( -0.0000000000000000000, -0.0000000000000000000, -1.000000000000000000 ) ) ;
#200 = CARTESIAN_POINT ( 'NONE',  ( -100.0000000000000000, 0.0000000000000000000, 3.000000000000000000 ) ) ;
#201 = LINE ( 'NONE', #200, #398 ) ;
#202 = CARTESIAN_POINT ( 'NONE',  ( -5.656854249492379700, 6.024538613726910000E-017, 0.0000000000000000000 ) ) ;
#203 = CARTESIAN_POINT ( 'NONE',  ( -95.26315789473683500, 4.993069989739548300, 0.0000000000000000000 ) ) ;
#204 = CARTESIAN_POINT ( 'NONE',  ( -100.0000000000000000, 0.0000000000000000000, 0.0000000000000000000 ) ) ;
#205 = CARTESIAN_POINT ( 'NONE',  ( -5.656854249492378800, 4.336808689942017700E-016, 3.000000000000000000 ) ) ;
#206 = CARTESIAN_POINT ( 'NONE',  ( -0.5263157894736845100, -9.986139979479098400, 0.0000000000000000000 ) ) ;
#207 = DIRECTION ( 'NONE',  ( 0.0000000000000000000, 0.0000000000000000000, 1.000000000000000000 ) ) ;
#208 = DIRECTION ( 'NONE',  ( 1.000000000000000000, 0.0000000000000000000, -0.0000000000000000000 ) ) ;
#209 = CARTESIAN_POINT ( 'NONE',  ( -9.403577088048195000E-016, -5.656854249492378800, 3.000000000000000000 ) ) ;
#210 = CARTESIAN_POINT ( 'NONE',  ( -95.26315789473683500, -4.993069989739548300, 3.000000000000000000 ) ) ;
#211 = CARTESIAN_POINT ( 'NONE',  ( 0.0000000000000000000, 0.0000000000000000000, 0.0000000000000000000 ) ) ;
#212 = DIRECTION ( 'NONE',  ( -1.000000000000000000, 0.0000000000000000000, 0.0000000000000000000 ) ) ;
#213 = LINE ( 'NONE', #247, #37 ) ;
#214 = CARTESIAN_POINT ( 'NONE',  ( -8.673617379884035500E-016, -5.656854249492377900, 0.0000000000000000000 ) ) ;
#215 = DIRECTION ( 'NONE',  ( -0.9986139979479091700, 0.05263157894736845300, 0.0000000000000000000 ) ) ;
#216 = DIRECTION ( 'NONE',  ( -0.7071067811865477900, -0.7071067811865473500, 0.0000000000000000000 ) ) ;
#217 = CARTESIAN_POINT ( 'NONE',  ( -95.26315789473683500, -4.993069989739548300, 0.0000000000000000000 ) ) ;
#218 = CARTESIAN_POINT ( 'NONE',  ( -95.26315789473683500, 4.993069989739548300, 3.000000000000000000 ) ) ;
#219 = DIRECTION ( 'NONE',  ( 0.7071067811865474600, -0.7071067811865476800, 0.0000000000000000000 ) ) ;
#220 = PLANE ( 'NONE',  #3 ) ;
#221 = CARTESIAN_POINT ( 'NONE',  ( -95.26315789473683500, -4.993069989739548300, 0.0000000000000000000 ) ) ;
#222 = DIRECTION ( 'NONE',  ( -0.9986139979479091700, -0.05263157894736841800, 0.0000000000000000000 ) ) ;
#223 = CARTESIAN_POINT ( 'NONE',  ( -0.5263157894736848500, 9.986139979479094800, 0.0000000000000000000 ) ) ;
#224 = CARTESIAN_POINT ( 'NONE',  ( 2.912829318400250000E-016, 5.656854249492377900, 3.000000000000000000 ) ) ;
#225 = CARTESIAN_POINT ( 'NONE',  ( -100.0000000000000000, 0.0000000000000000000, 3.000000000000000000 ) ) ;
#226 = CARTESIAN_POINT ( 'NONE',  ( -0.5263157894736848500, 9.986139979479094800, 3.000000000000000000 ) ) ;
#227 = DIRECTION ( 'NONE',  ( 0.05263157894736846000, 0.9986139979479092800, -0.0000000000000000000 ) ) ;
#228 = LINE ( 'NONE', #230, #6 ) ;
#229 = DIRECTION ( 'NONE',  ( 1.000000000000000000, 0.0000000000000000000, 0.0000000000000000000 ) ) ;
#230 = CARTESIAN_POINT ( 'NONE',  ( 2.912829318400250000E-016, 5.656854249492377900, 3.000000000000000000 ) ) ;
#231 = CARTESIAN_POINT ( 'NONE',  ( -95.00000000000000000, 0.0000000000000000000, 3.000000000000000000 ) ) ;
#232 = DIRECTION ( 'NONE',  ( 0.0000000000000000000, 0.0000000000000000000, 1.000000000000000000 ) ) ;
#233 = CARTESIAN_POINT ( 'NONE',  ( 5.656854249492378800, -3.775924206341965300E-015, 3.000000000000000000 ) ) ;
#234 = LINE ( 'NONE', #241, #24 ) ;
#235 = DIRECTION ( 'NONE',  ( -0.0000000000000000000, -0.0000000000000000000, -1.000000000000000000 ) ) ;
#236 = LINE ( 'NONE', #255, #7 ) ;
#237 = CARTESIAN_POINT ( 'NONE',  ( 0.0000000000000000000, 0.0000000000000000000, 3.000000000000000000 ) ) ;
#238 = CARTESIAN_POINT ( 'NONE',  ( -95.00000000000000000, 0.0000000000000000000, 0.0000000000000000000 ) ) ;
#239 = DIRECTION ( 'NONE',  ( 0.0000000000000000000, 0.0000000000000000000, 1.000000000000000000 ) ) ;
#240 = DIRECTION ( 'NONE',  ( 0.9986139979479091700, -0.05263157894736845300, 0.0000000000000000000 ) ) ;
#241 = CARTESIAN_POINT ( 'NONE',  ( -95.26315789473683500, -4.993069989739548300, 3.000000000000000000 ) ) ;
#242 = DIRECTION ( 'NONE',  ( 1.000000000000000000, 0.0000000000000000000, -0.0000000000000000000 ) ) ;
#243 = CARTESIAN_POINT ( 'NONE',  ( -0.5263157894736848500, 9.986139979479094800, 3.000000000000000000 ) ) ;
#244 = PLANE ( 'NONE',  #32 ) ;
#245 = DIRECTION ( 'NONE',  ( -0.7071067811865476800, -0.7071067811865474600, 0.0000000000000000000 ) ) ;
#246 = CARTESIAN_POINT ( 'NONE',  ( 5.656854249492378800, -3.775924206341965300E-015, 3.000000000000000000 ) ) ;
#247 = CARTESIAN_POINT ( 'NONE',  ( -0.5263157894736848500, 9.986139979479094800, 3.000000000000000000 ) ) ;
#248 = LINE ( 'NONE', #217, #40 ) ;
#249 = PLANE ( 'NONE',  #56 ) ;
#250 = DIRECTION ( 'NONE',  ( -0.9986139979479091700, -0.05263157894736841800, 0.0000000000000000000 ) ) ;
#251 = CARTESIAN_POINT ( 'NONE',  ( 2.912829318400250000E-016, 5.656854249492377900, 0.0000000000000000000 ) ) ;
#252 = CARTESIAN_POINT ( 'NONE',  ( -0.5263157894736848500, 9.986139979479094800, 0.0000000000000000000 ) ) ;
#253 = LINE ( 'NONE', #252, #16 ) ;
#254 = DIRECTION ( 'NONE',  ( 0.7071067811865479100, 0.7071067811865472400, 0.0000000000000000000 ) ) ;
#255 = CARTESIAN_POINT ( 'NONE',  ( -5.656854249492379700, 6.024538613726910000E-017, 3.000000000000000000 ) ) ;
#256 = DIRECTION ( 'NONE',  ( -1.000000000000000000, 0.0000000000000000000, 0.0000000000000000000 ) ) ;
#257 = DIRECTION ( 'NONE',  ( -0.0000000000000000000, -0.0000000000000000000, -1.000000000000000000 ) ) ;
#258 = DIRECTION ( 'NONE',  ( 1.000000000000000000, 0.0000000000000000000, 0.0000000000000000000 ) ) ;
#259 =( NAMED_UNIT ( * ) SI_UNIT ( $, .STERADIAN. ) SOLID_ANGLE_UNIT ( ) );
#260 = LINE ( 'NONE', #322, #404 ) ;
#261 = DIRECTION ( 'NONE',  ( 0.05263157894736842500, -0.9986139979479092800, 0.0000000000000000000 ) ) ;
#262 = DIRECTION ( 'NONE',  ( -0.7071067811865473500, 0.7071067811865476800, 0.0000000000000000000 ) ) ;
#263 = CARTESIAN_POINT ( 'NONE',  ( 5.656854249492378800, -3.775924206341965300E-015, 0.0000000000000000000 ) ) ;
#264 = LINE ( 'NONE', #191, #33 ) ;
#265 =( NAMED_UNIT ( * ) PLANE_ANGLE_UNIT ( ) SI_UNIT ( $, .RADIAN. ) );
#266 = LINE ( 'NONE', #192, #54 ) ;
#267 = DIRECTION ( 'NONE',  ( 0.7071067811865479100, 0.7071067811865472400, 0.0000000000000000000 ) ) ;
#268 = CARTESIAN_POINT ( 'NONE',  ( 5.656854249492378800, -3.775924206341965300E-015, 3.000000000000000000 ) ) ;
#269 = CARTESIAN_POINT ( 'NONE',  ( -95.00000000000000000, 0.0000000000000000000, 3.000000000000000000 ) ) ;
#270 = PLANE ( 'NONE',  #30 ) ;
#271 = LINE ( 'NONE', #268, #2 ) ;
#272 = DIRECTION ( 'NONE',  ( 0.7071067811865477900, 0.7071067811865473500, 0.0000000000000000000 ) ) ;
#273 = DIRECTION ( 'NONE',  ( -0.7071067811865475700, 0.7071067811865474600, 0.0000000000000000000 ) ) ;
#274 = CARTESIAN_POINT ( 'NONE',  ( -95.26315789473683500, 4.993069989739548300, 3.000000000000000000 ) ) ;
#275 = DIRECTION ( 'NONE',  ( 0.7071067811865474600, 0.7071067811865475700, -0.0000000000000000000 ) ) ;
#276 = CARTESIAN_POINT ( 'NONE',  ( -5.656854249492379700, 6.024538613726910000E-017, 3.000000000000000000 ) ) ;
#277 = DIRECTION ( 'NONE',  ( 0.7071067811865473500, -0.7071067811865477900, 0.0000000000000000000 ) ) ;
#278 = CARTESIAN_POINT ( 'NONE',  ( 2.912829318400250000E-016, 5.656854249492377900, 3.000000000000000000 ) ) ;
#279 = DIRECTION ( 'NONE',  ( -0.7071067811865473500, 0.7071067811865476800, 0.0000000000000000000 ) ) ;
#280 = PLANE ( 'NONE',  #48 ) ;
#281 = DIRECTION ( 'NONE',  ( -0.0000000000000000000, -0.0000000000000000000, -1.000000000000000000 ) ) ;
#282 = CARTESIAN_POINT ( 'NONE',  ( 2.912829318400250000E-016, 5.656854249492377900, 3.000000000000000000 ) ) ;
#283 = LINE ( 'NONE', #282, #50 ) ;
#284 = DIRECTION ( 'NONE',  ( -0.7071067811865479100, -0.7071067811865472400, 0.0000000000000000000 ) ) ;
#285 = DIRECTION ( 'NONE',  ( -0.7071067811865472400, 0.7071067811865479100, 0.0000000000000000000 ) ) ;
#286 = CARTESIAN_POINT ( 'NONE',  ( -9.403577088048195000E-016, -5.656854249492378800, 3.000000000000000000 ) ) ;
#287 = PLANE ( 'NONE',  #42 ) ;
#288 = DIRECTION ( 'NONE',  ( -1.000000000000000000, 0.0000000000000000000, 0.0000000000000000000 ) ) ;
#289 = DIRECTION ( 'NONE',  ( -0.0000000000000000000, -0.0000000000000000000, -1.000000000000000000 ) ) ;
#290 = CARTESIAN_POINT ( 'NONE',  ( 0.0000000000000000000, 0.0000000000000000000, 3.000000000000000000 ) ) ;
#291 = DIRECTION ( 'NONE',  ( 1.000000000000000000, 0.0000000000000000000, 0.0000000000000000000 ) ) ;
#292 = DIRECTION ( 'NONE',  ( 0.0000000000000000000, 0.0000000000000000000, 1.000000000000000000 ) ) ;
#293 = CARTESIAN_POINT ( 'NONE',  ( 0.0000000000000000000, 0.0000000000000000000, 0.0000000000000000000 ) ) ;
#294 = DIRECTION ( 'NONE',  ( 1.000000000000000000, 0.0000000000000000000, 0.0000000000000000000 ) ) ;
#295 = DIRECTION ( 'NONE',  ( 0.0000000000000000000, 0.0000000000000000000, 1.000000000000000000 ) ) ;
#296 = DIRECTION ( 'NONE',  ( -0.0000000000000000000, -0.0000000000000000000, -1.000000000000000000 ) ) ;
#297 = CARTESIAN_POINT ( 'NONE',  ( -0.5263157894736845100, -9.986139979479098400, 3.000000000000000000 ) ) ;
#298 = LINE ( 'NONE', #297, #401 ) ;
#299 = DIRECTION ( 'NONE',  ( 0.7071067811865475700, -0.7071067811865474600, 0.0000000000000000000 ) ) ;
#300 = CARTESIAN_POINT ( 'NONE',  ( -5.656854249492379700, 6.024538613726910000E-017, 3.000000000000000000 ) ) ;
#301 = LINE ( 'NONE', #300, #397 ) ;
#302 = DIRECTION ( 'NONE',  ( 0.7071067811865475700, -0.7071067811865474600, 0.0000000000000000000 ) ) ;
#303 = CARTESIAN_POINT ( 'NONE',  ( 0.0000000000000000000, 0.0000000000000000000, 3.000000000000000000 ) ) ;
#304 = DIRECTION ( 'NONE',  ( -0.0000000000000000000, -0.0000000000000000000, -1.000000000000000000 ) ) ;
#305 = CARTESIAN_POINT ( 'NONE',  ( -0.5263157894736848500, 9.986139979479094800, 3.000000000000000000 ) ) ;
#306 = DIRECTION ( 'NONE',  ( -0.0000000000000000000, -0.0000000000000000000, -1.000000000000000000 ) ) ;
#307 = CARTESIAN_POINT ( 'NONE',  ( 5.656854249492378800, -3.775924206341965300E-015, 3.000000000000000000 ) ) ;
#308 = LINE ( 'NONE', #307, #405 ) ;
#309 = LINE ( 'NONE', #305, #396 ) ;
#310 = DIRECTION ( 'NONE',  ( 1.000000000000000000, 0.0000000000000000000, 0.0000000000000000000 ) ) ;
#311 = DIRECTION ( 'NONE',  ( 0.0000000000000000000, 0.0000000000000000000, 1.000000000000000000 ) ) ;
#312 = DIRECTION ( 'NONE',  ( -0.0000000000000000000, -0.0000000000000000000, -1.000000000000000000 ) ) ;
#313 = CARTESIAN_POINT ( 'NONE',  ( -95.26315789473683500, -4.993069989739548300, 3.000000000000000000 ) ) ;
#314 = LINE ( 'NONE', #313, #408 ) ;
#315 = DIRECTION ( 'NONE',  ( -0.7071067811865477900, -0.7071067811865473500, 0.0000000000000000000 ) ) ;
#316 = CARTESIAN_POINT ( 'NONE',  ( 2.912829318400250000E-016, 5.656854249492377900, 0.0000000000000000000 ) ) ;
#317 = LINE ( 'NONE', #316, #400 ) ;
#318 = PLANE ( 'NONE',  #22 ) ;
#319 = DIRECTION ( 'NONE',  ( -0.0000000000000000000, -0.0000000000000000000, -1.000000000000000000 ) ) ;
#320 = DIRECTION ( 'NONE',  ( 0.9986139979479091700, -0.05263157894736845300, 0.0000000000000000000 ) ) ;
#321 = CARTESIAN_POINT ( 'NONE',  ( 5.656854249492378800, -3.775924206341965300E-015, 0.0000000000000000000 ) ) ;
#322 = CARTESIAN_POINT ( 'NONE',  ( -9.403577088048195000E-016, -5.656854249492378800, 3.000000000000000000 ) ) ;
#323 = PRODUCT_DEFINITION_SHAPE ( 'NONE', 'NONE',  #347 ) ;
#324 = DESIGN_CONTEXT ( 'detailed design', #174, 'design' ) ;
#325 = CIRCLE ( 'NONE', #20, 5.000000000000004400 ) ;
#326 = CC_DESIGN_PERSON_AND_ORGANIZATION_ASSIGNMENT ( #90, #59, ( #44 ) ) ;
#327 = EDGE_CURVE ( 'NONE', #134, #169, #201, .T. ) ;
#328 = LOCAL_TIME ( 18, 1, 30.00000000000000000, #28 ) ;
#329 = CC_DESIGN_PERSON_AND_ORGANIZATION_ASSIGNMENT ( #69, #64, ( #180 ) ) ;
#330 = CC_DESIGN_PERSON_AND_ORGANIZATION_ASSIGNMENT ( #76, #83, ( #44 ) ) ;
#331 = EDGE_CURVE ( 'NONE', #169, #117, #349, .T. ) ;
#332 = LOCAL_TIME ( 18, 1, 30.00000000000000000, #34 ) ;
#333 = EDGE_CURVE ( 'NONE', #173, #109, #194, .T. ) ;
#334 = PRODUCT_RELATED_PRODUCT_CATEGORY ( 'detail', '', ( #180 ) ) ;
#335 = EDGE_CURVE ( 'NONE', #113, #109, #260, .T. ) ;
#336 = LOCAL_TIME ( 18, 1, 30.00000000000000000, #45 ) ;
#337 = LOCAL_TIME ( 18, 1, 30.00000000000000000, #51 ) ;
#338 = EDGE_CURVE ( 'NONE', #102, #173, #317, .T. ) ;
#339 = CIRCLE ( 'NONE', #410, 10.00000000000000400 ) ;
#340 = CIRCLE ( 'NONE', #5, 5.000000000000004400 ) ;
#341 = APPROVAL ( #72, 'UNSPECIFIED' ) ;
#342 = EDGE_CURVE ( 'NONE', #130, #117, #314, .T. ) ;
#343 = EDGE_CURVE ( 'NONE', #134, #130, #354, .T. ) ;
#344 = CC_DESIGN_PERSON_AND_ORGANIZATION_ASSIGNMENT ( #78, #80, ( #347 ) ) ;
#345 = CIRCLE ( 'NONE', #395, 10.00000000000000400 ) ;
#346 = EDGE_CURVE ( 'NONE', #99, #98, #308, .T. ) ;
#347 = PRODUCT_DEFINITION ( 'UNKNOWN', '', #44, #324 ) ;
#348 = CC_DESIGN_DATE_AND_TIME_ASSIGNMENT ( #85, #84, ( #39 ) ) ;
#349 = CIRCLE ( 'NONE', #407, 5.000000000000004400 ) ;
#350 = APPROVAL ( #67, 'UNSPECIFIED' ) ;
#351 = CC_DESIGN_PERSON_AND_ORGANIZATION_ASSIGNMENT ( #60, #86, ( #39 ) ) ;
#352 = CC_DESIGN_DATE_AND_TIME_ASSIGNMENT ( #79, #82, ( #347 ) ) ;
#353 = LOCAL_TIME ( 18, 1, 30.00000000000000000, #36 ) ;
#354 = CIRCLE ( 'NONE', #403, 5.000000000000004400 ) ;
#355 = APPROVAL ( #88, 'UNSPECIFIED' ) ;
#356 = ORIENTED_EDGE ( 'NONE', *, *, #333, .T. ) ;
#357 = ORIENTED_EDGE ( 'NONE', *, *, #368, .T. ) ;
#358 = ORIENTED_EDGE ( 'NONE', *, *, #367, .F. ) ;
#359 = CARTESIAN_POINT ( 'NONE',  ( -0.5263157894736845100, -9.986139979479098400, 3.000000000000000000 ) ) ;
#360 = ORIENTED_EDGE ( 'NONE', *, *, #331, .T. ) ;
#361 = ORIENTED_EDGE ( 'NONE', *, *, #342, .F. ) ;
#362 = ORIENTED_EDGE ( 'NONE', *, *, #327, .T. ) ;
#363 = ORIENTED_EDGE ( 'NONE', *, *, #343, .F. ) ;
#364 = EDGE_CURVE ( 'NONE', #137, #141, #309, .T. ) ;
#365 = EDGE_CURVE ( 'NONE', #159, #113, #301, .T. ) ;
#366 = EDGE_CURVE ( 'NONE', #97, #133, #298, .T. ) ;
#367 = EDGE_CURVE ( 'NONE', #97, #137, #345, .T. ) ;
#368 = EDGE_CURVE ( 'NONE', #133, #141, #339, .T. ) ;
#369 = ADVANCED_FACE ( 'NONE', ( #411 ), #399, .T. ) ;
#370 = ADVANCED_FACE ( 'NONE', ( #402 ), #287, .T. ) ;
#371 = EDGE_CURVE ( 'NONE', #112, #102, #283, .T. ) ;
#372 = ADVANCED_FACE ( 'NONE', ( #19 ), #280, .T. ) ;
#373 = EDGE_CURVE ( 'NONE', #99, #112, #271, .T. ) ;
#374 = ADVANCED_FACE ( 'NONE', ( #25 ), #47, .T. ) ;
#375 = EDGE_CURVE ( 'NONE', #154, #134, #325, .T. ) ;
#376 = ADVANCED_FACE ( 'NONE', ( #58 ), #181, .F. ) ;
#377 = EDGE_CURVE ( 'NONE', #112, #159, #228, .T. ) ;
#378 = ADVANCED_FACE ( 'NONE', ( #53 ), #220, .T. ) ;
#379 = EDGE_CURVE ( 'NONE', #117, #133, #248, .T. ) ;
#380 = ADVANCED_FACE ( 'NONE', ( #55 ), #318, .T. ) ;
#381 = ADVANCED_FACE ( 'NONE', ( #35 ), #43, .T. ) ;
#382 = EDGE_CURVE ( 'NONE', #141, #171, #253, .T. ) ;
#383 = ADVANCED_FACE ( 'NONE', ( #9, #27 ), #249, .F. ) ;
#384 = EDGE_CURVE ( 'NONE', #137, #154, #213, .T. ) ;
#385 = ADVANCED_FACE ( 'NONE', ( #21 ), #244, .F. ) ;
#386 = ADVANCED_FACE ( 'NONE', ( #49, #23 ), #270, .T. ) ;
#387 = EDGE_CURVE ( 'NONE', #130, #97, #234, .T. ) ;
#388 = EDGE_CURVE ( 'NONE', #159, #173, #236, .T. ) ;
#389 = EDGE_CURVE ( 'NONE', #171, #169, #340, .T. ) ;
#390 = EDGE_CURVE ( 'NONE', #154, #171, #182, .T. ) ;
#391 = EDGE_CURVE ( 'NONE', #98, #102, #185, .T. ) ;
#392 = EDGE_CURVE ( 'NONE', #109, #98, #266, .T. ) ;
#393 = EDGE_CURVE ( 'NONE', #113, #99, #264, .T. ) ;
#394 =( GEOMETRIC_REPRESENTATION_CONTEXT ( 3 ) GLOBAL_UNCERTAINTY_ASSIGNED_CONTEXT ( ( #178 ) ) GLOBAL_UNIT_ASSIGNED_CONTEXT ( ( #188, #265, #259 ) ) REPRESENTATION_CONTEXT ( 'NONE', 'WORKASPACE' ) );
#395 = AXIS2_PLACEMENT_3D ( 'NONE', #303, #295, #294 ) ;
#396 = VECTOR ( 'NONE', #304, 1000.000000000000000 ) ;
#397 = VECTOR ( 'NONE', #299, 1000.000000000000000 ) ;
#398 = VECTOR ( 'NONE', #199, 1000.000000000000000 ) ;
#399 = CYLINDRICAL_SURFACE ( 'NONE', #412, 10.00000000000000400 ) ;
#400 = VECTOR ( 'NONE', #315, 999.9999999999998900 ) ;
#401 = VECTOR ( 'NONE', #296, 1000.000000000000000 ) ;
#402 = FACE_OUTER_BOUND ( 'NONE', #118, .T. ) ;
#403 = AXIS2_PLACEMENT_3D ( 'NONE', #195, #311, #310 ) ;
#404 = VECTOR ( 'NONE', #319, 1000.000000000000000 ) ;
#405 = VECTOR ( 'NONE', #306, 1000.000000000000000 ) ;
#406 = CLOSED_SHELL ( 'NONE', ( #374, #386, #383, #369, #385, #381, #376, #370, #378, #372, #380 ) ) ;
#407 = AXIS2_PLACEMENT_3D ( 'NONE', #198, #197, #196 ) ;
#408 = VECTOR ( 'NONE', #312, 1000.000000000000000 ) ;
#409 = VECTOR ( 'NONE', #302, 1000.000000000000000 ) ;
#410 = AXIS2_PLACEMENT_3D ( 'NONE', #293, #292, #291 ) ;
#411 = FACE_OUTER_BOUND ( 'NONE', #116, .T. ) ;
#412 = AXIS2_PLACEMENT_3D ( 'NONE', #290, #289, #288 ) ;
ENDSEC;
END-ISO-10303-21;
