ISO-10303-21;
HEADER;
FILE_DESCRIPTION (( 'STEP AP203' ),
    '1' );
FILE_NAME ('AC-1025-3.STEP',
    '2009-05-01T01:12:59',
    ( ' ' ),
    ( ' ' ),
    'SwSTEP 2.0',
    'SolidWorks 2007',
    '' );
FILE_SCHEMA (( 'CONFIG_CONTROL_DESIGN' ));
ENDSEC;

DATA;
#1 = VERTEX_POINT ( 'NONE', #135 ) ;
#2 = VERTEX_POINT ( 'NONE', #132 ) ;
#3 = VERTEX_POINT ( 'NONE', #131 ) ;
#4 = ORIENTED_EDGE ( 'NONE', *, *, #5, .F. ) ;
#5 = EDGE_CURVE ( 'NONE', #6, #3, #130, .T. ) ;
#6 = VERTEX_POINT ( 'NONE', #174 ) ;
#7 = ORIENTED_EDGE ( 'NONE', *, *, #8, .F. ) ;
#8 = EDGE_CURVE ( 'NONE', #44, #6, #156, .T. ) ;
#9 = ADVANCED_FACE ( 'NONE', ( #157, #176 ), #175, .F. ) ;
#10 = EDGE_LOOP ( 'NONE', ( #11, #39, #69, #70, #73 ) ) ;
#11 = ORIENTED_EDGE ( 'NONE', *, *, #36, .F. ) ;
#12 = ORIENTED_EDGE ( 'NONE', *, *, #26, .T. ) ;
#13 = ORIENTED_EDGE ( 'NONE', *, *, #134, .T. ) ;
#14 = EDGE_CURVE ( 'NONE', #16, #2, #220, .T. ) ;
#15 = ORIENTED_EDGE ( 'NONE', *, *, #14, .T. ) ;
#16 = VERTEX_POINT ( 'NONE', #221 ) ;
#17 =( NAMED_UNIT ( * ) SI_UNIT ( $, .STERADIAN. ) SOLID_ANGLE_UNIT ( ) );
#18 =( NAMED_UNIT ( * ) PLANE_ANGLE_UNIT ( ) SI_UNIT ( $, .RADIAN. ) );
#19 = EDGE_CURVE ( 'NONE', #89, #16, #228, .T. ) ;
#20 = ORIENTED_EDGE ( 'NONE', *, *, #21, .T. ) ;
#21 = EDGE_CURVE ( 'NONE', #22, #23, #180, .T. ) ;
#22 = VERTEX_POINT ( 'NONE', #183 ) ;
#23 = VERTEX_POINT ( 'NONE', #182 ) ;
#24 = ORIENTED_EDGE ( 'NONE', *, *, #57, .T. ) ;
#25 = VERTEX_POINT ( 'NONE', #181 ) ;
#26 = EDGE_CURVE ( 'NONE', #1, #88, #230, .T. ) ;
#27 = EDGE_LOOP ( 'NONE', ( #41, #45, #4, #7 ) ) ;
#28 = ORIENTED_EDGE ( 'NONE', *, *, #14, .F. ) ;
#29 = ORIENTED_EDGE ( 'NONE', *, *, #51, .T. ) ;
#30 = ORIENTED_EDGE ( 'NONE', *, *, #71, .T. ) ;
#31 = ADVANCED_FACE ( 'NONE', ( #202 ), #162, .F. ) ;
#32 = EDGE_LOOP ( 'NONE', ( #33, #34, #35, #120 ) ) ;
#33 = ORIENTED_EDGE ( 'NONE', *, *, #40, .T. ) ;
#34 = ORIENTED_EDGE ( 'NONE', *, *, #122, .F. ) ;
#35 = ORIENTED_EDGE ( 'NONE', *, *, #26, .F. ) ;
#36 = EDGE_CURVE ( 'NONE', #37, #38, #219, .T. ) ;
#37 = VERTEX_POINT ( 'NONE', #215 ) ;
#38 = VERTEX_POINT ( 'NONE', #214 ) ;
#39 = ORIENTED_EDGE ( 'NONE', *, *, #40, .F. ) ;
#40 = EDGE_CURVE ( 'NONE', #81, #37, #213, .T. ) ;
#41 = ORIENTED_EDGE ( 'NONE', *, *, #42, .F. ) ;
#42 = EDGE_CURVE ( 'NONE', #43, #44, #240, .T. ) ;
#43 = VERTEX_POINT ( 'NONE', #236 ) ;
#44 = VERTEX_POINT ( 'NONE', #235 ) ;
#45 = ORIENTED_EDGE ( 'NONE', *, *, #46, .F. ) ;
#46 = EDGE_CURVE ( 'NONE', #3, #43, #234, .T. ) ;
#47 = ADVANCED_FACE ( 'NONE', ( #201 ), #200, .F. ) ;
#48 = EDGE_LOOP ( 'NONE', ( #49, #50, #52, #53 ) ) ;
#49 = ORIENTED_EDGE ( 'NONE', *, *, #74, .T. ) ;
#50 = ORIENTED_EDGE ( 'NONE', *, *, #51, .F. ) ;
#51 = EDGE_CURVE ( 'NONE', #16, #72, #195, .T. ) ;
#52 = ORIENTED_EDGE ( 'NONE', *, *, #19, .F. ) ;
#53 = ORIENTED_EDGE ( 'NONE', *, *, #67, .T. ) ;
#54 = ADVANCED_FACE ( 'NONE', ( #191 ), #189, .T. ) ;
#55 = EDGE_LOOP ( 'NONE', ( #56, #28, #29, #30 ) ) ;
#56 = ORIENTED_EDGE ( 'NONE', *, *, #77, .F. ) ;
#57 = EDGE_CURVE ( 'NONE', #23, #25, #190, .T. ) ;
#58 = ORIENTED_EDGE ( 'NONE', *, *, #59, .T. ) ;
#59 = EDGE_CURVE ( 'NONE', #25, #60, #170, .T. ) ;
#60 = VERTEX_POINT ( 'NONE', #166 ) ;
#61 = ORIENTED_EDGE ( 'NONE', *, *, #62, .T. ) ;
#62 = EDGE_CURVE ( 'NONE', #60, #22, #165, .T. ) ;
#63 = ADVANCED_FACE ( 'NONE', ( #153 ), #152, .T. ) ;
#64 = EDGE_LOOP ( 'NONE', ( #65, #66, #68, #121 ) ) ;
#65 = ORIENTED_EDGE ( 'NONE', *, *, #36, .T. ) ;
#66 = ORIENTED_EDGE ( 'NONE', *, *, #67, .F. ) ;
#67 = EDGE_CURVE ( 'NONE', #89, #38, #151, .T. ) ;
#68 = ORIENTED_EDGE ( 'NONE', *, *, #87, .F. ) ;
#69 = ORIENTED_EDGE ( 'NONE', *, *, #80, .F. ) ;
#70 = ORIENTED_EDGE ( 'NONE', *, *, #71, .F. ) ;
#71 = EDGE_CURVE ( 'NONE', #72, #78, #143, .T. ) ;
#72 = VERTEX_POINT ( 'NONE', #138 ) ;
#73 = ORIENTED_EDGE ( 'NONE', *, *, #74, .F. ) ;
#74 = EDGE_CURVE ( 'NONE', #38, #72, #126, .T. ) ;
#75 = EDGE_LOOP ( 'NONE', ( #20, #24, #58, #61 ) ) ;
#76 = ORIENTED_EDGE ( 'NONE', *, *, #77, .T. ) ;
#77 = EDGE_CURVE ( 'NONE', #2, #78, #256, .T. ) ;
#78 = VERTEX_POINT ( 'NONE', #280 ) ;
#79 = ORIENTED_EDGE ( 'NONE', *, *, #80, .T. ) ;
#80 = EDGE_CURVE ( 'NONE', #78, #81, #244, .T. ) ;
#81 = VERTEX_POINT ( 'NONE', #254 ) ;
#82 = ORIENTED_EDGE ( 'NONE', *, *, #83, .F. ) ;
#83 = EDGE_CURVE ( 'NONE', #1, #81, #259, .T. ) ;
#84 = ADVANCED_FACE ( 'NONE', ( #278, #277 ), #289, .T. ) ;
#85 = EDGE_LOOP ( 'NONE', ( #86, #90, #15, #13, #12 ) ) ;
#86 = ORIENTED_EDGE ( 'NONE', *, *, #87, .T. ) ;
#87 = EDGE_CURVE ( 'NONE', #88, #89, #308, .T. ) ;
#88 = VERTEX_POINT ( 'NONE', #266 ) ;
#89 = VERTEX_POINT ( 'NONE', #265 ) ;
#90 = ORIENTED_EDGE ( 'NONE', *, *, #19, .T. ) ;
#91 = EDGE_CURVE ( 'NONE', #3, #22, #264, .T. ) ;
#92 = ORIENTED_EDGE ( 'NONE', *, *, #46, .T. ) ;
#93 = ORIENTED_EDGE ( 'NONE', *, *, #104, .F. ) ;
#94 = ORIENTED_EDGE ( 'NONE', *, *, #21, .F. ) ;
#95 = ORIENTED_EDGE ( 'NONE', *, *, #96, .T. ) ;
#96 = EDGE_CURVE ( 'NONE', #44, #25, #312, .T. ) ;
#97 = ORIENTED_EDGE ( 'NONE', *, *, #57, .F. ) ;
#98 = ORIENTED_EDGE ( 'NONE', *, *, #91, .F. ) ;
#99 = EDGE_LOOP ( 'NONE', ( #94, #98, #92, #112 ) ) ;
#100 = ORIENTED_EDGE ( 'NONE', *, *, #42, .T. ) ;
#101 = ADVANCED_FACE ( 'NONE', ( #320 ), #319, .T. ) ;
#102 = ADVANCED_FACE ( 'NONE', ( #314 ), #252, .T. ) ;
#103 = EDGE_LOOP ( 'NONE', ( #97, #93, #100, #95 ) ) ;
#104 = EDGE_CURVE ( 'NONE', #43, #23, #253, .T. ) ;
#105 = EDGE_CURVE ( 'NONE', #6, #60, #275, .T. ) ;
#106 = ADVANCED_FACE ( 'NONE', ( #271 ), #270, .T. ) ;
#107 = ORIENTED_EDGE ( 'NONE', *, *, #62, .F. ) ;
#108 = ORIENTED_EDGE ( 'NONE', *, *, #105, .F. ) ;
#109 = ORIENTED_EDGE ( 'NONE', *, *, #5, .T. ) ;
#110 = ORIENTED_EDGE ( 'NONE', *, *, #91, .T. ) ;
#111 = CLOSED_SHELL ( 'NONE', ( #125, #84, #9, #63, #47, #54, #31, #101, #102, #113, #106 ) ) ;
#112 = ORIENTED_EDGE ( 'NONE', *, *, #104, .T. ) ;
#113 = ADVANCED_FACE ( 'NONE', ( #327 ), #326, .T. ) ;
#114 = EDGE_LOOP ( 'NONE', ( #115, #116, #117, #118 ) ) ;
#115 = ORIENTED_EDGE ( 'NONE', *, *, #59, .F. ) ;
#116 = ORIENTED_EDGE ( 'NONE', *, *, #96, .F. ) ;
#117 = ORIENTED_EDGE ( 'NONE', *, *, #8, .T. ) ;
#118 = ORIENTED_EDGE ( 'NONE', *, *, #105, .T. ) ;
#119 = EDGE_LOOP ( 'NONE', ( #107, #108, #109, #110 ) ) ;
#120 = ORIENTED_EDGE ( 'NONE', *, *, #83, .T. ) ;
#121 = ORIENTED_EDGE ( 'NONE', *, *, #122, .T. ) ;
#122 = EDGE_CURVE ( 'NONE', #88, #37, #321, .T. ) ;
#123 = EDGE_LOOP ( 'NONE', ( #124, #76, #79, #82 ) ) ;
#124 = ORIENTED_EDGE ( 'NONE', *, *, #134, .F. ) ;
#125 = ADVANCED_FACE ( 'NONE', ( #301 ), #299, .T. ) ;
#126 = LINE ( 'NONE', #137, #245 ) ;
#127 = DIRECTION ( 'NONE',  ( -0.7071067811865474600, -0.7071067811865474600, 0.0000000000000000000 ) ) ;
#128 = VECTOR ( 'NONE', #127, 1000.000000000000100 ) ;
#129 = CARTESIAN_POINT ( 'NONE',  ( -5.656854249492379700, 6.776263578034402700E-018, 2.000000000000000000 ) ) ;
#130 = LINE ( 'NONE', #129, #128 ) ;
#131 = CARTESIAN_POINT ( 'NONE',  ( -5.656854249492379700, 6.776263578034402700E-018, 2.000000000000000000 ) ) ;
#132 = CARTESIAN_POINT ( 'NONE',  ( -60.00000000000000000, 0.0000000000000000000, 2.000000000000000000 ) ) ;
#133 = UNCERTAINTY_MEASURE_WITH_UNIT (LENGTH_MEASURE( 1.000000000000000100E-005 ), #290, 'distance_accuracy_value', 'NONE');
#134 = EDGE_CURVE ( 'NONE', #2, #1, #294, .T. ) ;
#135 = CARTESIAN_POINT ( 'NONE',  ( -53.07692307692308700, -7.927183401838922400, 2.000000000000000000 ) ) ;
#136 = MANIFOLD_SOLID_BREP ( 'NONE', #111 ) ;
#137 = CARTESIAN_POINT ( 'NONE',  ( -53.07692307692308000, 7.927183401838924200, 0.0000000000000000000 ) ) ;
#138 = CARTESIAN_POINT ( 'NONE',  ( -53.07692307692308000, 7.927183401838924200, 0.0000000000000000000 ) ) ;
#139 = DIRECTION ( 'NONE',  ( 1.000000000000000000, 0.0000000000000000000, 0.0000000000000000000 ) ) ;
#140 = DIRECTION ( 'NONE',  ( 0.0000000000000000000, 0.0000000000000000000, 1.000000000000000000 ) ) ;
#141 = CARTESIAN_POINT ( 'NONE',  ( -52.00000000000000000, 0.0000000000000000000, 0.0000000000000000000 ) ) ;
#142 = AXIS2_PLACEMENT_3D ( 'NONE', #141, #140, #139 ) ;
#143 = CIRCLE ( 'NONE', #142, 8.000000000000000000 ) ;
#144 = DIRECTION ( 'NONE',  ( 0.0000000000000000000, 0.0000000000000000000, -1.000000000000000000 ) ) ;
#145 = VECTOR ( 'NONE', #144, 1000.000000000000000 ) ;
#146 = CARTESIAN_POINT ( 'NONE',  ( -2.019230769230768700, 14.86346887844797800, 2.000000000000000000 ) ) ;
#147 = DIRECTION ( 'NONE',  ( -1.000000000000000000, 0.0000000000000000000, 0.0000000000000000000 ) ) ;
#148 = DIRECTION ( 'NONE',  ( 0.0000000000000000000, 0.0000000000000000000, -1.000000000000000000 ) ) ;
#149 = CARTESIAN_POINT ( 'NONE',  ( 0.0000000000000000000, 0.0000000000000000000, 2.000000000000000000 ) ) ;
#150 = AXIS2_PLACEMENT_3D ( 'NONE', #149, #148, #147 ) ;
#151 = LINE ( 'NONE', #146, #145 ) ;
#152 = CYLINDRICAL_SURFACE ( 'NONE', #150, 14.99999999999999800 ) ;
#153 = FACE_OUTER_BOUND ( 'NONE', #64, .T. ) ;
#154 = DIRECTION ( 'NONE',  ( -0.7071067811865474600, -0.7071067811865474600, 0.0000000000000000000 ) ) ;
#155 = VECTOR ( 'NONE', #154, 1000.000000000000100 ) ;
#156 = LINE ( 'NONE', #242, #241 ) ;
#157 = FACE_OUTER_BOUND ( 'NONE', #10, .T. ) ;
#158 = DIRECTION ( 'NONE',  ( -0.9908979252298654200, 0.1346153846153845300, 0.0000000000000000000 ) ) ;
#159 = DIRECTION ( 'NONE',  ( 0.1346153846153845500, 0.9908979252298655300, 0.0000000000000000000 ) ) ;
#160 = CARTESIAN_POINT ( 'NONE',  ( -53.07692307692308000, -7.927183401838924200, 2.000000000000000000 ) ) ;
#161 = AXIS2_PLACEMENT_3D ( 'NONE', #160, #159, #158 ) ;
#162 = PLANE ( 'NONE',  #161 ) ;
#163 = CARTESIAN_POINT ( 'NONE',  ( 0.0000000000000000000, 0.0000000000000000000, 0.0000000000000000000 ) ) ;
#164 = CARTESIAN_POINT ( 'NONE',  ( -5.656854249492379700, 6.776263578034402700E-018, 0.0000000000000000000 ) ) ;
#165 = LINE ( 'NONE', #164, #155 ) ;
#166 = CARTESIAN_POINT ( 'NONE',  ( -7.995991022080595200E-016, 5.656854249492378800, 0.0000000000000000000 ) ) ;
#167 = DIRECTION ( 'NONE',  ( -0.7071067811865474600, 0.7071067811865474600, 0.0000000000000000000 ) ) ;
#168 = VECTOR ( 'NONE', #167, 1000.000000000000100 ) ;
#169 = CARTESIAN_POINT ( 'NONE',  ( -7.995991022080595200E-016, 5.656854249492378800, 0.0000000000000000000 ) ) ;
#170 = LINE ( 'NONE', #169, #168 ) ;
#171 = DIRECTION ( 'NONE',  ( 0.7071067811865474600, 0.7071067811865474600, 0.0000000000000000000 ) ) ;
#172 = VECTOR ( 'NONE', #171, 1000.000000000000100 ) ;
#173 = CARTESIAN_POINT ( 'NONE',  ( -9.351243737687475700E-016, -5.656854249492380600, 0.0000000000000000000 ) ) ;
#174 = CARTESIAN_POINT ( 'NONE',  ( -4.336808689942017700E-016, 5.656854249492378800, 2.000000000000000000 ) ) ;
#175 = PLANE ( 'NONE',  #208 ) ;
#176 = FACE_BOUND ( 'NONE', #75, .T. ) ;
#177 = DIRECTION ( 'NONE',  ( -0.7071067811865474600, 0.7071067811865474600, 0.0000000000000000000 ) ) ;
#178 = VECTOR ( 'NONE', #184, 1000.000000000000000 ) ;
#179 = CARTESIAN_POINT ( 'NONE',  ( -5.656854249492379700, 6.776263578034402700E-018, 0.0000000000000000000 ) ) ;
#180 = LINE ( 'NONE', #179, #178 ) ;
#181 = CARTESIAN_POINT ( 'NONE',  ( 5.656854249492378800, -9.351243737687475700E-016, 0.0000000000000000000 ) ) ;
#182 = CARTESIAN_POINT ( 'NONE',  ( -9.351243737687475700E-016, -5.656854249492380600, 0.0000000000000000000 ) ) ;
#183 = CARTESIAN_POINT ( 'NONE',  ( -5.656854249492378800, 0.0000000000000000000, 0.0000000000000000000 ) ) ;
#184 = DIRECTION ( 'NONE',  ( 0.7071067811865474600, -0.7071067811865476800, 0.0000000000000000000 ) ) ;
#185 = DIRECTION ( 'NONE',  ( -1.000000000000000000, 0.0000000000000000000, 0.0000000000000000000 ) ) ;
#186 = DIRECTION ( 'NONE',  ( 0.0000000000000000000, 0.0000000000000000000, -1.000000000000000000 ) ) ;
#187 = CARTESIAN_POINT ( 'NONE',  ( -52.00000000000000000, 0.0000000000000000000, 2.000000000000000000 ) ) ;
#188 = AXIS2_PLACEMENT_3D ( 'NONE', #187, #186, #185 ) ;
#189 = CYLINDRICAL_SURFACE ( 'NONE', #188, 8.000000000000000000 ) ;
#190 = LINE ( 'NONE', #173, #172 ) ;
#191 = FACE_OUTER_BOUND ( 'NONE', #55, .T. ) ;
#192 = DIRECTION ( 'NONE',  ( 0.0000000000000000000, 0.0000000000000000000, -1.000000000000000000 ) ) ;
#193 = VECTOR ( 'NONE', #192, 1000.000000000000000 ) ;
#194 = CARTESIAN_POINT ( 'NONE',  ( -53.07692307692308000, 7.927183401838924200, 2.000000000000000000 ) ) ;
#195 = LINE ( 'NONE', #194, #193 ) ;
#196 = DIRECTION ( 'NONE',  ( 0.9908979252298654200, 0.1346153846153845300, 0.0000000000000000000 ) ) ;
#197 = DIRECTION ( 'NONE',  ( 0.1346153846153845500, -0.9908979252298655300, 0.0000000000000000000 ) ) ;
#198 = CARTESIAN_POINT ( 'NONE',  ( -53.07692307692308000, 7.927183401838924200, 2.000000000000000000 ) ) ;
#199 = AXIS2_PLACEMENT_3D ( 'NONE', #198, #197, #196 ) ;
#200 = PLANE ( 'NONE',  #199 ) ;
#201 = FACE_OUTER_BOUND ( 'NONE', #48, .T. ) ;
#202 = FACE_OUTER_BOUND ( 'NONE', #32, .T. ) ;
#203 = DIRECTION ( 'NONE',  ( 0.9908979252298654200, -0.1346153846153845300, 0.0000000000000000000 ) ) ;
#204 = VECTOR ( 'NONE', #203, 1000.000000000000200 ) ;
#205 = DIRECTION ( 'NONE',  ( 1.000000000000000000, 0.0000000000000000000, 0.0000000000000000000 ) ) ;
#206 = DIRECTION ( 'NONE',  ( 0.0000000000000000000, 0.0000000000000000000, 1.000000000000000000 ) ) ;
#207 = CARTESIAN_POINT ( 'NONE',  ( 0.0000000000000000000, 0.0000000000000000000, 0.0000000000000000000 ) ) ;
#208 = AXIS2_PLACEMENT_3D ( 'NONE', #207, #206, #205 ) ;
#209 = CARTESIAN_POINT ( 'NONE',  ( -52.00000000000000000, 0.0000000000000000000, 2.000000000000000000 ) ) ;
#210 = DIRECTION ( 'NONE',  ( 0.9908979252298654200, -0.1346153846153845300, 0.0000000000000000000 ) ) ;
#211 = VECTOR ( 'NONE', #210, 1000.000000000000200 ) ;
#212 = CARTESIAN_POINT ( 'NONE',  ( -53.07692307692308000, -7.927183401838924200, 0.0000000000000000000 ) ) ;
#213 = LINE ( 'NONE', #212, #211 ) ;
#214 = CARTESIAN_POINT ( 'NONE',  ( -2.019230769230768700, 14.86346887844797800, 0.0000000000000000000 ) ) ;
#215 = CARTESIAN_POINT ( 'NONE',  ( -2.019230769230768700, -14.86346887844797800, 0.0000000000000000000 ) ) ;
#216 = DIRECTION ( 'NONE',  ( 1.000000000000000000, 0.0000000000000000000, 0.0000000000000000000 ) ) ;
#217 = DIRECTION ( 'NONE',  ( 0.0000000000000000000, 0.0000000000000000000, 1.000000000000000000 ) ) ;
#218 = AXIS2_PLACEMENT_3D ( 'NONE', #163, #217, #216 ) ;
#219 = CIRCLE ( 'NONE', #218, 14.99999999999999800 ) ;
#220 = CIRCLE ( 'NONE', #224, 8.000000000000000000 ) ;
#221 = CARTESIAN_POINT ( 'NONE',  ( -53.07692307692308000, 7.927183401838924200, 2.000000000000000000 ) ) ;
#222 = DIRECTION ( 'NONE',  ( 1.000000000000000000, 0.0000000000000000000, 0.0000000000000000000 ) ) ;
#223 = DIRECTION ( 'NONE',  ( 0.0000000000000000000, 0.0000000000000000000, 1.000000000000000000 ) ) ;
#224 = AXIS2_PLACEMENT_3D ( 'NONE', #209, #223, #222 ) ;
#225 = DIRECTION ( 'NONE',  ( -0.9908979252298654200, -0.1346153846153845300, 0.0000000000000000000 ) ) ;
#226 = VECTOR ( 'NONE', #225, 1000.000000000000200 ) ;
#227 = CARTESIAN_POINT ( 'NONE',  ( -53.07692307692308000, 7.927183401838924200, 2.000000000000000000 ) ) ;
#228 = LINE ( 'NONE', #227, #226 ) ;
#229 = CARTESIAN_POINT ( 'NONE',  ( -53.07692307692308000, -7.927183401838924200, 2.000000000000000000 ) ) ;
#230 = LINE ( 'NONE', #229, #204 ) ;
#231 = DIRECTION ( 'NONE',  ( 0.7071067811865474600, -0.7071067811865476800, 0.0000000000000000000 ) ) ;
#232 = VECTOR ( 'NONE', #231, 1000.000000000000000 ) ;
#233 = CARTESIAN_POINT ( 'NONE',  ( -5.656854249492379700, 6.776263578034402700E-018, 2.000000000000000000 ) ) ;
#234 = LINE ( 'NONE', #233, #232 ) ;
#235 = CARTESIAN_POINT ( 'NONE',  ( 5.656854249492378800, -9.351243737687475700E-016, 2.000000000000000000 ) ) ;
#236 = CARTESIAN_POINT ( 'NONE',  ( -9.351243737687475700E-016, -5.656854249492380600, 2.000000000000000000 ) ) ;
#237 = DIRECTION ( 'NONE',  ( 0.7071067811865474600, 0.7071067811865474600, 0.0000000000000000000 ) ) ;
#238 = VECTOR ( 'NONE', #237, 1000.000000000000100 ) ;
#239 = CARTESIAN_POINT ( 'NONE',  ( -9.351243737687475700E-016, -5.656854249492380600, 2.000000000000000000 ) ) ;
#240 = LINE ( 'NONE', #239, #238 ) ;
#241 = VECTOR ( 'NONE', #177, 1000.000000000000100 ) ;
#242 = CARTESIAN_POINT ( 'NONE',  ( -7.995991022080595200E-016, 5.656854249492378800, 2.000000000000000000 ) ) ;
#243 = AXIS2_PLACEMENT_3D ( 'NONE', #287, #286, #285 ) ;
#244 = CIRCLE ( 'NONE', #243, 8.000000000000000000 ) ;
#245 = VECTOR ( 'NONE', #260, 1000.000000000000200 ) ;
#246 = VECTOR ( 'NONE', #276, 1000.000000000000000 ) ;
#247 = CARTESIAN_POINT ( 'NONE',  ( -9.351243737687475700E-016, -5.656854249492380600, 2.000000000000000000 ) ) ;
#248 = DIRECTION ( 'NONE',  ( -0.7071067811865474600, -0.7071067811865474600, 0.0000000000000000000 ) ) ;
#249 = DIRECTION ( 'NONE',  ( -0.7071067811865475700, 0.7071067811865475700, 0.0000000000000000000 ) ) ;
#250 = CARTESIAN_POINT ( 'NONE',  ( -9.351243737687475700E-016, -5.656854249492380600, 2.000000000000000000 ) ) ;
#251 = AXIS2_PLACEMENT_3D ( 'NONE', #250, #249, #248 ) ;
#252 = PLANE ( 'NONE',  #251 ) ;
#253 = LINE ( 'NONE', #247, #246 ) ;
#254 = CARTESIAN_POINT ( 'NONE',  ( -53.07692307692308700, -7.927183401838922400, 0.0000000000000000000 ) ) ;
#255 = CARTESIAN_POINT ( 'NONE',  ( -60.00000000000000000, 0.0000000000000000000, 2.000000000000000000 ) ) ;
#256 = LINE ( 'NONE', #255, #261 ) ;
#257 = DIRECTION ( 'NONE',  ( 0.0000000000000000000, 0.0000000000000000000, -1.000000000000000000 ) ) ;
#258 = CARTESIAN_POINT ( 'NONE',  ( -53.07692307692308700, -7.927183401838922400, 2.000000000000000000 ) ) ;
#259 = LINE ( 'NONE', #258, #279 ) ;
#260 = DIRECTION ( 'NONE',  ( -0.9908979252298654200, -0.1346153846153845300, 0.0000000000000000000 ) ) ;
#261 = VECTOR ( 'NONE', #281, 1000.000000000000000 ) ;
#262 = DIRECTION ( 'NONE',  ( 0.0000000000000000000, 0.0000000000000000000, -1.000000000000000000 ) ) ;
#263 = CARTESIAN_POINT ( 'NONE',  ( -5.656854249492379700, 6.776263578034402700E-018, 2.000000000000000000 ) ) ;
#264 = LINE ( 'NONE', #263, #313 ) ;
#265 = CARTESIAN_POINT ( 'NONE',  ( -2.019230769230768700, 14.86346887844797800, 2.000000000000000000 ) ) ;
#266 = CARTESIAN_POINT ( 'NONE',  ( -2.019230769230768700, -14.86346887844797800, 2.000000000000000000 ) ) ;
#267 = DIRECTION ( 'NONE',  ( 1.000000000000000000, 0.0000000000000000000, 0.0000000000000000000 ) ) ;
#268 = CARTESIAN_POINT ( 'NONE',  ( -5.656854249492379700, 6.776263578034402700E-018, 2.000000000000000000 ) ) ;
#269 = AXIS2_PLACEMENT_3D ( 'NONE', #268, #329, #328 ) ;
#270 = PLANE ( 'NONE',  #269 ) ;
#271 = FACE_OUTER_BOUND ( 'NONE', #119, .T. ) ;
#272 = DIRECTION ( 'NONE',  ( 0.0000000000000000000, 0.0000000000000000000, -1.000000000000000000 ) ) ;
#273 = VECTOR ( 'NONE', #272, 1000.000000000000000 ) ;
#274 = CARTESIAN_POINT ( 'NONE',  ( -7.995991022080595200E-016, 5.656854249492378800, 2.000000000000000000 ) ) ;
#275 = LINE ( 'NONE', #274, #273 ) ;
#276 = DIRECTION ( 'NONE',  ( 0.0000000000000000000, 0.0000000000000000000, -1.000000000000000000 ) ) ;
#277 = FACE_BOUND ( 'NONE', #27, .T. ) ;
#278 = FACE_OUTER_BOUND ( 'NONE', #85, .T. ) ;
#279 = VECTOR ( 'NONE', #257, 1000.000000000000000 ) ;
#280 = CARTESIAN_POINT ( 'NONE',  ( -60.00000000000000000, 0.0000000000000000000, 0.0000000000000000000 ) ) ;
#281 = DIRECTION ( 'NONE',  ( 0.0000000000000000000, 0.0000000000000000000, -1.000000000000000000 ) ) ;
#282 = DIRECTION ( 'NONE',  ( 0.0000000000000000000, 0.0000000000000000000, 1.000000000000000000 ) ) ;
#283 = CARTESIAN_POINT ( 'NONE',  ( 0.0000000000000000000, 0.0000000000000000000, 2.000000000000000000 ) ) ;
#284 = AXIS2_PLACEMENT_3D ( 'NONE', #283, #282, #288 ) ;
#285 = DIRECTION ( 'NONE',  ( 1.000000000000000000, 0.0000000000000000000, 0.0000000000000000000 ) ) ;
#286 = DIRECTION ( 'NONE',  ( 0.0000000000000000000, 0.0000000000000000000, 1.000000000000000000 ) ) ;
#287 = CARTESIAN_POINT ( 'NONE',  ( -52.00000000000000000, 0.0000000000000000000, 0.0000000000000000000 ) ) ;
#288 = DIRECTION ( 'NONE',  ( 1.000000000000000000, 0.0000000000000000000, 0.0000000000000000000 ) ) ;
#289 = PLANE ( 'NONE',  #284 ) ;
#290 =( LENGTH_UNIT ( ) NAMED_UNIT ( * ) SI_UNIT ( .MILLI., .METRE. ) );
#291 = DIRECTION ( 'NONE',  ( 1.000000000000000000, 0.0000000000000000000, 0.0000000000000000000 ) ) ;
#292 = DIRECTION ( 'NONE',  ( 0.0000000000000000000, 0.0000000000000000000, 1.000000000000000000 ) ) ;
#293 = AXIS2_PLACEMENT_3D ( 'NONE', #300, #292, #291 ) ;
#294 = CIRCLE ( 'NONE', #293, 8.000000000000000000 ) ;
#295 = DIRECTION ( 'NONE',  ( -1.000000000000000000, 0.0000000000000000000, 0.0000000000000000000 ) ) ;
#296 = DIRECTION ( 'NONE',  ( 0.0000000000000000000, 0.0000000000000000000, -1.000000000000000000 ) ) ;
#297 = CARTESIAN_POINT ( 'NONE',  ( -52.00000000000000000, 0.0000000000000000000, 2.000000000000000000 ) ) ;
#298 = AXIS2_PLACEMENT_3D ( 'NONE', #297, #296, #295 ) ;
#299 = CYLINDRICAL_SURFACE ( 'NONE', #298, 8.000000000000000000 ) ;
#300 = CARTESIAN_POINT ( 'NONE',  ( -52.00000000000000000, 0.0000000000000000000, 2.000000000000000000 ) ) ;
#301 = FACE_OUTER_BOUND ( 'NONE', #123, .T. ) ;
#302 = DIRECTION ( 'NONE',  ( 0.0000000000000000000, 0.0000000000000000000, -1.000000000000000000 ) ) ;
#303 = VECTOR ( 'NONE', #302, 1000.000000000000000 ) ;
#304 = CARTESIAN_POINT ( 'NONE',  ( -2.019230769230768700, -14.86346887844797800, 2.000000000000000000 ) ) ;
#305 = DIRECTION ( 'NONE',  ( 0.0000000000000000000, 0.0000000000000000000, 1.000000000000000000 ) ) ;
#306 = CARTESIAN_POINT ( 'NONE',  ( 0.0000000000000000000, 0.0000000000000000000, 2.000000000000000000 ) ) ;
#307 = AXIS2_PLACEMENT_3D ( 'NONE', #306, #305, #267 ) ;
#308 = CIRCLE ( 'NONE', #307, 14.99999999999999800 ) ;
#309 = DIRECTION ( 'NONE',  ( 0.0000000000000000000, 0.0000000000000000000, -1.000000000000000000 ) ) ;
#310 = VECTOR ( 'NONE', #309, 1000.000000000000000 ) ;
#311 = CARTESIAN_POINT ( 'NONE',  ( 5.656854249492378800, -9.351243737687475700E-016, 2.000000000000000000 ) ) ;
#312 = LINE ( 'NONE', #311, #310 ) ;
#313 = VECTOR ( 'NONE', #262, 1000.000000000000000 ) ;
#314 = FACE_OUTER_BOUND ( 'NONE', #103, .T. ) ;
#315 = DIRECTION ( 'NONE',  ( -0.7071067811865474600, 0.7071067811865476800, 0.0000000000000000000 ) ) ;
#316 = DIRECTION ( 'NONE',  ( 0.7071067811865476800, 0.7071067811865474600, 0.0000000000000000000 ) ) ;
#317 = CARTESIAN_POINT ( 'NONE',  ( -5.656854249492379700, 6.776263578034402700E-018, 2.000000000000000000 ) ) ;
#318 = AXIS2_PLACEMENT_3D ( 'NONE', #317, #316, #315 ) ;
#319 = PLANE ( 'NONE',  #318 ) ;
#320 = FACE_OUTER_BOUND ( 'NONE', #99, .T. ) ;
#321 = LINE ( 'NONE', #304, #303 ) ;
#322 = DIRECTION ( 'NONE',  ( 0.7071067811865474600, -0.7071067811865474600, 0.0000000000000000000 ) ) ;
#323 = DIRECTION ( 'NONE',  ( -0.7071067811865475700, -0.7071067811865475700, 0.0000000000000000000 ) ) ;
#324 = CARTESIAN_POINT ( 'NONE',  ( -7.995991022080595200E-016, 5.656854249492378800, 2.000000000000000000 ) ) ;
#325 = AXIS2_PLACEMENT_3D ( 'NONE', #324, #323, #322 ) ;
#326 = PLANE ( 'NONE',  #325 ) ;
#327 = FACE_OUTER_BOUND ( 'NONE', #114, .T. ) ;
#328 = DIRECTION ( 'NONE',  ( 0.7071067811865474600, 0.7071067811865474600, 0.0000000000000000000 ) ) ;
#329 = DIRECTION ( 'NONE',  ( 0.7071067811865475700, -0.7071067811865475700, 0.0000000000000000000 ) ) ;
#330 =( GEOMETRIC_REPRESENTATION_CONTEXT ( 3 ) GLOBAL_UNCERTAINTY_ASSIGNED_CONTEXT ( ( #133 ) ) GLOBAL_UNIT_ASSIGNED_CONTEXT ( ( #290, #18, #17 ) ) REPRESENTATION_CONTEXT ( 'NONE', 'WORKASPACE' ) );
#331 = ADVANCED_BREP_SHAPE_REPRESENTATION ( 'AC-1025-3', ( #136, #333 ), #330 ) ;
#332 = DIRECTION ( 'NONE',  ( 0.0000000000000000000, 0.0000000000000000000, 1.000000000000000000 ) ) ;
#333 = AXIS2_PLACEMENT_3D ( 'NONE', #335, #332, #334 ) ;
#334 = DIRECTION ( 'NONE',  ( 1.000000000000000000, 0.0000000000000000000, 0.0000000000000000000 ) ) ;
#335 = CARTESIAN_POINT ( 'NONE',  ( 0.0000000000000000000, 0.0000000000000000000, 0.0000000000000000000 ) ) ;
#336 = MECHANICAL_CONTEXT ( 'NONE', #340, 'mechanical' ) ;
#337 = APPLICATION_PROTOCOL_DEFINITION ( 'international standard', 'config_control_design', 1994, #340 ) ;
#338 = PRODUCT ( 'AC-1025-3', 'AC-1025-3', '', ( #336 ) ) ;
#339 = CC_DESIGN_APPROVAL ( #369, ( #372 ) ) ;
#340 = APPLICATION_CONTEXT ( 'configuration controlled 3d designs of mechanical parts and assemblies' ) ;
#341 = PERSON ( 'UNSPECIFIED', 'UNSPECIFIED', 'UNSPECIFIED', ('UNSPECIFIED'), ('UNSPECIFIED'), ('UNSPECIFIED') ) ;
#342 = PERSON_AND_ORGANIZATION ( #341, #345 ) ;
#343 = CC_DESIGN_PERSON_AND_ORGANIZATION_ASSIGNMENT ( #342, #344, ( #338 ) ) ;
#344 = PERSON_AND_ORGANIZATION_ROLE ( 'design_owner' ) ;
#345 = ORGANIZATION ( 'UNSPECIFIED', 'UNSPECIFIED', '' ) ;
#346 = CALENDAR_DATE ( 2009, 1, 5 ) ;
#347 = DATE_AND_TIME ( #394, #395 ) ;
#348 = COORDINATED_UNIVERSAL_TIME_OFFSET ( 9, 0, .AHEAD. ) ;
#349 = APPROVAL_DATE_TIME ( #351, #355 ) ;
#350 = CC_DESIGN_DATE_AND_TIME_ASSIGNMENT ( #347, #357, ( #391 ) ) ;
#351 = DATE_AND_TIME ( #346, #358 ) ;
#352 = CC_DESIGN_APPROVAL ( #355, ( #379 ) ) ;
#353 = CC_DESIGN_PERSON_AND_ORGANIZATION_ASSIGNMENT ( #386, #385, ( #379 ) ) ;
#354 = APPROVAL_ROLE ( '' ) ;
#355 = APPROVAL ( #377, 'UNSPECIFIED' ) ;
#356 = APPROVAL_PERSON_ORGANIZATION ( #378, #355, #354 ) ;
#357 = DATE_TIME_ROLE ( 'classification_date' ) ;
#358 = LOCAL_TIME ( 10, 12, 59.00000000000000000, #348 ) ;
#359 = APPLICATION_CONTEXT ( 'configuration controlled 3d designs of mechanical parts and assemblies' ) ;
#360 = DESIGN_CONTEXT ( 'detailed design', #359, 'design' ) ;
#361 = APPLICATION_PROTOCOL_DEFINITION ( 'international standard', 'config_control_design', 1994, #359 ) ;
#362 = APPROVAL_DATE_TIME ( #363, #369 ) ;
#363 = DATE_AND_TIME ( #364, #365 ) ;
#364 = CALENDAR_DATE ( 2009, 1, 5 ) ;
#365 = LOCAL_TIME ( 10, 12, 59.00000000000000000, #366 ) ;
#366 = COORDINATED_UNIVERSAL_TIME_OFFSET ( 9, 0, .AHEAD. ) ;
#367 = APPROVAL_PERSON_ORGANIZATION ( #371, #369, #368 ) ;
#368 = APPROVAL_ROLE ( '' ) ;
#369 = APPROVAL ( #370, 'UNSPECIFIED' ) ;
#370 = APPROVAL_STATUS ( 'not_yet_approved' ) ;
#371 = PERSON_AND_ORGANIZATION ( #341, #345 ) ;
#372 = PRODUCT_DEFINITION ( 'UNKNOWN', '', #379, #360 ) ;
#373 = PERSON_AND_ORGANIZATION_ROLE ( 'creator' ) ;
#374 = CC_DESIGN_PERSON_AND_ORGANIZATION_ASSIGNMENT ( #375, #373, ( #372 ) ) ;
#375 = PERSON_AND_ORGANIZATION ( #341, #345 ) ;
#376 = DATE_AND_TIME ( #384, #383 ) ;
#377 = APPROVAL_STATUS ( 'not_yet_approved' ) ;
#378 = PERSON_AND_ORGANIZATION ( #341, #345 ) ;
#379 = PRODUCT_DEFINITION_FORMATION_WITH_SPECIFIED_SOURCE ( 'ANY', '', #338, .NOT_KNOWN. ) ;
#380 = DATE_TIME_ROLE ( 'creation_date' ) ;
#381 = COORDINATED_UNIVERSAL_TIME_OFFSET ( 9, 0, .AHEAD. ) ;
#382 = CC_DESIGN_DATE_AND_TIME_ASSIGNMENT ( #376, #380, ( #372 ) ) ;
#383 = LOCAL_TIME ( 10, 12, 59.00000000000000000, #381 ) ;
#384 = CALENDAR_DATE ( 2009, 1, 5 ) ;
#385 = PERSON_AND_ORGANIZATION_ROLE ( 'creator' ) ;
#386 = PERSON_AND_ORGANIZATION ( #341, #345 ) ;
#387 = PERSON_AND_ORGANIZATION_ROLE ( 'design_supplier' ) ;
#388 = SECURITY_CLASSIFICATION_LEVEL ( 'unclassified' ) ;
#389 = CC_DESIGN_PERSON_AND_ORGANIZATION_ASSIGNMENT ( #397, #390, ( #391 ) ) ;
#390 = PERSON_AND_ORGANIZATION_ROLE ( 'classification_officer' ) ;
#391 = SECURITY_CLASSIFICATION ( '', '', #388 ) ;
#392 = CC_DESIGN_PERSON_AND_ORGANIZATION_ASSIGNMENT ( #393, #387, ( #379 ) ) ;
#393 = PERSON_AND_ORGANIZATION ( #341, #345 ) ;
#394 = CALENDAR_DATE ( 2009, 1, 5 ) ;
#395 = LOCAL_TIME ( 10, 12, 59.00000000000000000, #396 ) ;
#396 = COORDINATED_UNIVERSAL_TIME_OFFSET ( 9, 0, .AHEAD. ) ;
#397 = PERSON_AND_ORGANIZATION ( #341, #345 ) ;
#398 = APPROVAL_ROLE ( '' ) ;
#399 = PERSON_AND_ORGANIZATION ( #341, #345 ) ;
#400 = SHAPE_DEFINITION_REPRESENTATION ( #401, #331 ) ;
#401 = PRODUCT_DEFINITION_SHAPE ( 'NONE', 'NONE',  #372 ) ;
#402 = COORDINATED_UNIVERSAL_TIME_OFFSET ( 9, 0, .AHEAD. ) ;
#403 = LOCAL_TIME ( 10, 12, 59.00000000000000000, #402 ) ;
#404 = APPROVAL_STATUS ( 'not_yet_approved' ) ;
#405 = APPROVAL_PERSON_ORGANIZATION ( #399, #407, #398 ) ;
#406 = CALENDAR_DATE ( 2009, 1, 5 ) ;
#407 = APPROVAL ( #404, 'UNSPECIFIED' ) ;
#408 = DATE_AND_TIME ( #406, #403 ) ;
#409 = APPROVAL_DATE_TIME ( #408, #407 ) ;
#410 = PRODUCT_RELATED_PRODUCT_CATEGORY ( 'detail', '', ( #338 ) ) ;
#411 = CC_DESIGN_SECURITY_CLASSIFICATION ( #391, ( #379 ) ) ;
#412 = CC_DESIGN_APPROVAL ( #407, ( #391 ) ) ;
ENDSEC;
END-ISO-10303-21;
