ISO-10303-21;
HEADER;
FILE_DESCRIPTION (( 'STEP AP203' ),
    '1' );
FILE_NAME ('A-1538-M6F.STEP',
    '2021-02-01T07:02:58',
    ( '' ),
    ( '' ),
    'SwSTEP 2.0',
    'SolidWorks 2018',
    '' );
FILE_SCHEMA (( 'CONFIG_CONTROL_DESIGN' ));
ENDSEC;

DATA;
#1 = CARTESIAN_POINT ( 'NONE',  ( 1.469576158976823947E-15, 0.0000000000000000000, -12.00000000000000000 ) ) ;
#2 = FACE_BOUND ( 'NONE', #175, .T. ) ;
#3 = APPLICATION_PROTOCOL_DEFINITION ( 'international standard', 'config_control_design', 1994, #313 ) ;
#4 = PERSON_AND_ORGANIZATION ( #295, #306 ) ;
#5 = PERSON_AND_ORGANIZATION ( #295, #306 ) ;
#6 = ORIENTED_EDGE ( 'NONE', *, *, #209, .T. ) ;
#7 = ORIENTED_EDGE ( 'NONE', *, *, #119, .F. ) ;
#8 = ADVANCED_FACE ( 'NONE', ( #230 ), #275, .T. ) ;
#9 = DIRECTION ( 'NONE',  ( -0.0000000000000000000, 1.000000000000000000, -0.0000000000000000000 ) ) ;
#10 = LINE ( 'NONE', #77, #168 ) ;
#11 = ADVANCED_FACE ( 'NONE', ( #91, #317 ), #158, .F. ) ;
#12 = AXIS2_PLACEMENT_3D ( 'NONE', #48, #245, #192 ) ;
#13 = EDGE_LOOP ( 'NONE', ( #293, #154, #120, #38 ) ) ;
#14 = EDGE_CURVE ( 'NONE', #182, #243, #249, .T. ) ;
#15 = FACE_OUTER_BOUND ( 'NONE', #13, .T. ) ;
#16 = EDGE_CURVE ( 'NONE', #152, #33, #178, .T. ) ;
#17 = CIRCLE ( 'NONE', #121, 6.000000000000000888 ) ;
#18 = ORIENTED_EDGE ( 'NONE', *, *, #39, .F. ) ;
#19 = CARTESIAN_POINT ( 'NONE',  ( 0.0000000000000000000, 0.0000000000000000000, 0.0000000000000000000 ) ) ;
#20 = LOCAL_TIME ( 16, 2, 58.00000000000000000, #283 ) ;
#21 = EDGE_CURVE ( 'NONE', #102, #71, #64, .T. ) ;
#22 = CARTESIAN_POINT ( 'NONE',  ( 0.0000000000000000000, 5.419203158191626457, 6.000000000000001776 ) ) ;
#23 = CLOSED_SHELL ( 'NONE', ( #189, #241, #282, #261, #8, #221, #140, #11, #37 ) ) ;
#24 = CC_DESIGN_SECURITY_CLASSIFICATION ( #244, ( #316 ) ) ;
#25 = DATE_AND_TIME ( #139, #97 ) ;
#26 = DIRECTION ( 'NONE',  ( 0.0000000000000000000, 0.0000000000000000000, 1.000000000000000000 ) ) ;
#27 = ORIENTED_EDGE ( 'NONE', *, *, #325, .T. ) ;
#28 = DIRECTION ( 'NONE',  ( -0.0000000000000000000, 1.000000000000000000, -0.0000000000000000000 ) ) ;
#29 = ORIENTED_EDGE ( 'NONE', *, *, #209, .F. ) ;
#30 = APPLICATION_CONTEXT ( 'configuration controlled 3d designs of mechanical parts and assemblies' ) ;
#31 = LOCAL_TIME ( 16, 2, 58.00000000000000000, #194 ) ;
#32 = CIRCLE ( 'NONE', #183, 2.499999999999996447 ) ;
#33 = VERTEX_POINT ( 'NONE', #107 ) ;
#34 = AXIS2_PLACEMENT_3D ( 'NONE', #326, #26, #65 ) ;
#35 = DIRECTION ( 'NONE',  ( -0.0000000000000000000, 1.000000000000000000, 0.0000000000000000000 ) ) ;
#36 = APPROVAL_ROLE ( '' ) ;
#37 = ADVANCED_FACE ( 'NONE', ( #229 ), #234, .F. ) ;
#38 = ORIENTED_EDGE ( 'NONE', *, *, #153, .F. ) ;
#39 = EDGE_CURVE ( 'NONE', #71, #102, #253, .T. ) ;
#40 = PERSON_AND_ORGANIZATION ( #295, #306 ) ;
#41 = CALENDAR_DATE ( 2021, 1, 2 ) ;
#42 = APPROVAL ( #63, 'UNSPECIFIED' ) ;
#43 = VERTEX_POINT ( 'NONE', #219 ) ;
#44 = VERTEX_POINT ( 'NONE', #115 ) ;
#45 = CARTESIAN_POINT ( 'NONE',  ( 3.061616997868381662E-16, -4.898587196589410610E-17, -2.499999999999998668 ) ) ;
#46 = DATE_AND_TIME ( #287, #319 ) ;
#47 = AXIS2_PLACEMENT_3D ( 'NONE', #19, #100, #250 ) ;
#48 = CARTESIAN_POINT ( 'NONE',  ( 0.0000000000000000000, 0.0000000000000000000, 0.0000000000000000000 ) ) ;
#49 = CIRCLE ( 'NONE', #85, 2.499999999999998224 ) ;
#50 = ORIENTED_EDGE ( 'NONE', *, *, #16, .F. ) ;
#51 = CARTESIAN_POINT ( 'NONE',  ( 0.0000000000000000000, 5.419203158191626457, 0.0000000000000000000 ) ) ;
#52 = AXIS2_PLACEMENT_3D ( 'NONE', #113, #240, #187 ) ;
#53 = DIRECTION ( 'NONE',  ( -0.0000000000000000000, 1.000000000000000000, 0.0000000000000000000 ) ) ;
#54 = COORDINATED_UNIVERSAL_TIME_OFFSET ( 9, 0, .AHEAD. ) ;
#55 = DIRECTION ( 'NONE',  ( -0.0000000000000000000, 1.000000000000000000, -0.0000000000000000000 ) ) ;
#56 = ORIENTED_EDGE ( 'NONE', *, *, #60, .T. ) ;
#57 = PLANE ( 'NONE',  #79 ) ;
#58 = EDGE_CURVE ( 'NONE', #157, #43, #17, .T. ) ;
#59 = CARTESIAN_POINT ( 'NONE',  ( 0.0000000000000000000, 0.0000000000000000000, 0.0000000000000000000 ) ) ;
#60 = EDGE_CURVE ( 'NONE', #220, #109, #49, .T. ) ;
#61 = COORDINATED_UNIVERSAL_TIME_OFFSET ( 9, 0, .AHEAD. ) ;
#62 = DIRECTION ( 'NONE',  ( 0.0000000000000000000, 0.0000000000000000000, 1.000000000000000000 ) ) ;
#63 = APPROVAL_STATUS ( 'not_yet_approved' ) ;
#64 = CIRCLE ( 'NONE', #141, 6.000000000000001776 ) ;
#65 = DIRECTION ( 'NONE',  ( 1.000000000000000000, 0.0000000000000000000, 0.0000000000000000000 ) ) ;
#66 = LINE ( 'NONE', #22, #76 ) ;
#67 = CARTESIAN_POINT ( 'NONE',  ( 7.347880794884121708E-16, 5.419203158191626457, -6.000000000000001776 ) ) ;
#68 = DIRECTION ( 'NONE',  ( -0.0000000000000000000, 1.000000000000000000, -0.0000000000000000000 ) ) ;
#69 = DIRECTION ( 'NONE',  ( 0.0000000000000000000, 0.0000000000000000000, 1.000000000000000000 ) ) ;
#70 = AXIS2_PLACEMENT_3D ( 'NONE', #208, #84, #137 ) ;
#71 = VERTEX_POINT ( 'NONE', #88 ) ;
#72 = DATE_AND_TIME ( #251, #78 ) ;
#73 = APPROVAL_PERSON_ORGANIZATION ( #232, #42, #36 ) ;
#74 = ORIENTED_EDGE ( 'NONE', *, *, #58, .T. ) ;
#75 = EDGE_LOOP ( 'NONE', ( #86, #179 ) ) ;
#76 = VECTOR ( 'NONE', #197, 1000.000000000000000 ) ;
#77 = CARTESIAN_POINT ( 'NONE',  ( 3.061616997868380183E-16, 0.0000000000000000000, -2.499999999999997335 ) ) ;
#78 = LOCAL_TIME ( 16, 2, 58.00000000000000000, #61 ) ;
#79 = AXIS2_PLACEMENT_3D ( 'NONE', #59, #231, #281 ) ;
#80 =( LENGTH_UNIT ( ) NAMED_UNIT ( * ) SI_UNIT ( .MILLI., .METRE. ) );
#81 = DIRECTION ( 'NONE',  ( -0.0000000000000000000, 1.000000000000000000, -0.0000000000000000000 ) ) ;
#82 = CIRCLE ( 'NONE', #116, 2.499999999999996447 ) ;
#83 = DATE_TIME_ROLE ( 'creation_date' ) ;
#84 = DIRECTION ( 'NONE',  ( -0.0000000000000000000, 1.000000000000000000, -0.0000000000000000000 ) ) ;
#85 = AXIS2_PLACEMENT_3D ( 'NONE', #289, #217, #69 ) ;
#86 = ORIENTED_EDGE ( 'NONE', *, *, #119, .T. ) ;
#87 = APPROVAL_STATUS ( 'not_yet_approved' ) ;
#88 = CARTESIAN_POINT ( 'NONE',  ( 0.0000000000000000000, -15.00000000000000000, 6.000000000000001776 ) ) ;
#89 = EDGE_CURVE ( 'NONE', #102, #43, #193, .T. ) ;
#90 = DIRECTION ( 'NONE',  ( -0.0000000000000000000, 1.000000000000000000, -0.0000000000000000000 ) ) ;
#91 = FACE_BOUND ( 'NONE', #75, .T. ) ;
#92 = ORIENTED_EDGE ( 'NONE', *, *, #14, .T. ) ;
#93 = FACE_OUTER_BOUND ( 'NONE', #210, .T. ) ;
#94 = DIRECTION ( 'NONE',  ( 0.0000000000000000000, 0.0000000000000000000, 1.000000000000000000 ) ) ;
#95 = AXIS2_PLACEMENT_3D ( 'NONE', #128, #304, #328 ) ;
#96 = EDGE_LOOP ( 'NONE', ( #18, #300 ) ) ;
#97 = LOCAL_TIME ( 16, 2, 58.00000000000000000, #190 ) ;
#98 = EDGE_LOOP ( 'NONE', ( #147, #299, #27, #162 ) ) ;
#99 = DIRECTION ( 'NONE',  ( -0.0000000000000000000, 1.000000000000000000, -0.0000000000000000000 ) ) ;
#100 = DIRECTION ( 'NONE',  ( -0.0000000000000000000, 1.000000000000000000, -0.0000000000000000000 ) ) ;
#101 = DIRECTION ( 'NONE',  ( -0.0000000000000000000, 1.000000000000000000, -0.0000000000000000000 ) ) ;
#102 = VERTEX_POINT ( 'NONE', #286 ) ;
#103 = AXIS2_PLACEMENT_3D ( 'NONE', #51, #101, #125 ) ;
#104 = DIRECTION ( 'NONE',  ( 0.0000000000000000000, 0.0000000000000000000, 1.000000000000000000 ) ) ;
#105 = PERSON_AND_ORGANIZATION ( #295, #306 ) ;
#106 = PERSON_AND_ORGANIZATION_ROLE ( 'creator' ) ;
#107 = CARTESIAN_POINT ( 'NONE',  ( 0.0000000000000000000, -5.000000000000000000, 12.00000000000000000 ) ) ;
#108 = CC_DESIGN_DATE_AND_TIME_ASSIGNMENT ( #72, #311, ( #244 ) ) ;
#109 = VERTEX_POINT ( 'NONE', #45 ) ;
#110 = DIRECTION ( 'NONE',  ( 0.0000000000000000000, 0.0000000000000000000, 1.000000000000000000 ) ) ;
#111 =( GEOMETRIC_REPRESENTATION_CONTEXT ( 3 ) GLOBAL_UNCERTAINTY_ASSIGNED_CONTEXT ( ( #279 ) ) GLOBAL_UNIT_ASSIGNED_CONTEXT ( ( #80, #257, #201 ) ) REPRESENTATION_CONTEXT ( 'NONE', 'WORKASPACE' ) );
#112 = VECTOR ( 'NONE', #28, 1000.000000000000000 ) ;
#113 = CARTESIAN_POINT ( 'NONE',  ( 0.0000000000000000000, 0.0000000000000000000, 0.0000000000000000000 ) ) ;
#114 = ORIENTED_EDGE ( 'NONE', *, *, #320, .F. ) ;
#115 = CARTESIAN_POINT ( 'NONE',  ( 0.0000000000000000000, -15.00000000000000000, 2.499999999999996447 ) ) ;
#116 = AXIS2_PLACEMENT_3D ( 'NONE', #248, #122, #302 ) ;
#117 = EDGE_CURVE ( 'NONE', #243, #182, #292, .T. ) ;
#118 = LINE ( 'NONE', #254, #159 ) ;
#119 = EDGE_CURVE ( 'NONE', #44, #307, #32, .T. ) ;
#120 = ORIENTED_EDGE ( 'NONE', *, *, #58, .F. ) ;
#121 = AXIS2_PLACEMENT_3D ( 'NONE', #242, #90, #94 ) ;
#122 = DIRECTION ( 'NONE',  ( -0.0000000000000000000, 1.000000000000000000, -0.0000000000000000000 ) ) ;
#123 = CARTESIAN_POINT ( 'NONE',  ( 0.0000000000000000000, -5.000000000000000000, 0.0000000000000000000 ) ) ;
#124 = APPROVAL_DATE_TIME ( #167, #42 ) ;
#125 = DIRECTION ( 'NONE',  ( 0.0000000000000000000, 0.0000000000000000000, 1.000000000000000000 ) ) ;
#126 = CARTESIAN_POINT ( 'NONE',  ( 1.469576158976823947E-15, -5.000000000000000000, -12.00000000000000000 ) ) ;
#127 = ORIENTED_EDGE ( 'NONE', *, *, #310, .F. ) ;
#128 = CARTESIAN_POINT ( 'NONE',  ( 0.0000000000000000000, -4.898587196589410610E-17, 0.0000000000000000000 ) ) ;
#129 = FACE_OUTER_BOUND ( 'NONE', #226, .T. ) ;
#130 = ORIENTED_EDGE ( 'NONE', *, *, #60, .F. ) ;
#131 = DIRECTION ( 'NONE',  ( 0.0000000000000000000, 0.0000000000000000000, 1.000000000000000000 ) ) ;
#132 = CIRCLE ( 'NONE', #255, 6.000000000000000888 ) ;
#133 = AXIS2_PLACEMENT_3D ( 'NONE', #191, #99, #294 ) ;
#134 = PERSON_AND_ORGANIZATION_ROLE ( 'classification_officer' ) ;
#135 = ORIENTED_EDGE ( 'NONE', *, *, #174, .T. ) ;
#136 = APPROVAL_ROLE ( '' ) ;
#137 = DIRECTION ( 'NONE',  ( 0.0000000000000000000, 0.0000000000000000000, 1.000000000000000000 ) ) ;
#138 = PERSON_AND_ORGANIZATION ( #295, #306 ) ;
#139 = CALENDAR_DATE ( 2021, 1, 2 ) ;
#140 = ADVANCED_FACE ( 'NONE', ( #129 ), #222, .T. ) ;
#141 = AXIS2_PLACEMENT_3D ( 'NONE', #315, #9, #291 ) ;
#142 = APPROVAL_PERSON_ORGANIZATION ( #202, #195, #259 ) ;
#143 = EDGE_CURVE ( 'NONE', #307, #44, #82, .T. ) ;
#144 = FACE_OUTER_BOUND ( 'NONE', #235, .T. ) ;
#145 = EDGE_LOOP ( 'NONE', ( #74, #329 ) ) ;
#146 = CARTESIAN_POINT ( 'NONE',  ( 0.0000000000000000000, -5.000000000000001776, 6.000000000000000888 ) ) ;
#147 = ORIENTED_EDGE ( 'NONE', *, *, #174, .F. ) ;
#148 = CC_DESIGN_PERSON_AND_ORGANIZATION_ASSIGNMENT ( #138, #134, ( #244 ) ) ;
#149 = CIRCLE ( 'NONE', #95, 2.499999999999998224 ) ;
#150 = AXIS2_PLACEMENT_3D ( 'NONE', #213, #68, #165 ) ;
#151 = CARTESIAN_POINT ( 'NONE',  ( 0.0000000000000000000, 0.0000000000000000000, 2.499999999999997335 ) ) ;
#152 = VERTEX_POINT ( 'NONE', #126 ) ;
#153 = EDGE_CURVE ( 'NONE', #71, #157, #66, .T. ) ;
#154 = ORIENTED_EDGE ( 'NONE', *, *, #89, .T. ) ;
#155 = FACE_OUTER_BOUND ( 'NONE', #258, .T. ) ;
#156 = CC_DESIGN_APPROVAL ( #42, ( #316 ) ) ;
#157 = VERTEX_POINT ( 'NONE', #146 ) ;
#158 = PLANE ( 'NONE',  #247 ) ;
#159 = VECTOR ( 'NONE', #276, 1000.000000000000000 ) ;
#160 = APPROVAL_STATUS ( 'not_yet_approved' ) ;
#161 = CARTESIAN_POINT ( 'NONE',  ( 0.0000000000000000000, 0.0000000000000000000, 0.0000000000000000000 ) ) ;
#162 = ORIENTED_EDGE ( 'NONE', *, *, #117, .F. ) ;
#163 = PRODUCT_DEFINITION ( 'UNKNOWN', '', #316, #270 ) ;
#164 = DIRECTION ( 'NONE',  ( -0.0000000000000000000, 1.000000000000000000, -0.0000000000000000000 ) ) ;
#165 = DIRECTION ( 'NONE',  ( 0.0000000000000000000, 0.0000000000000000000, 1.000000000000000000 ) ) ;
#166 = ORIENTED_EDGE ( 'NONE', *, *, #298, .T. ) ;
#167 = DATE_AND_TIME ( #288, #31 ) ;
#168 = VECTOR ( 'NONE', #206, 1000.000000000000000 ) ;
#169 = DIRECTION ( 'NONE',  ( -0.0000000000000000000, 1.000000000000000000, -0.0000000000000000000 ) ) ;
#170 = CC_DESIGN_PERSON_AND_ORGANIZATION_ASSIGNMENT ( #4, #106, ( #316 ) ) ;
#171 = CARTESIAN_POINT ( 'NONE',  ( 1.469576158976823947E-15, 5.419203158191626457, -12.00000000000000000 ) ) ;
#172 = DIRECTION ( 'NONE',  ( -0.0000000000000000000, 1.000000000000000000, -0.0000000000000000000 ) ) ;
#173 = APPROVAL_PERSON_ORGANIZATION ( #305, #218, #136 ) ;
#174 = EDGE_CURVE ( 'NONE', #152, #243, #321, .T. ) ;
#175 = EDGE_LOOP ( 'NONE', ( #130, #296 ) ) ;
#176 = CYLINDRICAL_SURFACE ( 'NONE', #47, 2.499999999999997335 ) ;
#177 = DIRECTION ( 'NONE',  ( 0.0000000000000000000, 0.0000000000000000000, 1.000000000000000000 ) ) ;
#178 = CIRCLE ( 'NONE', #308, 12.00000000000000000 ) ;
#179 = ORIENTED_EDGE ( 'NONE', *, *, #143, .T. ) ;
#180 = CARTESIAN_POINT ( 'NONE',  ( 6.000000000000001776, -15.00000000000000000, 0.0000000000000000000 ) ) ;
#181 = AXIS2_PLACEMENT_3D ( 'NONE', #272, #81, #177 ) ;
#182 = VERTEX_POINT ( 'NONE', #322 ) ;
#183 = AXIS2_PLACEMENT_3D ( 'NONE', #224, #228, #323 ) ;
#184 = CYLINDRICAL_SURFACE ( 'NONE', #103, 6.000000000000001776 ) ;
#185 = DIRECTION ( 'NONE',  ( 0.0000000000000000000, 0.0000000000000000000, 1.000000000000000000 ) ) ;
#186 = EDGE_LOOP ( 'NONE', ( #92, #205 ) ) ;
#187 = DIRECTION ( 'NONE',  ( 0.0000000000000000000, 0.0000000000000000000, 1.000000000000000000 ) ) ;
#188 = PRODUCT ( 'A-1538-M6F', 'A-1538-M6F', '', ( #284 ) ) ;
#189 = ADVANCED_FACE ( 'NONE', ( #155 ), #176, .F. ) ;
#190 = COORDINATED_UNIVERSAL_TIME_OFFSET ( 9, 0, .AHEAD. ) ;
#191 = CARTESIAN_POINT ( 'NONE',  ( 0.0000000000000000000, 5.419203158191626457, 0.0000000000000000000 ) ) ;
#192 = DIRECTION ( 'NONE',  ( 0.0000000000000000000, 0.0000000000000000000, 1.000000000000000000 ) ) ;
#193 = LINE ( 'NONE', #67, #312 ) ;
#194 = COORDINATED_UNIVERSAL_TIME_OFFSET ( 9, 0, .AHEAD. ) ;
#195 = APPROVAL ( #160, 'UNSPECIFIED' ) ;
#196 = ORIENTED_EDGE ( 'NONE', *, *, #153, .T. ) ;
#197 = DIRECTION ( 'NONE',  ( -0.0000000000000000000, 1.000000000000000000, -0.0000000000000000000 ) ) ;
#198 = DIRECTION ( 'NONE',  ( 0.0000000000000000000, 0.0000000000000000000, 1.000000000000000000 ) ) ;
#199 = ORIENTED_EDGE ( 'NONE', *, *, #143, .F. ) ;
#200 = AXIS2_PLACEMENT_3D ( 'NONE', #123, #172, #198 ) ;
#201 =( NAMED_UNIT ( * ) SI_UNIT ( $, .STERADIAN. ) SOLID_ANGLE_UNIT ( ) );
#202 = PERSON_AND_ORGANIZATION ( #295, #306 ) ;
#203 = ADVANCED_BREP_SHAPE_REPRESENTATION ( 'A-1538-M6F', ( #290, #34 ), #111 ) ;
#204 = APPLICATION_PROTOCOL_DEFINITION ( 'international standard', 'config_control_design', 1994, #30 ) ;
#205 = ORIENTED_EDGE ( 'NONE', *, *, #117, .T. ) ;
#206 = DIRECTION ( 'NONE',  ( -0.0000000000000000000, 1.000000000000000000, -0.0000000000000000000 ) ) ;
#207 = CC_DESIGN_PERSON_AND_ORGANIZATION_ASSIGNMENT ( #40, #309, ( #316 ) ) ;
#208 = CARTESIAN_POINT ( 'NONE',  ( 0.0000000000000000000, 5.419203158191626457, 0.0000000000000000000 ) ) ;
#209 = EDGE_CURVE ( 'NONE', #33, #152, #314, .T. ) ;
#210 = EDGE_LOOP ( 'NONE', ( #29, #50 ) ) ;
#211 = SECURITY_CLASSIFICATION_LEVEL ( 'unclassified' ) ;
#212 = PRODUCT_RELATED_PRODUCT_CATEGORY ( 'detail', '', ( #188 ) ) ;
#213 = CARTESIAN_POINT ( 'NONE',  ( 0.0000000000000000000, -15.00000000000000000, 0.0000000000000000000 ) ) ;
#214 = ORIENTED_EDGE ( 'NONE', *, *, #310, .T. ) ;
#215 = CC_DESIGN_APPROVAL ( #195, ( #163 ) ) ;
#216 = FACE_OUTER_BOUND ( 'NONE', #186, .T. ) ;
#217 = DIRECTION ( 'NONE',  ( -0.0000000000000000000, 1.000000000000000000, -0.0000000000000000000 ) ) ;
#218 = APPROVAL ( #87, 'UNSPECIFIED' ) ;
#219 = CARTESIAN_POINT ( 'NONE',  ( 7.347880794884120722E-16, -5.000000000000001776, -6.000000000000000888 ) ) ;
#220 = VERTEX_POINT ( 'NONE', #227 ) ;
#221 = ADVANCED_FACE ( 'NONE', ( #93, #327 ), #301, .F. ) ;
#222 = CYLINDRICAL_SURFACE ( 'NONE', #133, 6.000000000000001776 ) ;
#223 = EDGE_LOOP ( 'NONE', ( #127, #7, #238, #56 ) ) ;
#224 = CARTESIAN_POINT ( 'NONE',  ( 0.0000000000000000000, -15.00000000000000000, 0.0000000000000000000 ) ) ;
#225 = CC_DESIGN_PERSON_AND_ORGANIZATION_ASSIGNMENT ( #105, #239, ( #188 ) ) ;
#226 = EDGE_LOOP ( 'NONE', ( #269, #271, #196, #265 ) ) ;
#227 = CARTESIAN_POINT ( 'NONE',  ( 0.0000000000000000000, -4.898587196589410610E-17, 2.499999999999998224 ) ) ;
#228 = DIRECTION ( 'NONE',  ( -0.0000000000000000000, 1.000000000000000000, -0.0000000000000000000 ) ) ;
#229 = FACE_OUTER_BOUND ( 'NONE', #223, .T. ) ;
#230 = FACE_OUTER_BOUND ( 'NONE', #98, .T. ) ;
#231 = DIRECTION ( 'NONE',  ( 0.0000000000000000000, -1.000000000000000000, 0.0000000000000000000 ) ) ;
#232 = PERSON_AND_ORGANIZATION ( #295, #306 ) ;
#233 = CARTESIAN_POINT ( 'NONE',  ( 3.061616997868379690E-16, -15.00000000000000000, -2.499999999999996447 ) ) ;
#234 = CYLINDRICAL_SURFACE ( 'NONE', #268, 2.499999999999997335 ) ;
#235 = EDGE_LOOP ( 'NONE', ( #6, #135, #277, #262 ) ) ;
#236 = PERSON_AND_ORGANIZATION_ROLE ( 'creator' ) ;
#237 = CARTESIAN_POINT ( 'NONE',  ( 0.0000000000000000000, -5.000000000000000000, 0.0000000000000000000 ) ) ;
#238 = ORIENTED_EDGE ( 'NONE', *, *, #320, .T. ) ;
#239 = PERSON_AND_ORGANIZATION_ROLE ( 'design_owner' ) ;
#240 = DIRECTION ( 'NONE',  ( -0.0000000000000000000, 1.000000000000000000, -0.0000000000000000000 ) ) ;
#241 = ADVANCED_FACE ( 'NONE', ( #15 ), #184, .T. ) ;
#242 = CARTESIAN_POINT ( 'NONE',  ( 0.0000000000000000000, -5.000000000000001776, 0.0000000000000000000 ) ) ;
#243 = VERTEX_POINT ( 'NONE', #1 ) ;
#244 = SECURITY_CLASSIFICATION ( '', '', #211 ) ;
#245 = DIRECTION ( 'NONE',  ( -0.0000000000000000000, 1.000000000000000000, -0.0000000000000000000 ) ) ;
#246 = LINE ( 'NONE', #151, #112 ) ;
#247 = AXIS2_PLACEMENT_3D ( 'NONE', #180, #35, #62 ) ;
#248 = CARTESIAN_POINT ( 'NONE',  ( 0.0000000000000000000, -15.00000000000000000, 0.0000000000000000000 ) ) ;
#249 = CIRCLE ( 'NONE', #52, 12.00000000000000000 ) ;
#250 = DIRECTION ( 'NONE',  ( 0.0000000000000000000, 0.0000000000000000000, 1.000000000000000000 ) ) ;
#251 = CALENDAR_DATE ( 2021, 1, 2 ) ;
#252 = CC_DESIGN_APPROVAL ( #218, ( #244 ) ) ;
#253 = CIRCLE ( 'NONE', #150, 6.000000000000001776 ) ;
#254 = CARTESIAN_POINT ( 'NONE',  ( 0.0000000000000000000, 5.419203158191626457, 12.00000000000000000 ) ) ;
#255 = AXIS2_PLACEMENT_3D ( 'NONE', #273, #55, #131 ) ;
#256 = VECTOR ( 'NONE', #169, 1000.000000000000000 ) ;
#257 =( NAMED_UNIT ( * ) PLANE_ANGLE_UNIT ( ) SI_UNIT ( $, .RADIAN. ) );
#258 = EDGE_LOOP ( 'NONE', ( #199, #214, #166, #114 ) ) ;
#259 = APPROVAL_ROLE ( '' ) ;
#260 = SHAPE_DEFINITION_REPRESENTATION ( #274, #203 ) ;
#261 = ADVANCED_FACE ( 'NONE', ( #2, #216 ), #57, .F. ) ;
#262 = ORIENTED_EDGE ( 'NONE', *, *, #325, .F. ) ;
#263 = APPROVAL_DATE_TIME ( #25, #195 ) ;
#264 = CC_DESIGN_PERSON_AND_ORGANIZATION_ASSIGNMENT ( #5, #236, ( #163 ) ) ;
#265 = ORIENTED_EDGE ( 'NONE', *, *, #285, .F. ) ;
#266 = DIRECTION ( 'NONE',  ( -0.0000000000000000000, 1.000000000000000000, -0.0000000000000000000 ) ) ;
#267 = CYLINDRICAL_SURFACE ( 'NONE', #181, 12.00000000000000000 ) ;
#268 = AXIS2_PLACEMENT_3D ( 'NONE', #161, #164, #185 ) ;
#269 = ORIENTED_EDGE ( 'NONE', *, *, #89, .F. ) ;
#270 = DESIGN_CONTEXT ( 'detailed design', #313, 'design' ) ;
#271 = ORIENTED_EDGE ( 'NONE', *, *, #21, .T. ) ;
#272 = CARTESIAN_POINT ( 'NONE',  ( 0.0000000000000000000, 5.419203158191626457, 0.0000000000000000000 ) ) ;
#273 = CARTESIAN_POINT ( 'NONE',  ( 0.0000000000000000000, -5.000000000000001776, 0.0000000000000000000 ) ) ;
#274 = PRODUCT_DEFINITION_SHAPE ( 'NONE', 'NONE',  #163 ) ;
#275 = CYLINDRICAL_SURFACE ( 'NONE', #70, 12.00000000000000000 ) ;
#276 = DIRECTION ( 'NONE',  ( -0.0000000000000000000, 1.000000000000000000, -0.0000000000000000000 ) ) ;
#277 = ORIENTED_EDGE ( 'NONE', *, *, #14, .F. ) ;
#278 = CC_DESIGN_DATE_AND_TIME_ASSIGNMENT ( #280, #83, ( #163 ) ) ;
#279 = UNCERTAINTY_MEASURE_WITH_UNIT (LENGTH_MEASURE( 1.000000000000000082E-05 ), #80, 'distance_accuracy_value', 'NONE');
#280 = DATE_AND_TIME ( #41, #20 ) ;
#281 = DIRECTION ( 'NONE',  ( 0.0000000000000000000, -0.0000000000000000000, -1.000000000000000000 ) ) ;
#282 = ADVANCED_FACE ( 'NONE', ( #144 ), #267, .T. ) ;
#283 = COORDINATED_UNIVERSAL_TIME_OFFSET ( 9, 0, .AHEAD. ) ;
#284 = MECHANICAL_CONTEXT ( 'NONE', #30, 'mechanical' ) ;
#285 = EDGE_CURVE ( 'NONE', #43, #157, #132, .T. ) ;
#286 = CARTESIAN_POINT ( 'NONE',  ( 7.347880794884121708E-16, -15.00000000000000000, -6.000000000000001776 ) ) ;
#287 = CALENDAR_DATE ( 2021, 1, 2 ) ;
#288 = CALENDAR_DATE ( 2021, 1, 2 ) ;
#289 = CARTESIAN_POINT ( 'NONE',  ( 0.0000000000000000000, -4.898587196589410610E-17, 0.0000000000000000000 ) ) ;
#290 = MANIFOLD_SOLID_BREP ( 'M6x1.0 ‚Ë‚¶ŒŠ1', #23 ) ;
#291 = DIRECTION ( 'NONE',  ( 0.0000000000000000000, 0.0000000000000000000, 1.000000000000000000 ) ) ;
#292 = CIRCLE ( 'NONE', #12, 12.00000000000000000 ) ;
#293 = ORIENTED_EDGE ( 'NONE', *, *, #39, .T. ) ;
#294 = DIRECTION ( 'NONE',  ( 0.0000000000000000000, 0.0000000000000000000, 1.000000000000000000 ) ) ;
#295 = PERSON ( 'UNSPECIFIED', 'UNSPECIFIED', 'UNSPECIFIED', ('UNSPECIFIED'), ('UNSPECIFIED'), ('UNSPECIFIED') ) ;
#296 = ORIENTED_EDGE ( 'NONE', *, *, #298, .F. ) ;
#297 = APPROVAL_DATE_TIME ( #46, #218 ) ;
#298 = EDGE_CURVE ( 'NONE', #109, #220, #149, .T. ) ;
#299 = ORIENTED_EDGE ( 'NONE', *, *, #16, .T. ) ;
#300 = ORIENTED_EDGE ( 'NONE', *, *, #21, .F. ) ;
#301 = PLANE ( 'NONE',  #303 ) ;
#302 = DIRECTION ( 'NONE',  ( 0.0000000000000000000, 0.0000000000000000000, 1.000000000000000000 ) ) ;
#303 = AXIS2_PLACEMENT_3D ( 'NONE', #324, #53, #104 ) ;
#304 = DIRECTION ( 'NONE',  ( -0.0000000000000000000, 1.000000000000000000, -0.0000000000000000000 ) ) ;
#305 = PERSON_AND_ORGANIZATION ( #295, #306 ) ;
#306 = ORGANIZATION ( 'UNSPECIFIED', 'UNSPECIFIED', '' ) ;
#307 = VERTEX_POINT ( 'NONE', #233 ) ;
#308 = AXIS2_PLACEMENT_3D ( 'NONE', #237, #266, #110 ) ;
#309 = PERSON_AND_ORGANIZATION_ROLE ( 'design_supplier' ) ;
#310 = EDGE_CURVE ( 'NONE', #307, #109, #10, .T. ) ;
#311 = DATE_TIME_ROLE ( 'classification_date' ) ;
#312 = VECTOR ( 'NONE', #318, 1000.000000000000000 ) ;
#313 = APPLICATION_CONTEXT ( 'configuration controlled 3d designs of mechanical parts and assemblies' ) ;
#314 = CIRCLE ( 'NONE', #200, 12.00000000000000000 ) ;
#315 = CARTESIAN_POINT ( 'NONE',  ( 0.0000000000000000000, -15.00000000000000000, 0.0000000000000000000 ) ) ;
#316 = PRODUCT_DEFINITION_FORMATION_WITH_SPECIFIED_SOURCE ( 'ANY', '', #188, .NOT_KNOWN. ) ;
#317 = FACE_OUTER_BOUND ( 'NONE', #96, .T. ) ;
#318 = DIRECTION ( 'NONE',  ( -0.0000000000000000000, 1.000000000000000000, -0.0000000000000000000 ) ) ;
#319 = LOCAL_TIME ( 16, 2, 58.00000000000000000, #54 ) ;
#320 = EDGE_CURVE ( 'NONE', #44, #220, #246, .T. ) ;
#321 = LINE ( 'NONE', #171, #256 ) ;
#322 = CARTESIAN_POINT ( 'NONE',  ( 0.0000000000000000000, 0.0000000000000000000, 12.00000000000000000 ) ) ;
#323 = DIRECTION ( 'NONE',  ( 0.0000000000000000000, 0.0000000000000000000, 1.000000000000000000 ) ) ;
#324 = CARTESIAN_POINT ( 'NONE',  ( 12.00000000000000000, -5.000000000000000888, 0.0000000000000000000 ) ) ;
#325 = EDGE_CURVE ( 'NONE', #33, #182, #118, .T. ) ;
#326 = CARTESIAN_POINT ( 'NONE',  ( 0.0000000000000000000, 0.0000000000000000000, 0.0000000000000000000 ) ) ;
#327 = FACE_BOUND ( 'NONE', #145, .T. ) ;
#328 = DIRECTION ( 'NONE',  ( 0.0000000000000000000, 0.0000000000000000000, 1.000000000000000000 ) ) ;
#329 = ORIENTED_EDGE ( 'NONE', *, *, #285, .T. ) ;
ENDSEC;
END-ISO-10303-21;
