ISO-10303-21;
HEADER;
FILE_DESCRIPTION (( 'STEP AP203' ),
    '1' );
FILE_NAME ('A-1538-M6-30.STEP',
    '2021-02-01T07:00:43',
    ( '' ),
    ( '' ),
    'SwSTEP 2.0',
    'SolidWorks 2018',
    '' );
FILE_SCHEMA (( 'CONFIG_CONTROL_DESIGN' ));
ENDSEC;

DATA;
#1 = CARTESIAN_POINT ( 'NONE',  ( 7.347880794884121708E-16, 5.419203158191626457, -6.000000000000001776 ) ) ;
#2 = PERSON_AND_ORGANIZATION_ROLE ( 'creator' ) ;
#3 = CARTESIAN_POINT ( 'NONE',  ( 0.0000000000000000000, 5.419203158191626457, 12.00000000000000000 ) ) ;
#4 = ADVANCED_FACE ( 'NONE', ( #273 ), #224, .T. ) ;
#5 = ORIENTED_EDGE ( 'NONE', *, *, #275, .F. ) ;
#6 = APPROVAL_ROLE ( '' ) ;
#7 = DESIGN_CONTEXT ( 'detailed design', #297, 'design' ) ;
#8 = APPROVAL ( #117, 'UNSPECIFIED' ) ;
#9 = ADVANCED_FACE ( 'NONE', ( #303 ), #268, .F. ) ;
#10 = COORDINATED_UNIVERSAL_TIME_OFFSET ( 9, 0, .AHEAD. ) ;
#11 = CIRCLE ( 'NONE', #131, 6.000000000000001776 ) ;
#12 = ORIENTED_EDGE ( 'NONE', *, *, #38, .F. ) ;
#13 = DIRECTION ( 'NONE',  ( 0.0000000000000000000, -1.000000000000000000, 0.0000000000000000000 ) ) ;
#14 = DIRECTION ( 'NONE',  ( -0.0000000000000000000, 1.000000000000000000, -0.0000000000000000000 ) ) ;
#15 = AXIS2_PLACEMENT_3D ( 'NONE', #250, #100, #221 ) ;
#16 = CIRCLE ( 'NONE', #158, 3.000000000000000444 ) ;
#17 = ORIENTED_EDGE ( 'NONE', *, *, #315, .F. ) ;
#18 = EDGE_CURVE ( 'NONE', #128, #170, #65, .T. ) ;
#19 = EDGE_CURVE ( 'NONE', #54, #249, #169, .T. ) ;
#20 = LOCAL_TIME ( 16, 0, 43.00000000000000000, #10 ) ;
#21 = CIRCLE ( 'NONE', #155, 6.000000000000000888 ) ;
#22 = CC_DESIGN_PERSON_AND_ORGANIZATION_ASSIGNMENT ( #196, #271, ( #48 ) ) ;
#23 = CARTESIAN_POINT ( 'NONE',  ( 0.0000000000000000000, -5.000000000000001776, 6.000000000000000888 ) ) ;
#24 = DIRECTION ( 'NONE',  ( 0.0000000000000000000, 0.0000000000000000000, 1.000000000000000000 ) ) ;
#25 = EDGE_CURVE ( 'NONE', #170, #128, #11, .T. ) ;
#26 = DIRECTION ( 'NONE',  ( -0.0000000000000000000, 1.000000000000000000, -0.0000000000000000000 ) ) ;
#27 = CIRCLE ( 'NONE', #266, 6.000000000000000888 ) ;
#28 = PERSON_AND_ORGANIZATION ( #121, #127 ) ;
#29 = DIRECTION ( 'NONE',  ( 0.0000000000000000000, 0.0000000000000000000, 1.000000000000000000 ) ) ;
#30 = ORIENTED_EDGE ( 'NONE', *, *, #153, .F. ) ;
#31 = EDGE_LOOP ( 'NONE', ( #179, #143, #93, #187 ) ) ;
#32 = CARTESIAN_POINT ( 'NONE',  ( 0.0000000000000000000, 5.419203158191626457, 0.0000000000000000000 ) ) ;
#33 = DIRECTION ( 'NONE',  ( -0.0000000000000000000, 1.000000000000000000, -0.0000000000000000000 ) ) ;
#34 = APPROVAL_PERSON_ORGANIZATION ( #173, #45, #292 ) ;
#35 = VECTOR ( 'NONE', #172, 1000.000000000000000 ) ;
#36 = AXIS2_PLACEMENT_3D ( 'NONE', #138, #335, #264 ) ;
#37 = ORIENTED_EDGE ( 'NONE', *, *, #25, .T. ) ;
#38 = EDGE_CURVE ( 'NONE', #109, #162, #232, .T. ) ;
#39 = ADVANCED_FACE ( 'NONE', ( #161, #52 ), #120, .F. ) ;
#40 = APPROVAL_ROLE ( '' ) ;
#41 = VECTOR ( 'NONE', #239, 1000.000000000000000 ) ;
#42 = AXIS2_PLACEMENT_3D ( 'NONE', #321, #70, #217 ) ;
#43 = VERTEX_POINT ( 'NONE', #44 ) ;
#44 = CARTESIAN_POINT ( 'NONE',  ( 7.347880794884120722E-16, -5.000000000000001776, -6.000000000000000888 ) ) ;
#45 = APPROVAL ( #140, 'UNSPECIFIED' ) ;
#46 = VECTOR ( 'NONE', #291, 1000.000000000000000 ) ;
#47 = CALENDAR_DATE ( 2021, 1, 2 ) ;
#48 = PRODUCT_DEFINITION_FORMATION_WITH_SPECIFIED_SOURCE ( 'ANY', '', #90, .NOT_KNOWN. ) ;
#49 = CARTESIAN_POINT ( 'NONE',  ( 0.0000000000000000000, 5.419203158191626457, 0.0000000000000000000 ) ) ;
#50 = EDGE_CURVE ( 'NONE', #71, #249, #98, .T. ) ;
#51 = LOCAL_TIME ( 16, 0, 43.00000000000000000, #202 ) ;
#52 = FACE_OUTER_BOUND ( 'NONE', #82, .T. ) ;
#53 = CARTESIAN_POINT ( 'NONE',  ( 0.0000000000000000000, -45.00000000000000000, 3.000000000000000444 ) ) ;
#54 = VERTEX_POINT ( 'NONE', #192 ) ;
#55 = AXIS2_PLACEMENT_3D ( 'NONE', #274, #14, #95 ) ;
#56 = CARTESIAN_POINT ( 'NONE',  ( 1.469576158976823947E-15, 5.419203158191626457, -12.00000000000000000 ) ) ;
#57 = DIRECTION ( 'NONE',  ( -0.0000000000000000000, 1.000000000000000000, -0.0000000000000000000 ) ) ;
#58 = EDGE_CURVE ( 'NONE', #216, #135, #154, .T. ) ;
#59 = DIRECTION ( 'NONE',  ( 0.0000000000000000000, 0.0000000000000000000, 1.000000000000000000 ) ) ;
#60 = CIRCLE ( 'NONE', #188, 12.00000000000000000 ) ;
#61 = AXIS2_PLACEMENT_3D ( 'NONE', #32, #67, #294 ) ;
#62 = CARTESIAN_POINT ( 'NONE',  ( 0.0000000000000000000, -45.00000000000000000, 0.0000000000000000000 ) ) ;
#63 = DIRECTION ( 'NONE',  ( 0.0000000000000000000, 0.0000000000000000000, -1.000000000000000000 ) ) ;
#64 = CC_DESIGN_APPROVAL ( #197, ( #48 ) ) ;
#65 = CIRCLE ( 'NONE', #42, 6.000000000000001776 ) ;
#66 = APPROVAL_STATUS ( 'not_yet_approved' ) ;
#67 = DIRECTION ( 'NONE',  ( -0.0000000000000000000, 1.000000000000000000, -0.0000000000000000000 ) ) ;
#68 = MANIFOLD_SOLID_BREP ( 'ÎÞ½ - µoµ1', #99 ) ;
#69 = DIRECTION ( 'NONE',  ( 0.0000000000000000000, 0.0000000000000000000, 1.000000000000000000 ) ) ;
#70 = DIRECTION ( 'NONE',  ( -0.0000000000000000000, 1.000000000000000000, -0.0000000000000000000 ) ) ;
#71 = VERTEX_POINT ( 'NONE', #298 ) ;
#72 = CARTESIAN_POINT ( 'NONE',  ( 0.0000000000000000000, -45.00000000000000000, 0.0000000000000000000 ) ) ;
#73 = CC_DESIGN_PERSON_AND_ORGANIZATION_ASSIGNMENT ( #122, #317, ( #149 ) ) ;
#74 = DATE_AND_TIME ( #285, #20 ) ;
#75 = ORIENTED_EDGE ( 'NONE', *, *, #261, .T. ) ;
#76 = EDGE_LOOP ( 'NONE', ( #178, #79, #260, #176 ) ) ;
#77 = AXIS2_PLACEMENT_3D ( 'NONE', #167, #114, #290 ) ;
#78 = APPROVAL_PERSON_ORGANIZATION ( #279, #197, #40 ) ;
#79 = ORIENTED_EDGE ( 'NONE', *, *, #87, .T. ) ;
#80 = CARTESIAN_POINT ( 'NONE',  ( 0.0000000000000000000, -45.00000000000000000, 0.0000000000000000000 ) ) ;
#81 = ORIENTED_EDGE ( 'NONE', *, *, #214, .F. ) ;
#82 = EDGE_LOOP ( 'NONE', ( #204, #325 ) ) ;
#83 = CARTESIAN_POINT ( 'NONE',  ( 3.673940397442060361E-16, -45.00000000000000000, -3.000000000000000444 ) ) ;
#84 = DIRECTION ( 'NONE',  ( -0.0000000000000000000, 1.000000000000000000, -0.0000000000000000000 ) ) ;
#85 = ORIENTED_EDGE ( 'NONE', *, *, #58, .T. ) ;
#86 = PLANE ( 'NONE',  #36 ) ;
#87 = EDGE_CURVE ( 'NONE', #216, #109, #248, .T. ) ;
#88 = CARTESIAN_POINT ( 'NONE',  ( 0.0000000000000000000, -5.000000000000000000, 0.0000000000000000000 ) ) ;
#89 = CC_DESIGN_DATE_AND_TIME_ASSIGNMENT ( #312, #142, ( #164 ) ) ;
#90 = PRODUCT ( 'A-1538-M6-30', 'A-1538-M6-30', '', ( #267 ) ) ;
#91 = APPLICATION_PROTOCOL_DEFINITION ( 'international standard', 'config_control_design', 1994, #295 ) ;
#92 = LINE ( 'NONE', #159, #215 ) ;
#93 = ORIENTED_EDGE ( 'NONE', *, *, #160, .F. ) ;
#94 = ADVANCED_FACE ( 'NONE', ( #105 ), #288, .T. ) ;
#95 = DIRECTION ( 'NONE',  ( 0.0000000000000000000, 0.0000000000000000000, 1.000000000000000000 ) ) ;
#96 = ADVANCED_FACE ( 'NONE', ( #219 ), #151, .T. ) ;
#97 = DIRECTION ( 'NONE',  ( 0.0000000000000000000, 0.0000000000000000000, -1.000000000000000000 ) ) ;
#98 = LINE ( 'NONE', #3, #282 ) ;
#99 = CLOSED_SHELL ( 'NONE', ( #189, #4, #96, #9, #94, #316, #126, #39, #123, #245 ) ) ;
#100 = DIRECTION ( 'NONE',  ( -0.0000000000000000000, 1.000000000000000000, -0.0000000000000000000 ) ) ;
#101 = CC_DESIGN_SECURITY_CLASSIFICATION ( #164, ( #48 ) ) ;
#102 = DIRECTION ( 'NONE',  ( 0.0000000000000000000, 0.0000000000000000000, -1.000000000000000000 ) ) ;
#103 = DATE_AND_TIME ( #165, #300 ) ;
#104 = CYLINDRICAL_SURFACE ( 'NONE', #190, 3.000000000000000444 ) ;
#105 = FACE_OUTER_BOUND ( 'NONE', #307, .T. ) ;
#106 = ORIENTED_EDGE ( 'NONE', *, *, #19, .F. ) ;
#107 = CARTESIAN_POINT ( 'NONE',  ( 0.0000000000000000000, -15.00000000000000000, 3.000000000000000444 ) ) ;
#108 = CIRCLE ( 'NONE', #177, 12.00000000000000000 ) ;
#109 = VERTEX_POINT ( 'NONE', #233 ) ;
#110 = ORIENTED_EDGE ( 'NONE', *, *, #315, .T. ) ;
#111 = CC_DESIGN_APPROVAL ( #45, ( #164 ) ) ;
#112 = CARTESIAN_POINT ( 'NONE',  ( 0.0000000000000000000, 0.0000000000000000000, 0.0000000000000000000 ) ) ;
#113 = CARTESIAN_POINT ( 'NONE',  ( 0.0000000000000000000, -15.00000000000000000, 0.0000000000000000000 ) ) ;
#114 = DIRECTION ( 'NONE',  ( 0.0000000000000000000, -1.000000000000000000, 0.0000000000000000000 ) ) ;
#115 = AXIS2_PLACEMENT_3D ( 'NONE', #311, #29, #272 ) ;
#116 = ORIENTED_EDGE ( 'NONE', *, *, #332, .T. ) ;
#117 = APPROVAL_STATUS ( 'not_yet_approved' ) ;
#118 = EDGE_LOOP ( 'NONE', ( #157, #277 ) ) ;
#119 = PERSON_AND_ORGANIZATION_ROLE ( 'design_owner' ) ;
#120 = PLANE ( 'NONE',  #175 ) ;
#121 = PERSON ( 'UNSPECIFIED', 'UNSPECIFIED', 'UNSPECIFIED', ('UNSPECIFIED'), ('UNSPECIFIED'), ('UNSPECIFIED') ) ;
#122 = PERSON_AND_ORGANIZATION ( #121, #127 ) ;
#123 = ADVANCED_FACE ( 'NONE', ( #305 ), #104, .T. ) ;
#124 = CC_DESIGN_APPROVAL ( #8, ( #149 ) ) ;
#125 = CARTESIAN_POINT ( 'NONE',  ( 0.0000000000000000000, -15.00000000000000000, 0.0000000000000000000 ) ) ;
#126 = ADVANCED_FACE ( 'NONE', ( #166 ), #330, .T. ) ;
#127 = ORGANIZATION ( 'UNSPECIFIED', 'UNSPECIFIED', '' ) ;
#128 = VERTEX_POINT ( 'NONE', #306 ) ;
#129 = ORIENTED_EDGE ( 'NONE', *, *, #234, .F. ) ;
#130 = CARTESIAN_POINT ( 'NONE',  ( 3.673940397442060361E-16, -45.00000000000000000, -3.000000000000000444 ) ) ;
#131 = AXIS2_PLACEMENT_3D ( 'NONE', #194, #144, #299 ) ;
#132 = VERTEX_POINT ( 'NONE', #23 ) ;
#133 = LINE ( 'NONE', #1, #46 ) ;
#134 = CARTESIAN_POINT ( 'NONE',  ( 0.0000000000000000000, -45.00000000000000000, 0.0000000000000000000 ) ) ;
#135 = VERTEX_POINT ( 'NONE', #53 ) ;
#136 = CARTESIAN_POINT ( 'NONE',  ( 0.0000000000000000000, -5.000000000000001776, 0.0000000000000000000 ) ) ;
#137 = APPROVAL_DATE_TIME ( #309, #197 ) ;
#138 = CARTESIAN_POINT ( 'NONE',  ( 0.0000000000000000000, -45.00000000000000000, 0.0000000000000000000 ) ) ;
#139 = DIRECTION ( 'NONE',  ( -0.0000000000000000000, 1.000000000000000000, 0.0000000000000000000 ) ) ;
#140 = APPROVAL_STATUS ( 'not_yet_approved' ) ;
#141 = APPROVAL_DATE_TIME ( #183, #8 ) ;
#142 = DATE_TIME_ROLE ( 'classification_date' ) ;
#143 = ORIENTED_EDGE ( 'NONE', *, *, #214, .T. ) ;
#144 = DIRECTION ( 'NONE',  ( -0.0000000000000000000, 1.000000000000000000, -0.0000000000000000000 ) ) ;
#145 = PERSON_AND_ORGANIZATION ( #121, #127 ) ;
#146 = PRODUCT_RELATED_PRODUCT_CATEGORY ( 'detail', '', ( #90 ) ) ;
#147 = LINE ( 'NONE', #210, #41 ) ;
#148 = EDGE_LOOP ( 'NONE', ( #265, #225, #75, #203 ) ) ;
#149 = PRODUCT_DEFINITION ( 'UNKNOWN', '', #48, #7 ) ;
#150 = FACE_BOUND ( 'NONE', #333, .T. ) ;
#151 = CYLINDRICAL_SURFACE ( 'NONE', #246, 12.00000000000000000 ) ;
#152 = DIRECTION ( 'NONE',  ( -0.0000000000000000000, 1.000000000000000000, -0.0000000000000000000 ) ) ;
#153 = EDGE_CURVE ( 'NONE', #162, #109, #16, .T. ) ;
#154 = CIRCLE ( 'NONE', #171, 3.000000000000000444 ) ;
#155 = AXIS2_PLACEMENT_3D ( 'NONE', #180, #235, #201 ) ;
#156 = ORIENTED_EDGE ( 'NONE', *, *, #254, .F. ) ;
#157 = ORIENTED_EDGE ( 'NONE', *, *, #160, .T. ) ;
#158 = AXIS2_PLACEMENT_3D ( 'NONE', #113, #262, #331 ) ;
#159 = CARTESIAN_POINT ( 'NONE',  ( 0.0000000000000000000, -45.00000000000000000, 3.000000000000000444 ) ) ;
#160 = EDGE_CURVE ( 'NONE', #249, #54, #324, .T. ) ;
#161 = FACE_BOUND ( 'NONE', #185, .T. ) ;
#162 = VERTEX_POINT ( 'NONE', #107 ) ;
#163 = DIRECTION ( 'NONE',  ( 0.0000000000000000000, 0.0000000000000000000, 1.000000000000000000 ) ) ;
#164 = SECURITY_CLASSIFICATION ( '', '', #213 ) ;
#165 = CALENDAR_DATE ( 2021, 1, 2 ) ;
#166 = FACE_OUTER_BOUND ( 'NONE', #227, .T. ) ;
#167 = CARTESIAN_POINT ( 'NONE',  ( 0.0000000000000000000, 0.0000000000000000000, 0.0000000000000000000 ) ) ;
#168 =( LENGTH_UNIT ( ) NAMED_UNIT ( * ) SI_UNIT ( .MILLI., .METRE. ) );
#169 = CIRCLE ( 'NONE', #15, 12.00000000000000000 ) ;
#170 = VERTEX_POINT ( 'NONE', #329 ) ;
#171 = AXIS2_PLACEMENT_3D ( 'NONE', #72, #251, #102 ) ;
#172 = DIRECTION ( 'NONE',  ( -0.0000000000000000000, 1.000000000000000000, -0.0000000000000000000 ) ) ;
#173 = PERSON_AND_ORGANIZATION ( #121, #127 ) ;
#174 = VECTOR ( 'NONE', #281, 1000.000000000000000 ) ;
#175 = AXIS2_PLACEMENT_3D ( 'NONE', #222, #276, #69 ) ;
#176 = ORIENTED_EDGE ( 'NONE', *, *, #261, .F. ) ;
#177 = AXIS2_PLACEMENT_3D ( 'NONE', #88, #284, #184 ) ;
#178 = ORIENTED_EDGE ( 'NONE', *, *, #58, .F. ) ;
#179 = ORIENTED_EDGE ( 'NONE', *, *, #234, .T. ) ;
#180 = CARTESIAN_POINT ( 'NONE',  ( 0.0000000000000000000, -5.000000000000001776, 0.0000000000000000000 ) ) ;
#181 = EDGE_CURVE ( 'NONE', #132, #43, #21, .T. ) ;
#182 = CARTESIAN_POINT ( 'NONE',  ( 0.0000000000000000000, 5.419203158191626457, 0.0000000000000000000 ) ) ;
#183 = DATE_AND_TIME ( #255, #51 ) ;
#184 = DIRECTION ( 'NONE',  ( 0.0000000000000000000, 0.0000000000000000000, 1.000000000000000000 ) ) ;
#185 = EDGE_LOOP ( 'NONE', ( #30, #12 ) ) ;
#186 = PERSON_AND_ORGANIZATION ( #121, #127 ) ;
#187 = ORIENTED_EDGE ( 'NONE', *, *, #50, .F. ) ;
#188 = AXIS2_PLACEMENT_3D ( 'NONE', #238, #33, #59 ) ;
#189 = ADVANCED_FACE ( 'NONE', ( #208 ), #199, .T. ) ;
#190 = AXIS2_PLACEMENT_3D ( 'NONE', #134, #57, #257 ) ;
#191 = DATE_TIME_ROLE ( 'creation_date' ) ;
#192 = CARTESIAN_POINT ( 'NONE',  ( 1.469576158976823947E-15, 0.0000000000000000000, -12.00000000000000000 ) ) ;
#193 = COORDINATED_UNIVERSAL_TIME_OFFSET ( 9, 0, .AHEAD. ) ;
#194 = CARTESIAN_POINT ( 'NONE',  ( 0.0000000000000000000, -15.00000000000000000, 0.0000000000000000000 ) ) ;
#195 = DIRECTION ( 'NONE',  ( -0.0000000000000000000, 1.000000000000000000, -0.0000000000000000000 ) ) ;
#196 = PERSON_AND_ORGANIZATION ( #121, #127 ) ;
#197 = APPROVAL ( #66, 'UNSPECIFIED' ) ;
#198 = UNCERTAINTY_MEASURE_WITH_UNIT (LENGTH_MEASURE( 1.000000000000000082E-05 ), #168, 'distance_accuracy_value', 'NONE');
#199 = CYLINDRICAL_SURFACE ( 'NONE', #220, 3.000000000000000444 ) ;
#200 = DIRECTION ( 'NONE',  ( 0.0000000000000000000, 0.0000000000000000000, 1.000000000000000000 ) ) ;
#201 = DIRECTION ( 'NONE',  ( 0.0000000000000000000, 0.0000000000000000000, 1.000000000000000000 ) ) ;
#202 = COORDINATED_UNIVERSAL_TIME_OFFSET ( 9, 0, .AHEAD. ) ;
#203 = ORIENTED_EDGE ( 'NONE', *, *, #153, .T. ) ;
#204 = ORIENTED_EDGE ( 'NONE', *, *, #18, .F. ) ;
#205 = AXIS2_PLACEMENT_3D ( 'NONE', #112, #258, #229 ) ;
#206 = PLANE ( 'NONE',  #230 ) ;
#207 = CARTESIAN_POINT ( 'NONE',  ( 12.00000000000000000, -5.000000000000000888, 0.0000000000000000000 ) ) ;
#208 = FACE_OUTER_BOUND ( 'NONE', #76, .T. ) ;
#209 = EDGE_LOOP ( 'NONE', ( #116, #85 ) ) ;
#210 = CARTESIAN_POINT ( 'NONE',  ( 0.0000000000000000000, 5.419203158191626457, 6.000000000000001776 ) ) ;
#211 = AXIS2_PLACEMENT_3D ( 'NONE', #182, #152, #200 ) ;
#212 =( NAMED_UNIT ( * ) PLANE_ANGLE_UNIT ( ) SI_UNIT ( $, .RADIAN. ) );
#213 = SECURITY_CLASSIFICATION_LEVEL ( 'unclassified' ) ;
#214 = EDGE_CURVE ( 'NONE', #313, #54, #242, .T. ) ;
#215 = VECTOR ( 'NONE', #84, 1000.000000000000000 ) ;
#216 = VERTEX_POINT ( 'NONE', #83 ) ;
#217 = DIRECTION ( 'NONE',  ( 0.0000000000000000000, 0.0000000000000000000, 1.000000000000000000 ) ) ;
#218 = LOCAL_TIME ( 16, 0, 43.00000000000000000, #270 ) ;
#219 = FACE_OUTER_BOUND ( 'NONE', #31, .T. ) ;
#220 = AXIS2_PLACEMENT_3D ( 'NONE', #80, #26, #24 ) ;
#221 = DIRECTION ( 'NONE',  ( 0.0000000000000000000, 0.0000000000000000000, 1.000000000000000000 ) ) ;
#222 = CARTESIAN_POINT ( 'NONE',  ( 6.000000000000001776, -15.00000000000000000, 0.0000000000000000000 ) ) ;
#223 = PRODUCT_DEFINITION_SHAPE ( 'NONE', 'NONE',  #149 ) ;
#224 = CYLINDRICAL_SURFACE ( 'NONE', #61, 6.000000000000001776 ) ;
#225 = ORIENTED_EDGE ( 'NONE', *, *, #332, .F. ) ;
#226 = EDGE_LOOP ( 'NONE', ( #129, #17 ) ) ;
#227 = EDGE_LOOP ( 'NONE', ( #5, #37, #319, #156 ) ) ;
#228 = APPROVAL_DATE_TIME ( #103, #45 ) ;
#229 = DIRECTION ( 'NONE',  ( 0.0000000000000000000, 0.0000000000000000000, 1.000000000000000000 ) ) ;
#230 = AXIS2_PLACEMENT_3D ( 'NONE', #207, #139, #236 ) ;
#231 = COORDINATED_UNIVERSAL_TIME_OFFSET ( 9, 0, .AHEAD. ) ;
#232 = CIRCLE ( 'NONE', #328, 3.000000000000000444 ) ;
#233 = CARTESIAN_POINT ( 'NONE',  ( 3.673940397442060361E-16, -15.00000000000000000, -3.000000000000000444 ) ) ;
#234 = EDGE_CURVE ( 'NONE', #71, #313, #108, .T. ) ;
#235 = DIRECTION ( 'NONE',  ( -0.0000000000000000000, 1.000000000000000000, -0.0000000000000000000 ) ) ;
#236 = DIRECTION ( 'NONE',  ( 0.0000000000000000000, 0.0000000000000000000, 1.000000000000000000 ) ) ;
#237 = ORIENTED_EDGE ( 'NONE', *, *, #50, .T. ) ;
#238 = CARTESIAN_POINT ( 'NONE',  ( 0.0000000000000000000, -5.000000000000000000, 0.0000000000000000000 ) ) ;
#239 = DIRECTION ( 'NONE',  ( -0.0000000000000000000, 1.000000000000000000, -0.0000000000000000000 ) ) ;
#240 = CIRCLE ( 'NONE', #278, 3.000000000000000444 ) ;
#241 = APPLICATION_PROTOCOL_DEFINITION ( 'international standard', 'config_control_design', 1994, #297 ) ;
#242 = LINE ( 'NONE', #56, #174 ) ;
#243 = ORIENTED_EDGE ( 'NONE', *, *, #181, .T. ) ;
#244 = ORIENTED_EDGE ( 'NONE', *, *, #254, .T. ) ;
#245 = ADVANCED_FACE ( 'NONE', ( #252 ), #86, .T. ) ;
#246 = AXIS2_PLACEMENT_3D ( 'NONE', #49, #195, #302 ) ;
#247 = PERSON_AND_ORGANIZATION ( #121, #127 ) ;
#248 = LINE ( 'NONE', #130, #35 ) ;
#249 = VERTEX_POINT ( 'NONE', #308 ) ;
#250 = CARTESIAN_POINT ( 'NONE',  ( 0.0000000000000000000, 0.0000000000000000000, 0.0000000000000000000 ) ) ;
#251 = DIRECTION ( 'NONE',  ( 0.0000000000000000000, -1.000000000000000000, 0.0000000000000000000 ) ) ;
#252 = FACE_OUTER_BOUND ( 'NONE', #209, .T. ) ;
#253 = CC_DESIGN_PERSON_AND_ORGANIZATION_ASSIGNMENT ( #186, #2, ( #48 ) ) ;
#254 = EDGE_CURVE ( 'NONE', #43, #132, #27, .T. ) ;
#255 = CALENDAR_DATE ( 2021, 1, 2 ) ;
#256 = EDGE_LOOP ( 'NONE', ( #280, #310, #301, #327 ) ) ;
#257 = DIRECTION ( 'NONE',  ( 0.0000000000000000000, 0.0000000000000000000, 1.000000000000000000 ) ) ;
#258 = DIRECTION ( 'NONE',  ( -0.0000000000000000000, 1.000000000000000000, -0.0000000000000000000 ) ) ;
#259 = CALENDAR_DATE ( 2021, 1, 2 ) ;
#260 = ORIENTED_EDGE ( 'NONE', *, *, #38, .T. ) ;
#261 = EDGE_CURVE ( 'NONE', #135, #162, #92, .T. ) ;
#262 = DIRECTION ( 'NONE',  ( 0.0000000000000000000, -1.000000000000000000, 0.0000000000000000000 ) ) ;
#263 = FACE_OUTER_BOUND ( 'NONE', #226, .T. ) ;
#264 = DIRECTION ( 'NONE',  ( 0.0000000000000000000, -0.0000000000000000000, -1.000000000000000000 ) ) ;
#265 = ORIENTED_EDGE ( 'NONE', *, *, #87, .F. ) ;
#266 = AXIS2_PLACEMENT_3D ( 'NONE', #136, #283, #163 ) ;
#267 = MECHANICAL_CONTEXT ( 'NONE', #295, 'mechanical' ) ;
#268 = PLANE ( 'NONE',  #77 ) ;
#269 = EDGE_CURVE ( 'NONE', #128, #132, #147, .T. ) ;
#270 = COORDINATED_UNIVERSAL_TIME_OFFSET ( 9, 0, .AHEAD. ) ;
#271 = PERSON_AND_ORGANIZATION_ROLE ( 'design_supplier' ) ;
#272 = DIRECTION ( 'NONE',  ( 1.000000000000000000, 0.0000000000000000000, 0.0000000000000000000 ) ) ;
#273 = FACE_OUTER_BOUND ( 'NONE', #256, .T. ) ;
#274 = CARTESIAN_POINT ( 'NONE',  ( 0.0000000000000000000, 5.419203158191626457, 0.0000000000000000000 ) ) ;
#275 = EDGE_CURVE ( 'NONE', #170, #43, #133, .T. ) ;
#276 = DIRECTION ( 'NONE',  ( -0.0000000000000000000, 1.000000000000000000, 0.0000000000000000000 ) ) ;
#277 = ORIENTED_EDGE ( 'NONE', *, *, #19, .T. ) ;
#278 = AXIS2_PLACEMENT_3D ( 'NONE', #62, #286, #63 ) ;
#279 = PERSON_AND_ORGANIZATION ( #121, #127 ) ;
#280 = ORIENTED_EDGE ( 'NONE', *, *, #18, .T. ) ;
#281 = DIRECTION ( 'NONE',  ( -0.0000000000000000000, 1.000000000000000000, -0.0000000000000000000 ) ) ;
#282 = VECTOR ( 'NONE', #326, 1000.000000000000000 ) ;
#283 = DIRECTION ( 'NONE',  ( -0.0000000000000000000, 1.000000000000000000, -0.0000000000000000000 ) ) ;
#284 = DIRECTION ( 'NONE',  ( -0.0000000000000000000, 1.000000000000000000, -0.0000000000000000000 ) ) ;
#285 = CALENDAR_DATE ( 2021, 1, 2 ) ;
#286 = DIRECTION ( 'NONE',  ( 0.0000000000000000000, -1.000000000000000000, 0.0000000000000000000 ) ) ;
#287 = ADVANCED_BREP_SHAPE_REPRESENTATION ( 'A-1538-M6-30', ( #68, #115 ), #289 ) ;
#288 = CYLINDRICAL_SURFACE ( 'NONE', #55, 12.00000000000000000 ) ;
#289 =( GEOMETRIC_REPRESENTATION_CONTEXT ( 3 ) GLOBAL_UNCERTAINTY_ASSIGNED_CONTEXT ( ( #198 ) ) GLOBAL_UNIT_ASSIGNED_CONTEXT ( ( #168, #212, #320 ) ) REPRESENTATION_CONTEXT ( 'NONE', 'WORKASPACE' ) );
#290 = DIRECTION ( 'NONE',  ( 0.0000000000000000000, -0.0000000000000000000, -1.000000000000000000 ) ) ;
#291 = DIRECTION ( 'NONE',  ( -0.0000000000000000000, 1.000000000000000000, -0.0000000000000000000 ) ) ;
#292 = APPROVAL_ROLE ( '' ) ;
#293 = PERSON_AND_ORGANIZATION_ROLE ( 'classification_officer' ) ;
#294 = DIRECTION ( 'NONE',  ( 0.0000000000000000000, 0.0000000000000000000, 1.000000000000000000 ) ) ;
#295 = APPLICATION_CONTEXT ( 'configuration controlled 3d designs of mechanical parts and assemblies' ) ;
#296 = CC_DESIGN_PERSON_AND_ORGANIZATION_ASSIGNMENT ( #28, #119, ( #90 ) ) ;
#297 = APPLICATION_CONTEXT ( 'configuration controlled 3d designs of mechanical parts and assemblies' ) ;
#298 = CARTESIAN_POINT ( 'NONE',  ( 0.0000000000000000000, -5.000000000000000000, 12.00000000000000000 ) ) ;
#299 = DIRECTION ( 'NONE',  ( 0.0000000000000000000, 0.0000000000000000000, 1.000000000000000000 ) ) ;
#300 = LOCAL_TIME ( 16, 0, 43.00000000000000000, #231 ) ;
#301 = ORIENTED_EDGE ( 'NONE', *, *, #181, .F. ) ;
#302 = DIRECTION ( 'NONE',  ( 0.0000000000000000000, 0.0000000000000000000, 1.000000000000000000 ) ) ;
#303 = FACE_OUTER_BOUND ( 'NONE', #118, .T. ) ;
#304 = APPROVAL_PERSON_ORGANIZATION ( #145, #8, #6 ) ;
#305 = FACE_OUTER_BOUND ( 'NONE', #148, .T. ) ;
#306 = CARTESIAN_POINT ( 'NONE',  ( 0.0000000000000000000, -15.00000000000000000, 6.000000000000001776 ) ) ;
#307 = EDGE_LOOP ( 'NONE', ( #81, #110, #237, #106 ) ) ;
#308 = CARTESIAN_POINT ( 'NONE',  ( 0.0000000000000000000, 0.0000000000000000000, 12.00000000000000000 ) ) ;
#309 = DATE_AND_TIME ( #47, #218 ) ;
#310 = ORIENTED_EDGE ( 'NONE', *, *, #275, .T. ) ;
#311 = CARTESIAN_POINT ( 'NONE',  ( 0.0000000000000000000, 0.0000000000000000000, 0.0000000000000000000 ) ) ;
#312 = DATE_AND_TIME ( #259, #323 ) ;
#313 = VERTEX_POINT ( 'NONE', #334 ) ;
#314 = CC_DESIGN_PERSON_AND_ORGANIZATION_ASSIGNMENT ( #247, #293, ( #164 ) ) ;
#315 = EDGE_CURVE ( 'NONE', #313, #71, #60, .T. ) ;
#316 = ADVANCED_FACE ( 'NONE', ( #263, #150 ), #206, .F. ) ;
#317 = PERSON_AND_ORGANIZATION_ROLE ( 'creator' ) ;
#318 = SHAPE_DEFINITION_REPRESENTATION ( #223, #287 ) ;
#319 = ORIENTED_EDGE ( 'NONE', *, *, #269, .T. ) ;
#320 =( NAMED_UNIT ( * ) SI_UNIT ( $, .STERADIAN. ) SOLID_ANGLE_UNIT ( ) );
#321 = CARTESIAN_POINT ( 'NONE',  ( 0.0000000000000000000, -15.00000000000000000, 0.0000000000000000000 ) ) ;
#322 = CC_DESIGN_DATE_AND_TIME_ASSIGNMENT ( #74, #191, ( #149 ) ) ;
#323 = LOCAL_TIME ( 16, 0, 43.00000000000000000, #193 ) ;
#324 = CIRCLE ( 'NONE', #205, 12.00000000000000000 ) ;
#325 = ORIENTED_EDGE ( 'NONE', *, *, #25, .F. ) ;
#326 = DIRECTION ( 'NONE',  ( -0.0000000000000000000, 1.000000000000000000, -0.0000000000000000000 ) ) ;
#327 = ORIENTED_EDGE ( 'NONE', *, *, #269, .F. ) ;
#328 = AXIS2_PLACEMENT_3D ( 'NONE', #125, #13, #97 ) ;
#329 = CARTESIAN_POINT ( 'NONE',  ( 7.347880794884121708E-16, -15.00000000000000000, -6.000000000000001776 ) ) ;
#330 = CYLINDRICAL_SURFACE ( 'NONE', #211, 6.000000000000001776 ) ;
#331 = DIRECTION ( 'NONE',  ( 0.0000000000000000000, 0.0000000000000000000, -1.000000000000000000 ) ) ;
#332 = EDGE_CURVE ( 'NONE', #135, #216, #240, .T. ) ;
#333 = EDGE_LOOP ( 'NONE', ( #243, #244 ) ) ;
#334 = CARTESIAN_POINT ( 'NONE',  ( 1.469576158976823947E-15, -5.000000000000000000, -12.00000000000000000 ) ) ;
#335 = DIRECTION ( 'NONE',  ( 0.0000000000000000000, -1.000000000000000000, 0.0000000000000000000 ) ) ;
ENDSEC;
END-ISO-10303-21;
