ISO-10303-21;
HEADER;
FILE_DESCRIPTION (( 'STEP AP203' ),
    '1' );
FILE_NAME ('A-1538-M6-20.STEP',
    '2021-02-01T07:01:58',
    ( '' ),
    ( '' ),
    'SwSTEP 2.0',
    'SolidWorks 2018',
    '' );
FILE_SCHEMA (( 'CONFIG_CONTROL_DESIGN' ));
ENDSEC;

DATA;
#1 = PERSON_AND_ORGANIZATION ( #88, #182 ) ;
#2 = EDGE_LOOP ( 'NONE', ( #274, #258, #129, #267 ) ) ;
#3 = EDGE_CURVE ( 'NONE', #225, #174, #95, .T. ) ;
#4 = CIRCLE ( 'NONE', #152, 3.000000000000000444 ) ;
#5 = EDGE_LOOP ( 'NONE', ( #137, #178 ) ) ;
#6 = PERSON_AND_ORGANIZATION_ROLE ( 'classification_officer' ) ;
#7 = ADVANCED_FACE ( 'NONE', ( #252 ), #99, .T. ) ;
#8 = DIRECTION ( 'NONE',  ( -0.0000000000000000000, 1.000000000000000000, -0.0000000000000000000 ) ) ;
#9 = CARTESIAN_POINT ( 'NONE',  ( 0.0000000000000000000, 5.419203158191626457, 0.0000000000000000000 ) ) ;
#10 = ADVANCED_FACE ( 'NONE', ( #315 ), #32, .T. ) ;
#11 = CIRCLE ( 'NONE', #312, 12.00000000000000000 ) ;
#12 = AXIS2_PLACEMENT_3D ( 'NONE', #180, #50, #98 ) ;
#13 = VERTEX_POINT ( 'NONE', #185 ) ;
#14 = DIRECTION ( 'NONE',  ( 0.0000000000000000000, -1.000000000000000000, 0.0000000000000000000 ) ) ;
#15 = PLANE ( 'NONE',  #175 ) ;
#16 = EDGE_CURVE ( 'NONE', #65, #34, #147, .T. ) ;
#17 = FACE_OUTER_BOUND ( 'NONE', #2, .T. ) ;
#18 = ORIENTED_EDGE ( 'NONE', *, *, #76, .F. ) ;
#19 = DIRECTION ( 'NONE',  ( 0.0000000000000000000, 0.0000000000000000000, 1.000000000000000000 ) ) ;
#20 = CARTESIAN_POINT ( 'NONE',  ( 0.0000000000000000000, -15.00000000000000000, 0.0000000000000000000 ) ) ;
#21 = LOCAL_TIME ( 16, 1, 58.00000000000000000, #90 ) ;
#22 = DIRECTION ( 'NONE',  ( 0.0000000000000000000, 0.0000000000000000000, 1.000000000000000000 ) ) ;
#23 = PLANE ( 'NONE',  #158 ) ;
#24 = APPROVAL_STATUS ( 'not_yet_approved' ) ;
#25 = VECTOR ( 'NONE', #113, 1000.000000000000000 ) ;
#26 = ORIENTED_EDGE ( 'NONE', *, *, #328, .F. ) ;
#27 = PERSON_AND_ORGANIZATION_ROLE ( 'design_supplier' ) ;
#28 = DATE_AND_TIME ( #96, #268 ) ;
#29 = APPLICATION_PROTOCOL_DEFINITION ( 'international standard', 'config_control_design', 1994, #30 ) ;
#30 = APPLICATION_CONTEXT ( 'configuration controlled 3d designs of mechanical parts and assemblies' ) ;
#31 = AXIS2_PLACEMENT_3D ( 'NONE', #51, #104, #74 ) ;
#32 = CYLINDRICAL_SURFACE ( 'NONE', #135, 3.000000000000000444 ) ;
#33 = DIRECTION ( 'NONE',  ( 0.0000000000000000000, 0.0000000000000000000, 1.000000000000000000 ) ) ;
#34 = VERTEX_POINT ( 'NONE', #63 ) ;
#35 = ADVANCED_FACE ( 'NONE', ( #205 ), #271, .T. ) ;
#36 = CARTESIAN_POINT ( 'NONE',  ( 0.0000000000000000000, -35.00000000000000000, 0.0000000000000000000 ) ) ;
#37 = FACE_BOUND ( 'NONE', #159, .T. ) ;
#38 = EDGE_CURVE ( 'NONE', #87, #151, #106, .T. ) ;
#39 = CARTESIAN_POINT ( 'NONE',  ( 1.469576158976823947E-15, 5.419203158191626457, -12.00000000000000000 ) ) ;
#40 = COORDINATED_UNIVERSAL_TIME_OFFSET ( 9, 0, .AHEAD. ) ;
#41 = CARTESIAN_POINT ( 'NONE',  ( 6.000000000000001776, -15.00000000000000000, 0.0000000000000000000 ) ) ;
#42 = VECTOR ( 'NONE', #277, 1000.000000000000000 ) ;
#43 = EDGE_LOOP ( 'NONE', ( #202, #272 ) ) ;
#44 = PERSON_AND_ORGANIZATION ( #88, #182 ) ;
#45 = CARTESIAN_POINT ( 'NONE',  ( 0.0000000000000000000, -5.000000000000000000, 0.0000000000000000000 ) ) ;
#46 = LINE ( 'NONE', #322, #110 ) ;
#47 = ORIENTED_EDGE ( 'NONE', *, *, #102, .F. ) ;
#48 = AXIS2_PLACEMENT_3D ( 'NONE', #334, #198, #133 ) ;
#49 = MANIFOLD_SOLID_BREP ( 'ÎÞ½ - µoµ1', #310 ) ;
#50 = DIRECTION ( 'NONE',  ( 0.0000000000000000000, -1.000000000000000000, 0.0000000000000000000 ) ) ;
#51 = CARTESIAN_POINT ( 'NONE',  ( 0.0000000000000000000, 0.0000000000000000000, 0.0000000000000000000 ) ) ;
#52 = FACE_OUTER_BOUND ( 'NONE', #5, .T. ) ;
#53 = EDGE_CURVE ( 'NONE', #122, #283, #303, .T. ) ;
#54 = DIRECTION ( 'NONE',  ( 0.0000000000000000000, 0.0000000000000000000, 1.000000000000000000 ) ) ;
#55 = PERSON_AND_ORGANIZATION_ROLE ( 'creator' ) ;
#56 = CIRCLE ( 'NONE', #31, 12.00000000000000000 ) ;
#57 = EDGE_LOOP ( 'NONE', ( #244, #167 ) ) ;
#58 = CARTESIAN_POINT ( 'NONE',  ( 0.0000000000000000000, 0.0000000000000000000, 0.0000000000000000000 ) ) ;
#59 = DIRECTION ( 'NONE',  ( 0.0000000000000000000, 0.0000000000000000000, 1.000000000000000000 ) ) ;
#60 = ADVANCED_FACE ( 'NONE', ( #17 ), #150, .T. ) ;
#61 = LINE ( 'NONE', #169, #42 ) ;
#62 = DIRECTION ( 'NONE',  ( 0.0000000000000000000, 0.0000000000000000000, 1.000000000000000000 ) ) ;
#63 = CARTESIAN_POINT ( 'NONE',  ( 1.469576158976823947E-15, 0.0000000000000000000, -12.00000000000000000 ) ) ;
#64 = LINE ( 'NONE', #89, #331 ) ;
#65 = VERTEX_POINT ( 'NONE', #269 ) ;
#66 = ADVANCED_FACE ( 'NONE', ( #78 ), #286, .T. ) ;
#67 = AXIS2_PLACEMENT_3D ( 'NONE', #154, #181, #204 ) ;
#68 = ORIENTED_EDGE ( 'NONE', *, *, #16, .F. ) ;
#69 = LOCAL_TIME ( 16, 1, 58.00000000000000000, #293 ) ;
#70 = DIRECTION ( 'NONE',  ( 0.0000000000000000000, 0.0000000000000000000, -1.000000000000000000 ) ) ;
#71 = AXIS2_PLACEMENT_3D ( 'NONE', #45, #146, #250 ) ;
#72 = FACE_OUTER_BOUND ( 'NONE', #82, .T. ) ;
#73 = CARTESIAN_POINT ( 'NONE',  ( 0.0000000000000000000, 5.419203158191626457, 0.0000000000000000000 ) ) ;
#74 = DIRECTION ( 'NONE',  ( 0.0000000000000000000, 0.0000000000000000000, 1.000000000000000000 ) ) ;
#75 = CARTESIAN_POINT ( 'NONE',  ( 3.673940397442060361E-16, -35.00000000000000000, -3.000000000000000444 ) ) ;
#76 = EDGE_CURVE ( 'NONE', #234, #225, #46, .T. ) ;
#77 = APPLICATION_CONTEXT ( 'configuration controlled 3d designs of mechanical parts and assemblies' ) ;
#78 = FACE_OUTER_BOUND ( 'NONE', #320, .T. ) ;
#79 = ORIENTED_EDGE ( 'NONE', *, *, #161, .F. ) ;
#80 = SECURITY_CLASSIFICATION_LEVEL ( 'unclassified' ) ;
#81 = DIRECTION ( 'NONE',  ( 0.0000000000000000000, 0.0000000000000000000, 1.000000000000000000 ) ) ;
#82 = EDGE_LOOP ( 'NONE', ( #189, #86, #26, #212 ) ) ;
#83 = DIRECTION ( 'NONE',  ( -0.0000000000000000000, 1.000000000000000000, -0.0000000000000000000 ) ) ;
#84 = DIRECTION ( 'NONE',  ( -0.0000000000000000000, 1.000000000000000000, -0.0000000000000000000 ) ) ;
#85 = ADVANCED_FACE ( 'NONE', ( #165 ), #280, .F. ) ;
#86 = ORIENTED_EDGE ( 'NONE', *, *, #76, .T. ) ;
#87 = VERTEX_POINT ( 'NONE', #124 ) ;
#88 = PERSON ( 'UNSPECIFIED', 'UNSPECIFIED', 'UNSPECIFIED', ('UNSPECIFIED'), ('UNSPECIFIED'), ('UNSPECIFIED') ) ;
#89 = CARTESIAN_POINT ( 'NONE',  ( 0.0000000000000000000, 5.419203158191626457, 6.000000000000001776 ) ) ;
#90 = COORDINATED_UNIVERSAL_TIME_OFFSET ( 9, 0, .AHEAD. ) ;
#91 = APPROVAL_DATE_TIME ( #153, #245 ) ;
#92 = EDGE_CURVE ( 'NONE', #122, #65, #188, .T. ) ;
#93 = UNCERTAINTY_MEASURE_WITH_UNIT (LENGTH_MEASURE( 1.000000000000000082E-05 ), #112, 'distance_accuracy_value', 'NONE');
#94 = DIRECTION ( 'NONE',  ( 0.0000000000000000000, 0.0000000000000000000, 1.000000000000000000 ) ) ;
#95 = CIRCLE ( 'NONE', #292, 6.000000000000000888 ) ;
#96 = CALENDAR_DATE ( 2021, 1, 2 ) ;
#97 = CARTESIAN_POINT ( 'NONE',  ( 0.0000000000000000000, -5.000000000000000000, 0.0000000000000000000 ) ) ;
#98 = DIRECTION ( 'NONE',  ( 0.0000000000000000000, 0.0000000000000000000, -1.000000000000000000 ) ) ;
#99 = CYLINDRICAL_SURFACE ( 'NONE', #264, 12.00000000000000000 ) ;
#100 = CARTESIAN_POINT ( 'NONE',  ( 0.0000000000000000000, 0.0000000000000000000, 12.00000000000000000 ) ) ;
#101 = ORIENTED_EDGE ( 'NONE', *, *, #221, .F. ) ;
#102 = EDGE_CURVE ( 'NONE', #283, #34, #11, .T. ) ;
#103 = CARTESIAN_POINT ( 'NONE',  ( 7.347880794884121708E-16, -15.00000000000000000, -6.000000000000001776 ) ) ;
#104 = DIRECTION ( 'NONE',  ( -0.0000000000000000000, 1.000000000000000000, -0.0000000000000000000 ) ) ;
#105 = LOCAL_TIME ( 16, 1, 58.00000000000000000, #201 ) ;
#106 = LINE ( 'NONE', #166, #170 ) ;
#107 = AXIS2_PLACEMENT_3D ( 'NONE', #242, #84, #62 ) ;
#108 = PERSON_AND_ORGANIZATION ( #88, #182 ) ;
#109 = APPROVAL_ROLE ( '' ) ;
#110 = VECTOR ( 'NONE', #211, 1000.000000000000000 ) ;
#111 = ADVANCED_FACE ( 'NONE', ( #37, #278 ), #15, .F. ) ;
#112 =( LENGTH_UNIT ( ) NAMED_UNIT ( * ) SI_UNIT ( .MILLI., .METRE. ) );
#113 = DIRECTION ( 'NONE',  ( -0.0000000000000000000, 1.000000000000000000, -0.0000000000000000000 ) ) ;
#114 = CARTESIAN_POINT ( 'NONE',  ( 0.0000000000000000000, 5.419203158191626457, 0.0000000000000000000 ) ) ;
#115 = CARTESIAN_POINT ( 'NONE',  ( 0.0000000000000000000, -5.000000000000001776, 0.0000000000000000000 ) ) ;
#116 = PERSON_AND_ORGANIZATION ( #88, #182 ) ;
#117 = CIRCLE ( 'NONE', #257, 6.000000000000000888 ) ;
#118 = DIRECTION ( 'NONE',  ( -0.0000000000000000000, 1.000000000000000000, -0.0000000000000000000 ) ) ;
#119 = COORDINATED_UNIVERSAL_TIME_OFFSET ( 9, 0, .AHEAD. ) ;
#120 = DIRECTION ( 'NONE',  ( -0.0000000000000000000, 1.000000000000000000, -0.0000000000000000000 ) ) ;
#121 = EDGE_LOOP ( 'NONE', ( #333, #263 ) ) ;
#122 = VERTEX_POINT ( 'NONE', #246 ) ;
#123 = ORIENTED_EDGE ( 'NONE', *, *, #281, .T. ) ;
#124 = CARTESIAN_POINT ( 'NONE',  ( 0.0000000000000000000, -35.00000000000000000, 3.000000000000000444 ) ) ;
#125 = DIRECTION ( 'NONE',  ( 0.0000000000000000000, 0.0000000000000000000, 1.000000000000000000 ) ) ;
#126 = EDGE_CURVE ( 'NONE', #13, #174, #64, .T. ) ;
#127 = EDGE_CURVE ( 'NONE', #65, #122, #247, .T. ) ;
#128 = CYLINDRICAL_SURFACE ( 'NONE', #302, 6.000000000000001776 ) ;
#129 = ORIENTED_EDGE ( 'NONE', *, *, #273, .T. ) ;
#130 = CC_DESIGN_SECURITY_CLASSIFICATION ( #172, ( #313 ) ) ;
#131 = DIRECTION ( 'NONE',  ( 0.0000000000000000000, -1.000000000000000000, 0.0000000000000000000 ) ) ;
#132 = CALENDAR_DATE ( 2021, 1, 2 ) ;
#133 = DIRECTION ( 'NONE',  ( 0.0000000000000000000, 0.0000000000000000000, 1.000000000000000000 ) ) ;
#134 = CIRCLE ( 'NONE', #12, 3.000000000000000444 ) ;
#135 = AXIS2_PLACEMENT_3D ( 'NONE', #36, #118, #240 ) ;
#136 = DIRECTION ( 'NONE',  ( -0.0000000000000000000, 1.000000000000000000, -0.0000000000000000000 ) ) ;
#137 = ORIENTED_EDGE ( 'NONE', *, *, #92, .F. ) ;
#138 = ORIENTED_EDGE ( 'NONE', *, *, #3, .F. ) ;
#139 = DATE_TIME_ROLE ( 'creation_date' ) ;
#140 = DATE_AND_TIME ( #282, #105 ) ;
#141 = CC_DESIGN_APPROVAL ( #266, ( #218 ) ) ;
#142 = CARTESIAN_POINT ( 'NONE',  ( 0.0000000000000000000, 5.419203158191626457, 0.0000000000000000000 ) ) ;
#143 = ORIENTED_EDGE ( 'NONE', *, *, #255, .F. ) ;
#144 = APPROVAL_PERSON_ORGANIZATION ( #108, #245, #109 ) ;
#145 = AXIS2_PLACEMENT_3D ( 'NONE', #142, #83, #325 ) ;
#146 = DIRECTION ( 'NONE',  ( -0.0000000000000000000, 1.000000000000000000, -0.0000000000000000000 ) ) ;
#147 = LINE ( 'NONE', #39, #307 ) ;
#148 = ORIENTED_EDGE ( 'NONE', *, *, #127, .T. ) ;
#149 = AXIS2_PLACEMENT_3D ( 'NONE', #97, #224, #19 ) ;
#150 = CYLINDRICAL_SURFACE ( 'NONE', #107, 3.000000000000000444 ) ;
#151 = VERTEX_POINT ( 'NONE', #270 ) ;
#152 = AXIS2_PLACEMENT_3D ( 'NONE', #285, #309, #177 ) ;
#153 = DATE_AND_TIME ( #259, #69 ) ;
#154 = CARTESIAN_POINT ( 'NONE',  ( 0.0000000000000000000, -15.00000000000000000, 0.0000000000000000000 ) ) ;
#155 = CARTESIAN_POINT ( 'NONE',  ( 7.347880794884120722E-16, -5.000000000000001776, -6.000000000000000888 ) ) ;
#156 = AXIS2_PLACEMENT_3D ( 'NONE', #335, #179, #22 ) ;
#157 = APPROVAL_STATUS ( 'not_yet_approved' ) ;
#158 = AXIS2_PLACEMENT_3D ( 'NONE', #284, #131, #311 ) ;
#159 = EDGE_LOOP ( 'NONE', ( #298, #304 ) ) ;
#160 = DATE_AND_TIME ( #226, #300 ) ;
#161 = EDGE_CURVE ( 'NONE', #87, #238, #196, .T. ) ;
#162 = PERSON_AND_ORGANIZATION_ROLE ( 'creator' ) ;
#163 = APPROVAL ( #24, 'UNSPECIFIED' ) ;
#164 = DIRECTION ( 'NONE',  ( -0.0000000000000000000, 1.000000000000000000, -0.0000000000000000000 ) ) ;
#165 = FACE_OUTER_BOUND ( 'NONE', #121, .T. ) ;
#166 = CARTESIAN_POINT ( 'NONE',  ( 0.0000000000000000000, -35.00000000000000000, 3.000000000000000444 ) ) ;
#167 = ORIENTED_EDGE ( 'NONE', *, *, #233, .T. ) ;
#168 = ORIENTED_EDGE ( 'NONE', *, *, #38, .T. ) ;
#169 = CARTESIAN_POINT ( 'NONE',  ( 3.673940397442060361E-16, -35.00000000000000000, -3.000000000000000444 ) ) ;
#170 = VECTOR ( 'NONE', #8, 1000.000000000000000 ) ;
#171 = ORIENTED_EDGE ( 'NONE', *, *, #16, .T. ) ;
#172 = SECURITY_CLASSIFICATION ( '', '', #80 ) ;
#173 = PERSON_AND_ORGANIZATION ( #88, #182 ) ;
#174 = VERTEX_POINT ( 'NONE', #308 ) ;
#175 = AXIS2_PLACEMENT_3D ( 'NONE', #41, #306, #94 ) ;
#176 = ORIENTED_EDGE ( 'NONE', *, *, #200, .F. ) ;
#177 = DIRECTION ( 'NONE',  ( 0.0000000000000000000, 0.0000000000000000000, -1.000000000000000000 ) ) ;
#178 = ORIENTED_EDGE ( 'NONE', *, *, #127, .F. ) ;
#179 = DIRECTION ( 'NONE',  ( -0.0000000000000000000, 1.000000000000000000, 0.0000000000000000000 ) ) ;
#180 = CARTESIAN_POINT ( 'NONE',  ( 0.0000000000000000000, -35.00000000000000000, 0.0000000000000000000 ) ) ;
#181 = DIRECTION ( 'NONE',  ( 0.0000000000000000000, -1.000000000000000000, 0.0000000000000000000 ) ) ;
#182 = ORGANIZATION ( 'UNSPECIFIED', 'UNSPECIFIED', '' ) ;
#183 = MECHANICAL_CONTEXT ( 'NONE', #30, 'mechanical' ) ;
#184 = PRODUCT_RELATED_PRODUCT_CATEGORY ( 'detail', '', ( #187 ) ) ;
#185 = CARTESIAN_POINT ( 'NONE',  ( 0.0000000000000000000, -15.00000000000000000, 6.000000000000001776 ) ) ;
#186 = CIRCLE ( 'NONE', #67, 3.000000000000000444 ) ;
#187 = PRODUCT ( 'A-1538-M6-20', 'A-1538-M6-20', '', ( #183 ) ) ;
#188 = CIRCLE ( 'NONE', #71, 12.00000000000000000 ) ;
#189 = ORIENTED_EDGE ( 'NONE', *, *, #221, .T. ) ;
#190 = AXIS2_PLACEMENT_3D ( 'NONE', #194, #301, #249 ) ;
#191 = CC_DESIGN_PERSON_AND_ORGANIZATION_ASSIGNMENT ( #116, #55, ( #218 ) ) ;
#192 = APPROVAL_DATE_TIME ( #140, #266 ) ;
#193 = DIRECTION ( 'NONE',  ( -0.0000000000000000000, 1.000000000000000000, -0.0000000000000000000 ) ) ;
#194 = CARTESIAN_POINT ( 'NONE',  ( 0.0000000000000000000, 0.0000000000000000000, 0.0000000000000000000 ) ) ;
#195 = CARTESIAN_POINT ( 'NONE',  ( 0.0000000000000000000, -35.00000000000000000, 0.0000000000000000000 ) ) ;
#196 = CIRCLE ( 'NONE', #227, 3.000000000000000444 ) ;
#197 = EDGE_LOOP ( 'NONE', ( #231, #171, #47, #319 ) ) ;
#198 = DIRECTION ( 'NONE',  ( -0.0000000000000000000, 1.000000000000000000, -0.0000000000000000000 ) ) ;
#199 =( GEOMETRIC_REPRESENTATION_CONTEXT ( 3 ) GLOBAL_UNCERTAINTY_ASSIGNED_CONTEXT ( ( #93 ) ) GLOBAL_UNIT_ASSIGNED_CONTEXT ( ( #112, #289, #207 ) ) REPRESENTATION_CONTEXT ( 'NONE', 'WORKASPACE' ) );
#200 = EDGE_CURVE ( 'NONE', #238, #279, #61, .T. ) ;
#201 = COORDINATED_UNIVERSAL_TIME_OFFSET ( 9, 0, .AHEAD. ) ;
#202 = ORIENTED_EDGE ( 'NONE', *, *, #328, .T. ) ;
#203 = CC_DESIGN_PERSON_AND_ORGANIZATION_ASSIGNMENT ( #243, #162, ( #313 ) ) ;
#204 = DIRECTION ( 'NONE',  ( 0.0000000000000000000, 0.0000000000000000000, -1.000000000000000000 ) ) ;
#205 = FACE_OUTER_BOUND ( 'NONE', #197, .T. ) ;
#206 = ORIENTED_EDGE ( 'NONE', *, *, #248, .F. ) ;
#207 =( NAMED_UNIT ( * ) SI_UNIT ( $, .STERADIAN. ) SOLID_ANGLE_UNIT ( ) );
#208 = AXIS2_PLACEMENT_3D ( 'NONE', #20, #254, #332 ) ;
#209 = ADVANCED_FACE ( 'NONE', ( #72 ), #128, .T. ) ;
#210 = CC_DESIGN_DATE_AND_TIME_ASSIGNMENT ( #329, #139, ( #218 ) ) ;
#211 = DIRECTION ( 'NONE',  ( -0.0000000000000000000, 1.000000000000000000, -0.0000000000000000000 ) ) ;
#212 = ORIENTED_EDGE ( 'NONE', *, *, #126, .F. ) ;
#213 = DIRECTION ( 'NONE',  ( -0.0000000000000000000, 1.000000000000000000, -0.0000000000000000000 ) ) ;
#214 = CARTESIAN_POINT ( 'NONE',  ( 0.0000000000000000000, 5.419203158191626457, 12.00000000000000000 ) ) ;
#215 = ADVANCED_FACE ( 'NONE', ( #262 ), #23, .T. ) ;
#216 = EDGE_LOOP ( 'NONE', ( #176, #79, #168, #123 ) ) ;
#217 = ORIENTED_EDGE ( 'NONE', *, *, #126, .T. ) ;
#218 = PRODUCT_DEFINITION ( 'UNKNOWN', '', #313, #323 ) ;
#219 = CC_DESIGN_APPROVAL ( #245, ( #172 ) ) ;
#220 = SHAPE_DEFINITION_REPRESENTATION ( #317, #295 ) ;
#221 = EDGE_CURVE ( 'NONE', #13, #234, #297, .T. ) ;
#222 = CARTESIAN_POINT ( 'NONE',  ( 0.0000000000000000000, 0.0000000000000000000, 0.0000000000000000000 ) ) ;
#223 = ORIENTED_EDGE ( 'NONE', *, *, #53, .T. ) ;
#224 = DIRECTION ( 'NONE',  ( -0.0000000000000000000, 1.000000000000000000, -0.0000000000000000000 ) ) ;
#225 = VERTEX_POINT ( 'NONE', #155 ) ;
#226 = CALENDAR_DATE ( 2021, 1, 2 ) ;
#227 = AXIS2_PLACEMENT_3D ( 'NONE', #195, #14, #70 ) ;
#228 = DIRECTION ( 'NONE',  ( 0.0000000000000000000, 0.0000000000000000000, 1.000000000000000000 ) ) ;
#229 = EDGE_LOOP ( 'NONE', ( #101, #143 ) ) ;
#230 = CC_DESIGN_PERSON_AND_ORGANIZATION_ASSIGNMENT ( #239, #6, ( #172 ) ) ;
#231 = ORIENTED_EDGE ( 'NONE', *, *, #92, .T. ) ;
#232 = DIRECTION ( 'NONE',  ( -0.0000000000000000000, 1.000000000000000000, -0.0000000000000000000 ) ) ;
#233 = EDGE_CURVE ( 'NONE', #238, #87, #134, .T. ) ;
#234 = VERTEX_POINT ( 'NONE', #103 ) ;
#235 = APPROVAL_STATUS ( 'not_yet_approved' ) ;
#236 = APPROVAL_ROLE ( '' ) ;
#237 = CIRCLE ( 'NONE', #48, 6.000000000000001776 ) ;
#238 = VERTEX_POINT ( 'NONE', #75 ) ;
#239 = PERSON_AND_ORGANIZATION ( #88, #182 ) ;
#240 = DIRECTION ( 'NONE',  ( 0.0000000000000000000, 0.0000000000000000000, 1.000000000000000000 ) ) ;
#241 = AXIS2_PLACEMENT_3D ( 'NONE', #58, #81, #265 ) ;
#242 = CARTESIAN_POINT ( 'NONE',  ( 0.0000000000000000000, -35.00000000000000000, 0.0000000000000000000 ) ) ;
#243 = PERSON_AND_ORGANIZATION ( #88, #182 ) ;
#244 = ORIENTED_EDGE ( 'NONE', *, *, #161, .T. ) ;
#245 = APPROVAL ( #235, 'UNSPECIFIED' ) ;
#246 = CARTESIAN_POINT ( 'NONE',  ( 0.0000000000000000000, -5.000000000000000000, 12.00000000000000000 ) ) ;
#247 = CIRCLE ( 'NONE', #149, 12.00000000000000000 ) ;
#248 = EDGE_CURVE ( 'NONE', #34, #283, #56, .T. ) ;
#249 = DIRECTION ( 'NONE',  ( 0.0000000000000000000, -0.0000000000000000000, -1.000000000000000000 ) ) ;
#250 = DIRECTION ( 'NONE',  ( 0.0000000000000000000, 0.0000000000000000000, 1.000000000000000000 ) ) ;
#251 = CC_DESIGN_PERSON_AND_ORGANIZATION_ASSIGNMENT ( #316, #27, ( #313 ) ) ;
#252 = FACE_OUTER_BOUND ( 'NONE', #327, .T. ) ;
#253 = CARTESIAN_POINT ( 'NONE',  ( 3.673940397442060361E-16, -15.00000000000000000, -3.000000000000000444 ) ) ;
#254 = DIRECTION ( 'NONE',  ( -0.0000000000000000000, 1.000000000000000000, -0.0000000000000000000 ) ) ;
#255 = EDGE_CURVE ( 'NONE', #234, #13, #237, .T. ) ;
#256 = PLANE ( 'NONE',  #156 ) ;
#257 = AXIS2_PLACEMENT_3D ( 'NONE', #290, #136, #54 ) ;
#258 = ORIENTED_EDGE ( 'NONE', *, *, #200, .T. ) ;
#259 = CALENDAR_DATE ( 2021, 1, 2 ) ;
#260 = APPLICATION_PROTOCOL_DEFINITION ( 'international standard', 'config_control_design', 1994, #77 ) ;
#261 = DATE_TIME_ROLE ( 'classification_date' ) ;
#262 = FACE_OUTER_BOUND ( 'NONE', #57, .T. ) ;
#263 = ORIENTED_EDGE ( 'NONE', *, *, #248, .T. ) ;
#264 = AXIS2_PLACEMENT_3D ( 'NONE', #9, #213, #294 ) ;
#265 = DIRECTION ( 'NONE',  ( 1.000000000000000000, 0.0000000000000000000, 0.0000000000000000000 ) ) ;
#266 = APPROVAL ( #157, 'UNSPECIFIED' ) ;
#267 = ORIENTED_EDGE ( 'NONE', *, *, #38, .F. ) ;
#268 = LOCAL_TIME ( 16, 1, 58.00000000000000000, #119 ) ;
#269 = CARTESIAN_POINT ( 'NONE',  ( 1.469576158976823947E-15, -5.000000000000000000, -12.00000000000000000 ) ) ;
#270 = CARTESIAN_POINT ( 'NONE',  ( 0.0000000000000000000, -15.00000000000000000, 3.000000000000000444 ) ) ;
#271 = CYLINDRICAL_SURFACE ( 'NONE', #321, 12.00000000000000000 ) ;
#272 = ORIENTED_EDGE ( 'NONE', *, *, #3, .T. ) ;
#273 = EDGE_CURVE ( 'NONE', #279, #151, #186, .T. ) ;
#274 = ORIENTED_EDGE ( 'NONE', *, *, #233, .F. ) ;
#275 = APPROVAL_DATE_TIME ( #28, #163 ) ;
#276 = CC_DESIGN_APPROVAL ( #163, ( #313 ) ) ;
#277 = DIRECTION ( 'NONE',  ( -0.0000000000000000000, 1.000000000000000000, -0.0000000000000000000 ) ) ;
#278 = FACE_OUTER_BOUND ( 'NONE', #229, .T. ) ;
#279 = VERTEX_POINT ( 'NONE', #253 ) ;
#280 = PLANE ( 'NONE',  #190 ) ;
#281 = EDGE_CURVE ( 'NONE', #151, #279, #4, .T. ) ;
#282 = CALENDAR_DATE ( 2021, 1, 2 ) ;
#283 = VERTEX_POINT ( 'NONE', #100 ) ;
#284 = CARTESIAN_POINT ( 'NONE',  ( 0.0000000000000000000, -35.00000000000000000, 0.0000000000000000000 ) ) ;
#285 = CARTESIAN_POINT ( 'NONE',  ( 0.0000000000000000000, -15.00000000000000000, 0.0000000000000000000 ) ) ;
#286 = CYLINDRICAL_SURFACE ( 'NONE', #145, 6.000000000000001776 ) ;
#287 = ORIENTED_EDGE ( 'NONE', *, *, #255, .T. ) ;
#288 = PERSON_AND_ORGANIZATION_ROLE ( 'design_owner' ) ;
#289 =( NAMED_UNIT ( * ) PLANE_ANGLE_UNIT ( ) SI_UNIT ( $, .RADIAN. ) );
#290 = CARTESIAN_POINT ( 'NONE',  ( 0.0000000000000000000, -5.000000000000001776, 0.0000000000000000000 ) ) ;
#291 = APPROVAL_PERSON_ORGANIZATION ( #44, #163, #236 ) ;
#292 = AXIS2_PLACEMENT_3D ( 'NONE', #115, #296, #33 ) ;
#293 = COORDINATED_UNIVERSAL_TIME_OFFSET ( 9, 0, .AHEAD. ) ;
#294 = DIRECTION ( 'NONE',  ( 0.0000000000000000000, 0.0000000000000000000, 1.000000000000000000 ) ) ;
#295 = ADVANCED_BREP_SHAPE_REPRESENTATION ( 'A-1538-M6-20', ( #49, #241 ), #199 ) ;
#296 = DIRECTION ( 'NONE',  ( -0.0000000000000000000, 1.000000000000000000, -0.0000000000000000000 ) ) ;
#297 = CIRCLE ( 'NONE', #208, 6.000000000000001776 ) ;
#298 = ORIENTED_EDGE ( 'NONE', *, *, #281, .F. ) ;
#299 = ADVANCED_FACE ( 'NONE', ( #52, #324 ), #256, .F. ) ;
#300 = LOCAL_TIME ( 16, 1, 58.00000000000000000, #40 ) ;
#301 = DIRECTION ( 'NONE',  ( 0.0000000000000000000, -1.000000000000000000, 0.0000000000000000000 ) ) ;
#302 = AXIS2_PLACEMENT_3D ( 'NONE', #73, #232, #228 ) ;
#303 = LINE ( 'NONE', #214, #25 ) ;
#304 = ORIENTED_EDGE ( 'NONE', *, *, #273, .F. ) ;
#305 = CC_DESIGN_PERSON_AND_ORGANIZATION_ASSIGNMENT ( #1, #288, ( #187 ) ) ;
#306 = DIRECTION ( 'NONE',  ( -0.0000000000000000000, 1.000000000000000000, 0.0000000000000000000 ) ) ;
#307 = VECTOR ( 'NONE', #120, 1000.000000000000000 ) ;
#308 = CARTESIAN_POINT ( 'NONE',  ( 0.0000000000000000000, -5.000000000000001776, 6.000000000000000888 ) ) ;
#309 = DIRECTION ( 'NONE',  ( 0.0000000000000000000, -1.000000000000000000, 0.0000000000000000000 ) ) ;
#310 = CLOSED_SHELL ( 'NONE', ( #60, #209, #35, #85, #7, #299, #66, #111, #10, #215 ) ) ;
#311 = DIRECTION ( 'NONE',  ( 0.0000000000000000000, -0.0000000000000000000, -1.000000000000000000 ) ) ;
#312 = AXIS2_PLACEMENT_3D ( 'NONE', #222, #326, #125 ) ;
#313 = PRODUCT_DEFINITION_FORMATION_WITH_SPECIFIED_SOURCE ( 'ANY', '', #187, .NOT_KNOWN. ) ;
#314 = APPROVAL_PERSON_ORGANIZATION ( #173, #266, #318 ) ;
#315 = FACE_OUTER_BOUND ( 'NONE', #216, .T. ) ;
#316 = PERSON_AND_ORGANIZATION ( #88, #182 ) ;
#317 = PRODUCT_DEFINITION_SHAPE ( 'NONE', 'NONE',  #218 ) ;
#318 = APPROVAL_ROLE ( '' ) ;
#319 = ORIENTED_EDGE ( 'NONE', *, *, #53, .F. ) ;
#320 = EDGE_LOOP ( 'NONE', ( #18, #287, #217, #138 ) ) ;
#321 = AXIS2_PLACEMENT_3D ( 'NONE', #114, #164, #59 ) ;
#322 = CARTESIAN_POINT ( 'NONE',  ( 7.347880794884121708E-16, 5.419203158191626457, -6.000000000000001776 ) ) ;
#323 = DESIGN_CONTEXT ( 'detailed design', #77, 'design' ) ;
#324 = FACE_BOUND ( 'NONE', #43, .T. ) ;
#325 = DIRECTION ( 'NONE',  ( 0.0000000000000000000, 0.0000000000000000000, 1.000000000000000000 ) ) ;
#326 = DIRECTION ( 'NONE',  ( -0.0000000000000000000, 1.000000000000000000, -0.0000000000000000000 ) ) ;
#327 = EDGE_LOOP ( 'NONE', ( #68, #148, #223, #206 ) ) ;
#328 = EDGE_CURVE ( 'NONE', #174, #225, #117, .T. ) ;
#329 = DATE_AND_TIME ( #132, #21 ) ;
#330 = CC_DESIGN_DATE_AND_TIME_ASSIGNMENT ( #160, #261, ( #172 ) ) ;
#331 = VECTOR ( 'NONE', #193, 1000.000000000000000 ) ;
#332 = DIRECTION ( 'NONE',  ( 0.0000000000000000000, 0.0000000000000000000, 1.000000000000000000 ) ) ;
#333 = ORIENTED_EDGE ( 'NONE', *, *, #102, .T. ) ;
#334 = CARTESIAN_POINT ( 'NONE',  ( 0.0000000000000000000, -15.00000000000000000, 0.0000000000000000000 ) ) ;
#335 = CARTESIAN_POINT ( 'NONE',  ( 12.00000000000000000, -5.000000000000000888, 0.0000000000000000000 ) ) ;
ENDSEC;
END-ISO-10303-21;
