ISO-10303-21;
HEADER;
FILE_DESCRIPTION (( 'STEP AP203' ),
    '1' );
FILE_NAME ('A-1538-M5F.STEP',
    '2021-02-01T06:48:27',
    ( '' ),
    ( '' ),
    'SwSTEP 2.0',
    'SolidWorks 2018',
    '' );
FILE_SCHEMA (( 'CONFIG_CONTROL_DESIGN' ));
ENDSEC;

DATA;
#1 = VERTEX_POINT ( 'NONE', #164 ) ;
#2 = ORIENTED_EDGE ( 'NONE', *, *, #274, .T. ) ;
#3 = ADVANCED_FACE ( 'NONE', ( #87, #139 ), #215, .F. ) ;
#4 = AXIS2_PLACEMENT_3D ( 'NONE', #171, #234, #94 ) ;
#5 = LOCAL_TIME ( 15, 48, 27.00000000000000000, #20 ) ;
#6 = EDGE_CURVE ( 'NONE', #133, #80, #237, .T. ) ;
#7 = CARTESIAN_POINT ( 'NONE',  ( 1.224646799147353454E-15, 0.0000000000000000000, -10.00000000000000178 ) ) ;
#8 = DIRECTION ( 'NONE',  ( 0.0000000000000000000, 0.0000000000000000000, 1.000000000000000000 ) ) ;
#9 = PRODUCT_DEFINITION_SHAPE ( 'NONE', 'NONE',  #193 ) ;
#10 = VECTOR ( 'NONE', #67, 1000.000000000000000 ) ;
#11 = CARTESIAN_POINT ( 'NONE',  ( 6.123233995736769241E-16, -4.000000000000000888, -5.000000000000001776 ) ) ;
#12 = ORIENTED_EDGE ( 'NONE', *, *, #308, .F. ) ;
#13 = DIRECTION ( 'NONE',  ( -0.0000000000000000000, 1.000000000000000000, -0.0000000000000000000 ) ) ;
#14 = CARTESIAN_POINT ( 'NONE',  ( 0.0000000000000000000, 5.419203158191626457, 0.0000000000000000000 ) ) ;
#15 = CALENDAR_DATE ( 2021, 1, 2 ) ;
#16 = ORIENTED_EDGE ( 'NONE', *, *, #26, .F. ) ;
#17 = DIRECTION ( 'NONE',  ( 0.0000000000000000000, 0.0000000000000000000, 1.000000000000000000 ) ) ;
#18 = PLANE ( 'NONE',  #269 ) ;
#19 = CC_DESIGN_PERSON_AND_ORGANIZATION_ASSIGNMENT ( #135, #144, ( #193 ) ) ;
#20 = COORDINATED_UNIVERSAL_TIME_OFFSET ( 9, 0, .AHEAD. ) ;
#21 = FACE_OUTER_BOUND ( 'NONE', #107, .T. ) ;
#22 = APPLICATION_PROTOCOL_DEFINITION ( 'international standard', 'config_control_design', 1994, #246 ) ;
#23 = AXIS2_PLACEMENT_3D ( 'NONE', #146, #198, #199 ) ;
#24 = ORIENTED_EDGE ( 'NONE', *, *, #223, .T. ) ;
#25 = CARTESIAN_POINT ( 'NONE',  ( 1.224646799147353454E-15, 5.419203158191626457, -10.00000000000000178 ) ) ;
#26 = EDGE_CURVE ( 'NONE', #73, #300, #256, .T. ) ;
#27 = APPROVAL_DATE_TIME ( #154, #221 ) ;
#28 = EDGE_LOOP ( 'NONE', ( #163, #293, #151, #126 ) ) ;
#29 = FACE_OUTER_BOUND ( 'NONE', #196, .T. ) ;
#30 = EDGE_LOOP ( 'NONE', ( #220, #202, #252, #175 ) ) ;
#31 = DIRECTION ( 'NONE',  ( -0.0000000000000000000, 1.000000000000000000, -0.0000000000000000000 ) ) ;
#32 = COORDINATED_UNIVERSAL_TIME_OFFSET ( 9, 0, .AHEAD. ) ;
#33 = CIRCLE ( 'NONE', #303, 10.00000000000000178 ) ;
#34 = PRODUCT ( 'A-1538-M5F', 'A-1538-M5F', '', ( #173 ) ) ;
#35 = VERTEX_POINT ( 'NONE', #7 ) ;
#36 = DIRECTION ( 'NONE',  ( -0.0000000000000000000, 1.000000000000000000, 0.0000000000000000000 ) ) ;
#37 = DIRECTION ( 'NONE',  ( 0.0000000000000000000, 0.0000000000000000000, 1.000000000000000000 ) ) ;
#38 = CARTESIAN_POINT ( 'NONE',  ( 6.123233995736770227E-16, -11.50000000000000000, -5.000000000000002665 ) ) ;
#39 = EDGE_CURVE ( 'NONE', #167, #250, #182, .T. ) ;
#40 = CARTESIAN_POINT ( 'NONE',  ( 0.0000000000000000000, -4.000000000000000888, 0.0000000000000000000 ) ) ;
#41 = VECTOR ( 'NONE', #45, 1000.000000000000000 ) ;
#42 = VERTEX_POINT ( 'NONE', #262 ) ;
#43 = AXIS2_PLACEMENT_3D ( 'NONE', #121, #290, #119 ) ;
#44 = PRODUCT_RELATED_PRODUCT_CATEGORY ( 'detail', '', ( #34 ) ) ;
#45 = DIRECTION ( 'NONE',  ( -0.0000000000000000000, 1.000000000000000000, -0.0000000000000000000 ) ) ;
#46 = CARTESIAN_POINT ( 'NONE',  ( 0.0000000000000000000, -11.50000000000000000, 0.0000000000000000000 ) ) ;
#47 = FACE_OUTER_BOUND ( 'NONE', #30, .T. ) ;
#48 = DIRECTION ( 'NONE',  ( 1.000000000000000000, 0.0000000000000000000, 0.0000000000000000000 ) ) ;
#49 = ORIENTED_EDGE ( 'NONE', *, *, #308, .T. ) ;
#50 = ORIENTED_EDGE ( 'NONE', *, *, #229, .T. ) ;
#51 = VECTOR ( 'NONE', #59, 1000.000000000000000 ) ;
#52 = CC_DESIGN_DATE_AND_TIME_ASSIGNMENT ( #204, #275, ( #193 ) ) ;
#53 = PERSON_AND_ORGANIZATION ( #213, #251 ) ;
#54 = APPROVAL_PERSON_ORGANIZATION ( #259, #100, #276 ) ;
#55 = CIRCLE ( 'NONE', #114, 2.099999999999997868 ) ;
#56 = CARTESIAN_POINT ( 'NONE',  ( 0.0000000000000000000, 0.0000000000000000000, 0.0000000000000000000 ) ) ;
#57 = CARTESIAN_POINT ( 'NONE',  ( 0.0000000000000000000, -11.50000000000000000, 5.000000000000002665 ) ) ;
#58 = DIRECTION ( 'NONE',  ( -0.0000000000000000000, 1.000000000000000000, -0.0000000000000000000 ) ) ;
#59 = DIRECTION ( 'NONE',  ( -0.0000000000000000000, 1.000000000000000000, -0.0000000000000000000 ) ) ;
#60 = DIRECTION ( 'NONE',  ( 0.0000000000000000000, 0.0000000000000000000, 1.000000000000000000 ) ) ;
#61 = ORIENTED_EDGE ( 'NONE', *, *, #223, .F. ) ;
#62 = AXIS2_PLACEMENT_3D ( 'NONE', #142, #118, #170 ) ;
#63 = CYLINDRICAL_SURFACE ( 'NONE', #104, 2.099999999999998757 ) ;
#64 = ORIENTED_EDGE ( 'NONE', *, *, #314, .F. ) ;
#65 = DIRECTION ( 'NONE',  ( 0.0000000000000000000, 0.0000000000000000000, 1.000000000000000000 ) ) ;
#66 = DIRECTION ( 'NONE',  ( 0.0000000000000000000, 0.0000000000000000000, 1.000000000000000000 ) ) ;
#67 = DIRECTION ( 'NONE',  ( -0.0000000000000000000, 1.000000000000000000, -0.0000000000000000000 ) ) ;
#68 = CARTESIAN_POINT ( 'NONE',  ( 0.0000000000000000000, -4.000000000000000888, 10.00000000000000178 ) ) ;
#69 = PERSON_AND_ORGANIZATION ( #213, #251 ) ;
#70 = PERSON_AND_ORGANIZATION ( #213, #251 ) ;
#71 = LOCAL_TIME ( 15, 48, 27.00000000000000000, #174 ) ;
#72 = FACE_OUTER_BOUND ( 'NONE', #214, .T. ) ;
#73 = VERTEX_POINT ( 'NONE', #57 ) ;
#74 = APPROVAL_ROLE ( '' ) ;
#75 = PERSON_AND_ORGANIZATION_ROLE ( 'design_owner' ) ;
#76 = APPLICATION_CONTEXT ( 'configuration controlled 3d designs of mechanical parts and assemblies' ) ;
#77 =( GEOMETRIC_REPRESENTATION_CONTEXT ( 3 ) GLOBAL_UNCERTAINTY_ASSIGNED_CONTEXT ( ( #266 ) ) GLOBAL_UNIT_ASSIGNED_CONTEXT ( ( #224, #278, #131 ) ) REPRESENTATION_CONTEXT ( 'NONE', 'WORKASPACE' ) );
#78 = DATE_AND_TIME ( #191, #5 ) ;
#79 = CC_DESIGN_APPROVAL ( #221, ( #203 ) ) ;
#80 = VERTEX_POINT ( 'NONE', #285 ) ;
#81 = ORIENTED_EDGE ( 'NONE', *, *, #200, .T. ) ;
#82 = FACE_OUTER_BOUND ( 'NONE', #159, .T. ) ;
#83 = ORIENTED_EDGE ( 'NONE', *, *, #236, .T. ) ;
#84 = ADVANCED_FACE ( 'NONE', ( #270, #125 ), #123, .F. ) ;
#85 = ADVANCED_BREP_SHAPE_REPRESENTATION ( 'A-1538-M5F', ( #240, #185 ), #77 ) ;
#86 = DIRECTION ( 'NONE',  ( -0.0000000000000000000, 1.000000000000000000, -0.0000000000000000000 ) ) ;
#87 = FACE_BOUND ( 'NONE', #328, .T. ) ;
#88 = EDGE_LOOP ( 'NONE', ( #183, #260 ) ) ;
#89 = DIRECTION ( 'NONE',  ( -0.0000000000000000000, 1.000000000000000000, -0.0000000000000000000 ) ) ;
#90 = CARTESIAN_POINT ( 'NONE',  ( 1.224646799147353454E-15, -4.000000000000000888, -10.00000000000000178 ) ) ;
#91 = CARTESIAN_POINT ( 'NONE',  ( 0.0000000000000000000, 5.419203158191626457, 10.00000000000000178 ) ) ;
#92 = CARTESIAN_POINT ( 'NONE',  ( 0.0000000000000000000, -5.510910596163095102E-17, 2.099999999999999201 ) ) ;
#93 = DIRECTION ( 'NONE',  ( 0.0000000000000000000, 0.0000000000000000000, 1.000000000000000000 ) ) ;
#94 = DIRECTION ( 'NONE',  ( 0.0000000000000000000, 0.0000000000000000000, 1.000000000000000000 ) ) ;
#95 = CC_DESIGN_PERSON_AND_ORGANIZATION_ASSIGNMENT ( #53, #75, ( #34 ) ) ;
#96 = EDGE_LOOP ( 'NONE', ( #61, #288 ) ) ;
#97 = DIRECTION ( 'NONE',  ( 0.0000000000000000000, 0.0000000000000000000, 1.000000000000000000 ) ) ;
#98 = CARTESIAN_POINT ( 'NONE',  ( 0.0000000000000000000, -4.000000000000000888, 0.0000000000000000000 ) ) ;
#99 = EDGE_CURVE ( 'NONE', #1, #250, #176, .T. ) ;
#100 = APPROVAL ( #178, 'UNSPECIFIED' ) ;
#101 = ORIENTED_EDGE ( 'NONE', *, *, #301, .F. ) ;
#102 = CIRCLE ( 'NONE', #319, 10.00000000000000178 ) ;
#103 = APPROVAL_STATUS ( 'not_yet_approved' ) ;
#104 = AXIS2_PLACEMENT_3D ( 'NONE', #318, #190, #93 ) ;
#105 = PERSON_AND_ORGANIZATION_ROLE ( 'classification_officer' ) ;
#106 = APPROVAL_DATE_TIME ( #195, #311 ) ;
#107 = EDGE_LOOP ( 'NONE', ( #12, #152, #212, #112 ) ) ;
#108 = ADVANCED_FACE ( 'NONE', ( #316 ), #192, .T. ) ;
#109 = CIRCLE ( 'NONE', #245, 5.000000000000001776 ) ;
#110 = CLOSED_SHELL ( 'NONE', ( #230, #279, #156, #208, #305, #84, #108, #3, #111 ) ) ;
#111 = ADVANCED_FACE ( 'NONE', ( #47 ), #63, .F. ) ;
#112 = ORIENTED_EDGE ( 'NONE', *, *, #39, .F. ) ;
#113 = EDGE_LOOP ( 'NONE', ( #255, #81 ) ) ;
#114 = AXIS2_PLACEMENT_3D ( 'NONE', #124, #257, #313 ) ;
#115 = EDGE_CURVE ( 'NONE', #300, #241, #109, .T. ) ;
#116 = APPROVAL_PERSON_ORGANIZATION ( #70, #311, #197 ) ;
#117 = DIRECTION ( 'NONE',  ( -0.0000000000000000000, 1.000000000000000000, -0.0000000000000000000 ) ) ;
#118 = DIRECTION ( 'NONE',  ( -0.0000000000000000000, 1.000000000000000000, -0.0000000000000000000 ) ) ;
#119 = DIRECTION ( 'NONE',  ( 0.0000000000000000000, 0.0000000000000000000, 1.000000000000000000 ) ) ;
#120 = CIRCLE ( 'NONE', #249, 5.000000000000002665 ) ;
#121 = CARTESIAN_POINT ( 'NONE',  ( 0.0000000000000000000, 5.419203158191626457, 0.0000000000000000000 ) ) ;
#122 = ORIENTED_EDGE ( 'NONE', *, *, #274, .F. ) ;
#123 = PLANE ( 'NONE',  #161 ) ;
#124 = CARTESIAN_POINT ( 'NONE',  ( 0.0000000000000000000, -11.50000000000000000, 0.0000000000000000000 ) ) ;
#125 = FACE_BOUND ( 'NONE', #113, .T. ) ;
#126 = ORIENTED_EDGE ( 'NONE', *, *, #200, .F. ) ;
#127 = PERSON_AND_ORGANIZATION_ROLE ( 'design_supplier' ) ;
#128 = LINE ( 'NONE', #210, #10 ) ;
#129 = ORIENTED_EDGE ( 'NONE', *, *, #314, .T. ) ;
#130 = DATE_TIME_ROLE ( 'classification_date' ) ;
#131 =( NAMED_UNIT ( * ) SI_UNIT ( $, .STERADIAN. ) SOLID_ANGLE_UNIT ( ) );
#132 = CYLINDRICAL_SURFACE ( 'NONE', #177, 2.099999999999998757 ) ;
#133 = VERTEX_POINT ( 'NONE', #68 ) ;
#134 = ORIENTED_EDGE ( 'NONE', *, *, #229, .F. ) ;
#135 = PERSON_AND_ORGANIZATION ( #213, #251 ) ;
#136 = LINE ( 'NONE', #25, #242 ) ;
#137 = AXIS2_PLACEMENT_3D ( 'NONE', #238, #13, #37 ) ;
#138 = DIRECTION ( 'NONE',  ( -0.0000000000000000000, 1.000000000000000000, 0.0000000000000000000 ) ) ;
#139 = FACE_OUTER_BOUND ( 'NONE', #96, .T. ) ;
#140 = ORIENTED_EDGE ( 'NONE', *, *, #301, .T. ) ;
#141 = CARTESIAN_POINT ( 'NONE',  ( 0.0000000000000000000, -11.50000000000000000, 0.0000000000000000000 ) ) ;
#142 = CARTESIAN_POINT ( 'NONE',  ( 0.0000000000000000000, -5.510910596163095102E-17, 0.0000000000000000000 ) ) ;
#143 = DIRECTION ( 'NONE',  ( -0.0000000000000000000, 1.000000000000000000, -0.0000000000000000000 ) ) ;
#144 = PERSON_AND_ORGANIZATION_ROLE ( 'creator' ) ;
#145 = CALENDAR_DATE ( 2021, 1, 2 ) ;
#146 = CARTESIAN_POINT ( 'NONE',  ( 0.0000000000000000000, 0.0000000000000000000, 0.0000000000000000000 ) ) ;
#147 = DIRECTION ( 'NONE',  ( -0.0000000000000000000, 1.000000000000000000, -0.0000000000000000000 ) ) ;
#148 = AXIS2_PLACEMENT_3D ( 'NONE', #46, #225, #201 ) ;
#149 = CALENDAR_DATE ( 2021, 1, 2 ) ;
#150 = EDGE_LOOP ( 'NONE', ( #122, #101 ) ) ;
#151 = ORIENTED_EDGE ( 'NONE', *, *, #26, .T. ) ;
#152 = ORIENTED_EDGE ( 'NONE', *, *, #253, .T. ) ;
#153 = DIRECTION ( 'NONE',  ( -0.0000000000000000000, 1.000000000000000000, -0.0000000000000000000 ) ) ;
#154 = DATE_AND_TIME ( #231, #71 ) ;
#155 = ORIENTED_EDGE ( 'NONE', *, *, #322, .F. ) ;
#156 = ADVANCED_FACE ( 'NONE', ( #244 ), #179, .T. ) ;
#157 = AXIS2_PLACEMENT_3D ( 'NONE', #141, #86, #218 ) ;
#158 = VECTOR ( 'NONE', #143, 1000.000000000000000 ) ;
#159 = EDGE_LOOP ( 'NONE', ( #24, #282, #281, #16 ) ) ;
#160 = EDGE_LOOP ( 'NONE', ( #2, #277, #64, #271 ) ) ;
#161 = AXIS2_PLACEMENT_3D ( 'NONE', #261, #36, #291 ) ;
#162 = DIRECTION ( 'NONE',  ( 0.0000000000000000000, -1.000000000000000000, 0.0000000000000000000 ) ) ;
#163 = ORIENTED_EDGE ( 'NONE', *, *, #264, .F. ) ;
#164 = CARTESIAN_POINT ( 'NONE',  ( 2.571758278209440478E-16, -5.510910596163095102E-17, -2.099999999999999201 ) ) ;
#165 = CIRCLE ( 'NONE', #157, 5.000000000000002665 ) ;
#166 = DIRECTION ( 'NONE',  ( 0.0000000000000000000, -0.0000000000000000000, -1.000000000000000000 ) ) ;
#167 = VERTEX_POINT ( 'NONE', #239 ) ;
#168 = CARTESIAN_POINT ( 'NONE',  ( 0.0000000000000000000, 0.0000000000000000000, 0.0000000000000000000 ) ) ;
#169 = AXIS2_PLACEMENT_3D ( 'NONE', #312, #89, #65 ) ;
#170 = DIRECTION ( 'NONE',  ( 0.0000000000000000000, 0.0000000000000000000, 1.000000000000000000 ) ) ;
#171 = CARTESIAN_POINT ( 'NONE',  ( 0.0000000000000000000, -4.000000000000000888, 0.0000000000000000000 ) ) ;
#172 = PERSON_AND_ORGANIZATION ( #213, #251 ) ;
#173 = MECHANICAL_CONTEXT ( 'NONE', #76, 'mechanical' ) ;
#174 = COORDINATED_UNIVERSAL_TIME_OFFSET ( 9, 0, .AHEAD. ) ;
#175 = ORIENTED_EDGE ( 'NONE', *, *, #247, .T. ) ;
#176 = CIRCLE ( 'NONE', #62, 2.099999999999999201 ) ;
#177 = AXIS2_PLACEMENT_3D ( 'NONE', #56, #310, #8 ) ;
#178 = APPROVAL_STATUS ( 'not_yet_approved' ) ;
#179 = CYLINDRICAL_SURFACE ( 'NONE', #283, 10.00000000000000178 ) ;
#180 = CC_DESIGN_DATE_AND_TIME_ASSIGNMENT ( #254, #130, ( #227 ) ) ;
#181 = SHAPE_DEFINITION_REPRESENTATION ( #9, #85 ) ;
#182 = LINE ( 'NONE', #186, #41 ) ;
#183 = ORIENTED_EDGE ( 'NONE', *, *, #247, .F. ) ;
#184 = DIRECTION ( 'NONE',  ( -0.0000000000000000000, 1.000000000000000000, -0.0000000000000000000 ) ) ;
#185 = AXIS2_PLACEMENT_3D ( 'NONE', #321, #243, #48 ) ;
#186 = CARTESIAN_POINT ( 'NONE',  ( 0.0000000000000000000, 0.0000000000000000000, 2.099999999999998757 ) ) ;
#187 = CARTESIAN_POINT ( 'NONE',  ( 0.0000000000000000000, -4.000000000000000888, 5.000000000000001776 ) ) ;
#188 = VECTOR ( 'NONE', #258, 1000.000000000000000 ) ;
#189 = DIRECTION ( 'NONE',  ( 0.0000000000000000000, 0.0000000000000000000, 1.000000000000000000 ) ) ;
#190 = DIRECTION ( 'NONE',  ( -0.0000000000000000000, 1.000000000000000000, -0.0000000000000000000 ) ) ;
#191 = CALENDAR_DATE ( 2021, 1, 2 ) ;
#192 = CYLINDRICAL_SURFACE ( 'NONE', #169, 5.000000000000002665 ) ;
#193 = PRODUCT_DEFINITION ( 'UNKNOWN', '', #203, #267 ) ;
#194 = CC_DESIGN_PERSON_AND_ORGANIZATION_ASSIGNMENT ( #172, #273, ( #203 ) ) ;
#195 = DATE_AND_TIME ( #145, #287 ) ;
#196 = EDGE_LOOP ( 'NONE', ( #129, #50 ) ) ;
#197 = APPROVAL_ROLE ( '' ) ;
#198 = DIRECTION ( 'NONE',  ( -0.0000000000000000000, 1.000000000000000000, -0.0000000000000000000 ) ) ;
#199 = DIRECTION ( 'NONE',  ( 0.0000000000000000000, 0.0000000000000000000, 1.000000000000000000 ) ) ;
#200 = EDGE_CURVE ( 'NONE', #241, #300, #326, .T. ) ;
#201 = DIRECTION ( 'NONE',  ( 0.0000000000000000000, 0.0000000000000000000, 1.000000000000000000 ) ) ;
#202 = ORIENTED_EDGE ( 'NONE', *, *, #236, .F. ) ;
#203 = PRODUCT_DEFINITION_FORMATION_WITH_SPECIFIED_SOURCE ( 'ANY', '', #34, .NOT_KNOWN. ) ;
#204 = DATE_AND_TIME ( #149, #280 ) ;
#205 = CIRCLE ( 'NONE', #4, 10.00000000000000178 ) ;
#206 = ORIENTED_EDGE ( 'NONE', *, *, #6, .T. ) ;
#207 = EDGE_CURVE ( 'NONE', #268, #73, #120, .T. ) ;
#208 = ADVANCED_FACE ( 'NONE', ( #228, #29 ), #18, .F. ) ;
#209 = AXIS2_PLACEMENT_3D ( 'NONE', #14, #117, #286 ) ;
#210 = CARTESIAN_POINT ( 'NONE',  ( 2.571758278209439985E-16, 0.0000000000000000000, -2.099999999999998757 ) ) ;
#211 = COORDINATED_UNIVERSAL_TIME_OFFSET ( 9, 0, .AHEAD. ) ;
#212 = ORIENTED_EDGE ( 'NONE', *, *, #99, .T. ) ;
#213 = PERSON ( 'UNSPECIFIED', 'UNSPECIFIED', 'UNSPECIFIED', ('UNSPECIFIED'), ('UNSPECIFIED'), ('UNSPECIFIED') ) ;
#214 = EDGE_LOOP ( 'NONE', ( #155, #140, #206, #134 ) ) ;
#215 = PLANE ( 'NONE',  #216 ) ;
#216 = AXIS2_PLACEMENT_3D ( 'NONE', #217, #138, #97 ) ;
#217 = CARTESIAN_POINT ( 'NONE',  ( 5.000000000000002665, -11.50000000000000000, 0.0000000000000000000 ) ) ;
#218 = DIRECTION ( 'NONE',  ( 0.0000000000000000000, 0.0000000000000000000, 1.000000000000000000 ) ) ;
#219 = CARTESIAN_POINT ( 'NONE',  ( 0.0000000000000000000, 5.419203158191626457, 5.000000000000002665 ) ) ;
#220 = ORIENTED_EDGE ( 'NONE', *, *, #253, .F. ) ;
#221 = APPROVAL ( #222, 'UNSPECIFIED' ) ;
#222 = APPROVAL_STATUS ( 'not_yet_approved' ) ;
#223 = EDGE_CURVE ( 'NONE', #73, #268, #165, .T. ) ;
#224 =( LENGTH_UNIT ( ) NAMED_UNIT ( * ) SI_UNIT ( .MILLI., .METRE. ) );
#225 = DIRECTION ( 'NONE',  ( -0.0000000000000000000, 1.000000000000000000, -0.0000000000000000000 ) ) ;
#226 = APPROVAL_DATE_TIME ( #78, #100 ) ;
#227 = SECURITY_CLASSIFICATION ( '', '', #302 ) ;
#228 = FACE_BOUND ( 'NONE', #88, .T. ) ;
#229 = EDGE_CURVE ( 'NONE', #35, #80, #33, .T. ) ;
#230 = ADVANCED_FACE ( 'NONE', ( #21 ), #132, .F. ) ;
#231 = CALENDAR_DATE ( 2021, 1, 2 ) ;
#232 = CYLINDRICAL_SURFACE ( 'NONE', #209, 10.00000000000000178 ) ;
#233 = CARTESIAN_POINT ( 'NONE',  ( 6.123233995736770227E-16, 5.419203158191626457, -5.000000000000002665 ) ) ;
#234 = DIRECTION ( 'NONE',  ( -0.0000000000000000000, 1.000000000000000000, -0.0000000000000000000 ) ) ;
#235 = CARTESIAN_POINT ( 'NONE',  ( 0.0000000000000000000, -5.510910596163095102E-17, 0.0000000000000000000 ) ) ;
#236 = EDGE_CURVE ( 'NONE', #167, #42, #55, .T. ) ;
#237 = LINE ( 'NONE', #91, #158 ) ;
#238 = CARTESIAN_POINT ( 'NONE',  ( 0.0000000000000000000, -4.000000000000000888, 0.0000000000000000000 ) ) ;
#239 = CARTESIAN_POINT ( 'NONE',  ( 0.0000000000000000000, -11.50000000000000000, 2.099999999999997868 ) ) ;
#240 = MANIFOLD_SOLID_BREP ( 'M5x0.8 ‚Ë‚¶ŒŠ1', #110 ) ;
#241 = VERTEX_POINT ( 'NONE', #11 ) ;
#242 = VECTOR ( 'NONE', #153, 1000.000000000000000 ) ;
#243 = DIRECTION ( 'NONE',  ( 0.0000000000000000000, 0.0000000000000000000, 1.000000000000000000 ) ) ;
#244 = FACE_OUTER_BOUND ( 'NONE', #160, .T. ) ;
#245 = AXIS2_PLACEMENT_3D ( 'NONE', #98, #294, #296 ) ;
#246 = APPLICATION_CONTEXT ( 'configuration controlled 3d designs of mechanical parts and assemblies' ) ;
#247 = EDGE_CURVE ( 'NONE', #250, #1, #299, .T. ) ;
#248 = COORDINATED_UNIVERSAL_TIME_OFFSET ( 9, 0, .AHEAD. ) ;
#249 = AXIS2_PLACEMENT_3D ( 'NONE', #289, #315, #60 ) ;
#250 = VERTEX_POINT ( 'NONE', #92 ) ;
#251 = ORGANIZATION ( 'UNSPECIFIED', 'UNSPECIFIED', '' ) ;
#252 = ORIENTED_EDGE ( 'NONE', *, *, #39, .T. ) ;
#253 = EDGE_CURVE ( 'NONE', #42, #1, #128, .T. ) ;
#254 = DATE_AND_TIME ( #15, #265 ) ;
#255 = ORIENTED_EDGE ( 'NONE', *, *, #115, .T. ) ;
#256 = LINE ( 'NONE', #219, #51 ) ;
#257 = DIRECTION ( 'NONE',  ( -0.0000000000000000000, 1.000000000000000000, -0.0000000000000000000 ) ) ;
#258 = DIRECTION ( 'NONE',  ( -0.0000000000000000000, 1.000000000000000000, -0.0000000000000000000 ) ) ;
#259 = PERSON_AND_ORGANIZATION ( #213, #251 ) ;
#260 = ORIENTED_EDGE ( 'NONE', *, *, #99, .F. ) ;
#261 = CARTESIAN_POINT ( 'NONE',  ( 10.00000000000000178, -4.000000000000000888, 0.0000000000000000000 ) ) ;
#262 = CARTESIAN_POINT ( 'NONE',  ( 2.571758278209439492E-16, -11.50000000000000000, -2.099999999999997868 ) ) ;
#263 = DIRECTION ( 'NONE',  ( 0.0000000000000000000, 0.0000000000000000000, 1.000000000000000000 ) ) ;
#264 = EDGE_CURVE ( 'NONE', #268, #241, #306, .T. ) ;
#265 = LOCAL_TIME ( 15, 48, 27.00000000000000000, #211 ) ;
#266 = UNCERTAINTY_MEASURE_WITH_UNIT (LENGTH_MEASURE( 1.000000000000000082E-05 ), #224, 'distance_accuracy_value', 'NONE');
#267 = DESIGN_CONTEXT ( 'detailed design', #246, 'design' ) ;
#268 = VERTEX_POINT ( 'NONE', #38 ) ;
#269 = AXIS2_PLACEMENT_3D ( 'NONE', #323, #162, #166 ) ;
#270 = FACE_OUTER_BOUND ( 'NONE', #150, .T. ) ;
#271 = ORIENTED_EDGE ( 'NONE', *, *, #6, .F. ) ;
#272 = CC_DESIGN_SECURITY_CLASSIFICATION ( #227, ( #203 ) ) ;
#273 = PERSON_AND_ORGANIZATION_ROLE ( 'creator' ) ;
#274 = EDGE_CURVE ( 'NONE', #133, #317, #102, .T. ) ;
#275 = DATE_TIME_ROLE ( 'creation_date' ) ;
#276 = APPROVAL_ROLE ( '' ) ;
#277 = ORIENTED_EDGE ( 'NONE', *, *, #322, .T. ) ;
#278 =( NAMED_UNIT ( * ) PLANE_ANGLE_UNIT ( ) SI_UNIT ( $, .RADIAN. ) );
#279 = ADVANCED_FACE ( 'NONE', ( #82 ), #324, .T. ) ;
#280 = LOCAL_TIME ( 15, 48, 27.00000000000000000, #32 ) ;
#281 = ORIENTED_EDGE ( 'NONE', *, *, #115, .F. ) ;
#282 = ORIENTED_EDGE ( 'NONE', *, *, #264, .T. ) ;
#283 = AXIS2_PLACEMENT_3D ( 'NONE', #320, #147, #17 ) ;
#284 = CC_DESIGN_PERSON_AND_ORGANIZATION_ASSIGNMENT ( #292, #127, ( #203 ) ) ;
#285 = CARTESIAN_POINT ( 'NONE',  ( 0.0000000000000000000, 0.0000000000000000000, 10.00000000000000178 ) ) ;
#286 = DIRECTION ( 'NONE',  ( 0.0000000000000000000, 0.0000000000000000000, 1.000000000000000000 ) ) ;
#287 = LOCAL_TIME ( 15, 48, 27.00000000000000000, #248 ) ;
#288 = ORIENTED_EDGE ( 'NONE', *, *, #207, .F. ) ;
#289 = CARTESIAN_POINT ( 'NONE',  ( 0.0000000000000000000, -11.50000000000000000, 0.0000000000000000000 ) ) ;
#290 = DIRECTION ( 'NONE',  ( -0.0000000000000000000, 1.000000000000000000, -0.0000000000000000000 ) ) ;
#291 = DIRECTION ( 'NONE',  ( 0.0000000000000000000, 0.0000000000000000000, 1.000000000000000000 ) ) ;
#292 = PERSON_AND_ORGANIZATION ( #213, #251 ) ;
#293 = ORIENTED_EDGE ( 'NONE', *, *, #207, .T. ) ;
#294 = DIRECTION ( 'NONE',  ( -0.0000000000000000000, 1.000000000000000000, -0.0000000000000000000 ) ) ;
#295 = APPLICATION_PROTOCOL_DEFINITION ( 'international standard', 'config_control_design', 1994, #76 ) ;
#296 = DIRECTION ( 'NONE',  ( 0.0000000000000000000, 0.0000000000000000000, 1.000000000000000000 ) ) ;
#297 = PERSON_AND_ORGANIZATION ( #213, #251 ) ;
#298 = CC_DESIGN_PERSON_AND_ORGANIZATION_ASSIGNMENT ( #297, #105, ( #227 ) ) ;
#299 = CIRCLE ( 'NONE', #325, 2.099999999999999201 ) ;
#300 = VERTEX_POINT ( 'NONE', #187 ) ;
#301 = EDGE_CURVE ( 'NONE', #317, #133, #205, .T. ) ;
#302 = SECURITY_CLASSIFICATION_LEVEL ( 'unclassified' ) ;
#303 = AXIS2_PLACEMENT_3D ( 'NONE', #168, #184, #189 ) ;
#304 = CC_DESIGN_APPROVAL ( #100, ( #227 ) ) ;
#305 = ADVANCED_FACE ( 'NONE', ( #72 ), #232, .T. ) ;
#306 = LINE ( 'NONE', #233, #188 ) ;
#307 = CIRCLE ( 'NONE', #148, 2.099999999999997868 ) ;
#308 = EDGE_CURVE ( 'NONE', #42, #167, #307, .T. ) ;
#309 = CIRCLE ( 'NONE', #23, 10.00000000000000178 ) ;
#310 = DIRECTION ( 'NONE',  ( -0.0000000000000000000, 1.000000000000000000, -0.0000000000000000000 ) ) ;
#311 = APPROVAL ( #103, 'UNSPECIFIED' ) ;
#312 = CARTESIAN_POINT ( 'NONE',  ( 0.0000000000000000000, 5.419203158191626457, 0.0000000000000000000 ) ) ;
#313 = DIRECTION ( 'NONE',  ( 0.0000000000000000000, 0.0000000000000000000, 1.000000000000000000 ) ) ;
#314 = EDGE_CURVE ( 'NONE', #80, #35, #309, .T. ) ;
#315 = DIRECTION ( 'NONE',  ( -0.0000000000000000000, 1.000000000000000000, -0.0000000000000000000 ) ) ;
#316 = FACE_OUTER_BOUND ( 'NONE', #28, .T. ) ;
#317 = VERTEX_POINT ( 'NONE', #90 ) ;
#318 = CARTESIAN_POINT ( 'NONE',  ( 0.0000000000000000000, 0.0000000000000000000, 0.0000000000000000000 ) ) ;
#319 = AXIS2_PLACEMENT_3D ( 'NONE', #40, #31, #263 ) ;
#320 = CARTESIAN_POINT ( 'NONE',  ( 0.0000000000000000000, 5.419203158191626457, 0.0000000000000000000 ) ) ;
#321 = CARTESIAN_POINT ( 'NONE',  ( 0.0000000000000000000, 0.0000000000000000000, 0.0000000000000000000 ) ) ;
#322 = EDGE_CURVE ( 'NONE', #317, #35, #136, .T. ) ;
#323 = CARTESIAN_POINT ( 'NONE',  ( 0.0000000000000000000, 0.0000000000000000000, 0.0000000000000000000 ) ) ;
#324 = CYLINDRICAL_SURFACE ( 'NONE', #43, 5.000000000000002665 ) ;
#325 = AXIS2_PLACEMENT_3D ( 'NONE', #235, #58, #66 ) ;
#326 = CIRCLE ( 'NONE', #137, 5.000000000000001776 ) ;
#327 = APPROVAL_PERSON_ORGANIZATION ( #69, #221, #74 ) ;
#328 = EDGE_LOOP ( 'NONE', ( #83, #49 ) ) ;
#329 = CC_DESIGN_APPROVAL ( #311, ( #193 ) ) ;
ENDSEC;
END-ISO-10303-21;
