ISO-10303-21;
HEADER;
FILE_DESCRIPTION (( 'STEP AP203' ),
    '1' );
FILE_NAME ('A-1538-M5-20.STEP',
    '2021-02-26T05:53:27',
    ( '' ),
    ( '' ),
    'SwSTEP 2.0',
    'SolidWorks 2018',
    '' );
FILE_SCHEMA (( 'CONFIG_CONTROL_DESIGN' ));
ENDSEC;

DATA;
#1 = CLOSED_SHELL ( 'NONE', ( #128, #180, #79, #237, #21, #74, #45, #130, #310, #283 ) ) ;
#2 = DATE_AND_TIME ( #231, #80 ) ;
#3 = FACE_OUTER_BOUND ( 'NONE', #327, .T. ) ;
#4 = VERTEX_POINT ( 'NONE', #59 ) ;
#5 = EDGE_CURVE ( 'NONE', #267, #280, #85, .T. ) ;
#6 = CARTESIAN_POINT ( 'NONE',  ( 0.0000000000000000000, 5.419203158191626457, 0.0000000000000000000 ) ) ;
#7 = ORIENTED_EDGE ( 'NONE', *, *, #49, .F. ) ;
#8 = AXIS2_PLACEMENT_3D ( 'NONE', #223, #247, #197 ) ;
#9 = DIRECTION ( 'NONE',  ( -0.0000000000000000000, 1.000000000000000000, -0.0000000000000000000 ) ) ;
#10 = DIRECTION ( 'NONE',  ( 0.0000000000000000000, 0.0000000000000000000, 1.000000000000000000 ) ) ;
#11 = EDGE_CURVE ( 'NONE', #214, #218, #286, .T. ) ;
#12 = CALENDAR_DATE ( 2021, 26, 2 ) ;
#13 = DIRECTION ( 'NONE',  ( -0.0000000000000000000, 1.000000000000000000, -0.0000000000000000000 ) ) ;
#14 = SHAPE_DEFINITION_REPRESENTATION ( #123, #156 ) ;
#15 = ORIENTED_EDGE ( 'NONE', *, *, #58, .T. ) ;
#16 = DIRECTION ( 'NONE',  ( -0.0000000000000000000, 1.000000000000000000, 0.0000000000000000000 ) ) ;
#17 = CARTESIAN_POINT ( 'NONE',  ( 0.0000000000000000000, -4.000000000000000888, 0.0000000000000000000 ) ) ;
#18 = EDGE_CURVE ( 'NONE', #320, #4, #170, .T. ) ;
#19 = ORIENTED_EDGE ( 'NONE', *, *, #173, .T. ) ;
#20 = DIRECTION ( 'NONE',  ( 0.0000000000000000000, 0.0000000000000000000, -1.000000000000000000 ) ) ;
#21 = ADVANCED_FACE ( 'NONE', ( #216 ), #319, .T. ) ;
#22 = FACE_OUTER_BOUND ( 'NONE', #294, .T. ) ;
#23 = ORIENTED_EDGE ( 'NONE', *, *, #322, .T. ) ;
#24 = VERTEX_POINT ( 'NONE', #290 ) ;
#25 = CIRCLE ( 'NONE', #60, 5.000000000000001776 ) ;
#26 = ORIENTED_EDGE ( 'NONE', *, *, #316, .F. ) ;
#27 = AXIS2_PLACEMENT_3D ( 'NONE', #181, #68, #252 ) ;
#28 = CARTESIAN_POINT ( 'NONE',  ( 6.123233995736770227E-16, -11.50000000000000000, -5.000000000000002665 ) ) ;
#29 = ORIENTED_EDGE ( 'NONE', *, *, #78, .T. ) ;
#30 = CARTESIAN_POINT ( 'NONE',  ( 0.0000000000000000000, 0.0000000000000000000, 0.0000000000000000000 ) ) ;
#31 = CARTESIAN_POINT ( 'NONE',  ( 1.224646799147353454E-15, 5.419203158191626457, -10.00000000000000178 ) ) ;
#32 = DATE_AND_TIME ( #199, #206 ) ;
#33 = FACE_BOUND ( 'NONE', #77, .T. ) ;
#34 = CARTESIAN_POINT ( 'NONE',  ( 0.0000000000000000000, -4.000000000000000888, 0.0000000000000000000 ) ) ;
#35 = DESIGN_CONTEXT ( 'detailed design', #279, 'design' ) ;
#36 = AXIS2_PLACEMENT_3D ( 'NONE', #208, #284, #101 ) ;
#37 = DIRECTION ( 'NONE',  ( 0.0000000000000000000, 0.0000000000000000000, -1.000000000000000000 ) ) ;
#38 = CARTESIAN_POINT ( 'NONE',  ( 0.0000000000000000000, -31.50000000000000000, 0.0000000000000000000 ) ) ;
#39 = EDGE_CURVE ( 'NONE', #214, #202, #40, .T. ) ;
#40 = LINE ( 'NONE', #321, #51 ) ;
#41 = ORIENTED_EDGE ( 'NONE', *, *, #43, .F. ) ;
#42 = DATE_TIME_ROLE ( 'classification_date' ) ;
#43 = EDGE_CURVE ( 'NONE', #24, #66, #44, .T. ) ;
#44 = CIRCLE ( 'NONE', #213, 5.000000000000002665 ) ;
#45 = ADVANCED_FACE ( 'NONE', ( #110 ), #330, .T. ) ;
#46 = CARTESIAN_POINT ( 'NONE',  ( 0.0000000000000000000, 0.0000000000000000000, 0.0000000000000000000 ) ) ;
#47 = DIRECTION ( 'NONE',  ( 0.0000000000000000000, -1.000000000000000000, 0.0000000000000000000 ) ) ;
#48 = PRODUCT ( 'A-1538-M5-20', 'A-1538-M5-20', '', ( #204 ) ) ;
#49 = EDGE_CURVE ( 'NONE', #218, #221, #163, .T. ) ;
#50 = APPROVAL_ROLE ( '' ) ;
#51 = VECTOR ( 'NONE', #293, 1000.000000000000000 ) ;
#52 = ORIENTED_EDGE ( 'NONE', *, *, #39, .F. ) ;
#53 = PERSON_AND_ORGANIZATION ( #158, #183 ) ;
#54 = CIRCLE ( 'NONE', #100, 10.00000000000000178 ) ;
#55 = CC_DESIGN_DATE_AND_TIME_ASSIGNMENT ( #32, #256, ( #83 ) ) ;
#56 = COORDINATED_UNIVERSAL_TIME_OFFSET ( 9, 0, .AHEAD. ) ;
#57 = ORIENTED_EDGE ( 'NONE', *, *, #5, .T. ) ;
#58 = EDGE_CURVE ( 'NONE', #66, #4, #145, .T. ) ;
#59 = CARTESIAN_POINT ( 'NONE',  ( 6.123233995736769241E-16, -4.000000000000000888, -5.000000000000001776 ) ) ;
#60 = AXIS2_PLACEMENT_3D ( 'NONE', #34, #118, #324 ) ;
#61 = AXIS2_PLACEMENT_3D ( 'NONE', #230, #307, #153 ) ;
#62 = CARTESIAN_POINT ( 'NONE',  ( 10.00000000000000178, -4.000000000000000888, 0.0000000000000000000 ) ) ;
#63 = DIRECTION ( 'NONE',  ( -0.0000000000000000000, 1.000000000000000000, -0.0000000000000000000 ) ) ;
#64 = CALENDAR_DATE ( 2021, 26, 2 ) ;
#65 = CYLINDRICAL_SURFACE ( 'NONE', #296, 10.00000000000000178 ) ;
#66 = VERTEX_POINT ( 'NONE', #28 ) ;
#67 = DIRECTION ( 'NONE',  ( 0.0000000000000000000, 0.0000000000000000000, 1.000000000000000000 ) ) ;
#68 = DIRECTION ( 'NONE',  ( -0.0000000000000000000, 1.000000000000000000, -0.0000000000000000000 ) ) ;
#69 = APPROVAL_ROLE ( '' ) ;
#70 = EDGE_CURVE ( 'NONE', #66, #24, #246, .T. ) ;
#71 =( LENGTH_UNIT ( ) NAMED_UNIT ( * ) SI_UNIT ( .MILLI., .METRE. ) );
#72 = ORIENTED_EDGE ( 'NONE', *, *, #282, .F. ) ;
#73 = PERSON_AND_ORGANIZATION_ROLE ( 'design_owner' ) ;
#74 = ADVANCED_FACE ( 'NONE', ( #103, #33 ), #300, .F. ) ;
#75 = DIRECTION ( 'NONE',  ( -0.0000000000000000000, 1.000000000000000000, -0.0000000000000000000 ) ) ;
#76 = VECTOR ( 'NONE', #200, 1000.000000000000000 ) ;
#77 = EDGE_LOOP ( 'NONE', ( #131, #19 ) ) ;
#78 = EDGE_CURVE ( 'NONE', #221, #202, #326, .T. ) ;
#79 = ADVANCED_FACE ( 'NONE', ( #266 ), #65, .T. ) ;
#80 = LOCAL_TIME ( 14, 53, 27.00000000000000000, #257 ) ;
#81 = PRODUCT_DEFINITION_FORMATION_WITH_SPECIFIED_SOURCE ( 'ANY', '', #48, .NOT_KNOWN. ) ;
#82 = ORIENTED_EDGE ( 'NONE', *, *, #78, .F. ) ;
#83 = PRODUCT_DEFINITION ( 'UNKNOWN', '', #81, #35 ) ;
#84 = VECTOR ( 'NONE', #127, 1000.000000000000000 ) ;
#85 = CIRCLE ( 'NONE', #140, 10.00000000000000178 ) ;
#86 = DIRECTION ( 'NONE',  ( 0.0000000000000000000, 0.0000000000000000000, 1.000000000000000000 ) ) ;
#87 = CC_DESIGN_APPROVAL ( #224, ( #176 ) ) ;
#88 = DIRECTION ( 'NONE',  ( -0.0000000000000000000, 1.000000000000000000, -0.0000000000000000000 ) ) ;
#89 = EDGE_LOOP ( 'NONE', ( #41, #112 ) ) ;
#90 = DIRECTION ( 'NONE',  ( 0.0000000000000000000, 0.0000000000000000000, 1.000000000000000000 ) ) ;
#91 = LOCAL_TIME ( 14, 53, 27.00000000000000000, #244 ) ;
#92 = DIRECTION ( 'NONE',  ( -0.0000000000000000000, 1.000000000000000000, -0.0000000000000000000 ) ) ;
#93 = CIRCLE ( 'NONE', #8, 10.00000000000000178 ) ;
#94 = CC_DESIGN_APPROVAL ( #168, ( #83 ) ) ;
#95 = CARTESIAN_POINT ( 'NONE',  ( 0.0000000000000000000, -11.50000000000000000, 2.500000000000000000 ) ) ;
#96 = AXIS2_PLACEMENT_3D ( 'NONE', #301, #9, #323 ) ;
#97 = DIRECTION ( 'NONE',  ( 0.0000000000000000000, 0.0000000000000000000, 1.000000000000000000 ) ) ;
#98 = COORDINATED_UNIVERSAL_TIME_OFFSET ( 9, 0, .AHEAD. ) ;
#99 = ORIENTED_EDGE ( 'NONE', *, *, #159, .F. ) ;
#100 = AXIS2_PLACEMENT_3D ( 'NONE', #17, #75, #97 ) ;
#101 = DIRECTION ( 'NONE',  ( 1.000000000000000000, 0.0000000000000000000, 0.0000000000000000000 ) ) ;
#102 = SECURITY_CLASSIFICATION_LEVEL ( 'unclassified' ) ;
#103 = FACE_OUTER_BOUND ( 'NONE', #233, .T. ) ;
#104 = EDGE_LOOP ( 'NONE', ( #193, #147 ) ) ;
#105 = CIRCLE ( 'NONE', #61, 10.00000000000000178 ) ;
#106 = ORIENTED_EDGE ( 'NONE', *, *, #253, .T. ) ;
#107 = FACE_OUTER_BOUND ( 'NONE', #157, .T. ) ;
#108 = CC_DESIGN_PERSON_AND_ORGANIZATION_ASSIGNMENT ( #265, #155, ( #81 ) ) ;
#109 = AXIS2_PLACEMENT_3D ( 'NONE', #38, #297, #174 ) ;
#110 = FACE_OUTER_BOUND ( 'NONE', #177, .T. ) ;
#111 = DIRECTION ( 'NONE',  ( -0.0000000000000000000, 1.000000000000000000, -0.0000000000000000000 ) ) ;
#112 = ORIENTED_EDGE ( 'NONE', *, *, #70, .F. ) ;
#113 = DIRECTION ( 'NONE',  ( -0.0000000000000000000, 1.000000000000000000, -0.0000000000000000000 ) ) ;
#114 = DIRECTION ( 'NONE',  ( -0.0000000000000000000, 1.000000000000000000, 0.0000000000000000000 ) ) ;
#115 = PERSON_AND_ORGANIZATION ( #158, #183 ) ;
#116 = VECTOR ( 'NONE', #13, 1000.000000000000000 ) ;
#117 = DIRECTION ( 'NONE',  ( -0.0000000000000000000, 1.000000000000000000, -0.0000000000000000000 ) ) ;
#118 = DIRECTION ( 'NONE',  ( -0.0000000000000000000, 1.000000000000000000, -0.0000000000000000000 ) ) ;
#119 = DIRECTION ( 'NONE',  ( 0.0000000000000000000, 0.0000000000000000000, -1.000000000000000000 ) ) ;
#120 = PERSON_AND_ORGANIZATION ( #158, #183 ) ;
#121 = ORIENTED_EDGE ( 'NONE', *, *, #159, .T. ) ;
#122 = DIRECTION ( 'NONE',  ( 0.0000000000000000000, -0.0000000000000000000, -1.000000000000000000 ) ) ;
#123 = PRODUCT_DEFINITION_SHAPE ( 'NONE', 'NONE',  #83 ) ;
#124 =( NAMED_UNIT ( * ) SI_UNIT ( $, .STERADIAN. ) SOLID_ANGLE_UNIT ( ) );
#125 = APPROVAL_ROLE ( '' ) ;
#126 = PERSON_AND_ORGANIZATION ( #158, #183 ) ;
#127 = DIRECTION ( 'NONE',  ( -0.0000000000000000000, 1.000000000000000000, -0.0000000000000000000 ) ) ;
#128 = ADVANCED_FACE ( 'NONE', ( #258 ), #275, .T. ) ;
#129 = APPLICATION_PROTOCOL_DEFINITION ( 'international standard', 'config_control_design', 1994, #178 ) ;
#130 = ADVANCED_FACE ( 'NONE', ( #250, #235 ), #273, .F. ) ;
#131 = ORIENTED_EDGE ( 'NONE', *, *, #18, .T. ) ;
#132 = FACE_OUTER_BOUND ( 'NONE', #104, .T. ) ;
#133 = CC_DESIGN_DATE_AND_TIME_ASSIGNMENT ( #182, #42, ( #176 ) ) ;
#134 = EDGE_CURVE ( 'NONE', #280, #267, #93, .T. ) ;
#135 = LOCAL_TIME ( 14, 53, 27.00000000000000000, #195 ) ;
#136 = PERSON_AND_ORGANIZATION ( #158, #183 ) ;
#137 = CARTESIAN_POINT ( 'NONE',  ( 0.0000000000000000000, -31.50000000000000000, 0.0000000000000000000 ) ) ;
#138 =( GEOMETRIC_REPRESENTATION_CONTEXT ( 3 ) GLOBAL_UNCERTAINTY_ASSIGNED_CONTEXT ( ( #238 ) ) GLOBAL_UNIT_ASSIGNED_CONTEXT ( ( #71, #278, #124 ) ) REPRESENTATION_CONTEXT ( 'NONE', 'WORKASPACE' ) );
#139 = DIRECTION ( 'NONE',  ( 0.0000000000000000000, 0.0000000000000000000, -1.000000000000000000 ) ) ;
#140 = AXIS2_PLACEMENT_3D ( 'NONE', #30, #242, #190 ) ;
#141 = DIRECTION ( 'NONE',  ( 0.0000000000000000000, 0.0000000000000000000, 1.000000000000000000 ) ) ;
#142 = ORIENTED_EDGE ( 'NONE', *, *, #173, .F. ) ;
#143 = CARTESIAN_POINT ( 'NONE',  ( 0.0000000000000000000, -11.50000000000000000, 0.0000000000000000000 ) ) ;
#144 = CARTESIAN_POINT ( 'NONE',  ( 0.0000000000000000000, 5.419203158191626457, 0.0000000000000000000 ) ) ;
#145 = LINE ( 'NONE', #148, #76 ) ;
#146 = CC_DESIGN_APPROVAL ( #194, ( #81 ) ) ;
#147 = ORIENTED_EDGE ( 'NONE', *, *, #316, .T. ) ;
#148 = CARTESIAN_POINT ( 'NONE',  ( 6.123233995736770227E-16, 5.419203158191626457, -5.000000000000002665 ) ) ;
#149 = CARTESIAN_POINT ( 'NONE',  ( 0.0000000000000000000, -11.50000000000000000, 0.0000000000000000000 ) ) ;
#150 = EDGE_CURVE ( 'NONE', #167, #267, #186, .T. ) ;
#151 = PERSON_AND_ORGANIZATION ( #158, #183 ) ;
#152 = ORIENTED_EDGE ( 'NONE', *, *, #18, .F. ) ;
#153 = DIRECTION ( 'NONE',  ( 0.0000000000000000000, 0.0000000000000000000, 1.000000000000000000 ) ) ;
#154 = CARTESIAN_POINT ( 'NONE',  ( 0.0000000000000000000, -31.50000000000000000, 0.0000000000000000000 ) ) ;
#155 = PERSON_AND_ORGANIZATION_ROLE ( 'creator' ) ;
#156 = ADVANCED_BREP_SHAPE_REPRESENTATION ( 'A-1538-M5-20', ( #333, #36 ), #138 ) ;
#157 = EDGE_LOOP ( 'NONE', ( #7, #251, #287, #161 ) ) ;
#158 = PERSON ( 'UNSPECIFIED', 'UNSPECIFIED', 'UNSPECIFIED', ('UNSPECIFIED'), ('UNSPECIFIED'), ('UNSPECIFIED') ) ;
#159 = EDGE_CURVE ( 'NONE', #207, #280, #201, .T. ) ;
#160 = CC_DESIGN_PERSON_AND_ORGANIZATION_ASSIGNMENT ( #115, #332, ( #176 ) ) ;
#161 = ORIENTED_EDGE ( 'NONE', *, *, #165, .T. ) ;
#162 = PERSON_AND_ORGANIZATION ( #158, #183 ) ;
#163 = LINE ( 'NONE', #203, #116 ) ;
#164 = ORIENTED_EDGE ( 'NONE', *, *, #5, .F. ) ;
#165 = EDGE_CURVE ( 'NONE', #202, #221, #166, .T. ) ;
#166 = CIRCLE ( 'NONE', #239, 2.500000000000000000 ) ;
#167 = VERTEX_POINT ( 'NONE', #245 ) ;
#168 = APPROVAL ( #281, 'UNSPECIFIED' ) ;
#169 = CARTESIAN_POINT ( 'NONE',  ( 3.061616997868383141E-16, -11.50000000000000000, -2.500000000000000000 ) ) ;
#170 = CIRCLE ( 'NONE', #260, 5.000000000000001776 ) ;
#171 = ORIENTED_EDGE ( 'NONE', *, *, #253, .F. ) ;
#172 = DIRECTION ( 'NONE',  ( -0.0000000000000000000, 1.000000000000000000, -0.0000000000000000000 ) ) ;
#173 = EDGE_CURVE ( 'NONE', #4, #320, #25, .T. ) ;
#174 = DIRECTION ( 'NONE',  ( 0.0000000000000000000, 0.0000000000000000000, 1.000000000000000000 ) ) ;
#175 = CYLINDRICAL_SURFACE ( 'NONE', #317, 5.000000000000002665 ) ;
#176 = SECURITY_CLASSIFICATION ( '', '', #102 ) ;
#177 = EDGE_LOOP ( 'NONE', ( #227, #289, #262, #142 ) ) ;
#178 = APPLICATION_CONTEXT ( 'configuration controlled 3d designs of mechanical parts and assemblies' ) ;
#179 = PLANE ( 'NONE',  #313 ) ;
#180 = ADVANCED_FACE ( 'NONE', ( #22 ), #175, .T. ) ;
#181 = CARTESIAN_POINT ( 'NONE',  ( 0.0000000000000000000, -31.50000000000000000, 0.0000000000000000000 ) ) ;
#182 = DATE_AND_TIME ( #12, #91 ) ;
#183 = ORGANIZATION ( 'UNSPECIFIED', 'UNSPECIFIED', '' ) ;
#184 = CARTESIAN_POINT ( 'NONE',  ( 0.0000000000000000000, -31.50000000000000000, 0.0000000000000000000 ) ) ;
#185 = CC_DESIGN_PERSON_AND_ORGANIZATION_ASSIGNMENT ( #162, #205, ( #81 ) ) ;
#186 = LINE ( 'NONE', #31, #188 ) ;
#187 = EDGE_LOOP ( 'NONE', ( #26, #305, #29, #52 ) ) ;
#188 = VECTOR ( 'NONE', #63, 1000.000000000000000 ) ;
#189 = AXIS2_PLACEMENT_3D ( 'NONE', #154, #308, #254 ) ;
#190 = DIRECTION ( 'NONE',  ( 0.0000000000000000000, 0.0000000000000000000, 1.000000000000000000 ) ) ;
#191 = LOCAL_TIME ( 14, 53, 27.00000000000000000, #56 ) ;
#192 = DIRECTION ( 'NONE',  ( 0.0000000000000000000, 0.0000000000000000000, 1.000000000000000000 ) ) ;
#193 = ORIENTED_EDGE ( 'NONE', *, *, #11, .T. ) ;
#194 = APPROVAL ( #309, 'UNSPECIFIED' ) ;
#195 = COORDINATED_UNIVERSAL_TIME_OFFSET ( 9, 0, .AHEAD. ) ;
#196 = APPROVAL_DATE_TIME ( #264, #168 ) ;
#197 = DIRECTION ( 'NONE',  ( 0.0000000000000000000, 0.0000000000000000000, 1.000000000000000000 ) ) ;
#198 = DIRECTION ( 'NONE',  ( 0.0000000000000000000, 0.0000000000000000000, 1.000000000000000000 ) ) ;
#199 = CALENDAR_DATE ( 2021, 26, 2 ) ;
#200 = DIRECTION ( 'NONE',  ( -0.0000000000000000000, 1.000000000000000000, -0.0000000000000000000 ) ) ;
#201 = LINE ( 'NONE', #249, #232 ) ;
#202 = VERTEX_POINT ( 'NONE', #95 ) ;
#203 = CARTESIAN_POINT ( 'NONE',  ( 3.061616997868383141E-16, -31.50000000000000000, -2.500000000000000000 ) ) ;
#204 = MECHANICAL_CONTEXT ( 'NONE', #178, 'mechanical' ) ;
#205 = PERSON_AND_ORGANIZATION_ROLE ( 'design_supplier' ) ;
#206 = LOCAL_TIME ( 14, 53, 27.00000000000000000, #98 ) ;
#207 = VERTEX_POINT ( 'NONE', #274 ) ;
#208 = CARTESIAN_POINT ( 'NONE',  ( 0.0000000000000000000, 0.0000000000000000000, 0.0000000000000000000 ) ) ;
#209 = DIRECTION ( 'NONE',  ( 0.0000000000000000000, -1.000000000000000000, 0.0000000000000000000 ) ) ;
#210 = PRODUCT_RELATED_PRODUCT_CATEGORY ( 'detail', '', ( #48 ) ) ;
#211 = CARTESIAN_POINT ( 'NONE',  ( 1.224646799147353454E-15, 0.0000000000000000000, -10.00000000000000178 ) ) ;
#212 = APPROVAL_PERSON_ORGANIZATION ( #151, #194, #125 ) ;
#213 = AXIS2_PLACEMENT_3D ( 'NONE', #268, #295, #141 ) ;
#214 = VERTEX_POINT ( 'NONE', #331 ) ;
#215 = EDGE_LOOP ( 'NONE', ( #106, #312, #335, #99 ) ) ;
#216 = FACE_OUTER_BOUND ( 'NONE', #270, .T. ) ;
#217 = ORIENTED_EDGE ( 'NONE', *, *, #150, .F. ) ;
#218 = VERTEX_POINT ( 'NONE', #303 ) ;
#219 = DIRECTION ( 'NONE',  ( 0.0000000000000000000, -1.000000000000000000, 0.0000000000000000000 ) ) ;
#220 = CC_DESIGN_PERSON_AND_ORGANIZATION_ASSIGNMENT ( #126, #328, ( #83 ) ) ;
#221 = VERTEX_POINT ( 'NONE', #169 ) ;
#222 = AXIS2_PLACEMENT_3D ( 'NONE', #240, #88, #192 ) ;
#223 = CARTESIAN_POINT ( 'NONE',  ( 0.0000000000000000000, 0.0000000000000000000, 0.0000000000000000000 ) ) ;
#224 = APPROVAL ( #255, 'UNSPECIFIED' ) ;
#225 = CARTESIAN_POINT ( 'NONE',  ( 0.0000000000000000000, 5.419203158191626457, 5.000000000000002665 ) ) ;
#226 = DATE_AND_TIME ( #64, #135 ) ;
#227 = ORIENTED_EDGE ( 'NONE', *, *, #58, .F. ) ;
#228 = CARTESIAN_POINT ( 'NONE',  ( 0.0000000000000000000, -4.000000000000000888, 5.000000000000001776 ) ) ;
#229 = AXIS2_PLACEMENT_3D ( 'NONE', #137, #318, #139 ) ;
#230 = CARTESIAN_POINT ( 'NONE',  ( 0.0000000000000000000, -4.000000000000000888, 0.0000000000000000000 ) ) ;
#231 = CALENDAR_DATE ( 2021, 26, 2 ) ;
#232 = VECTOR ( 'NONE', #117, 1000.000000000000000 ) ;
#233 = EDGE_LOOP ( 'NONE', ( #171, #241 ) ) ;
#234 = CC_DESIGN_SECURITY_CLASSIFICATION ( #176, ( #81 ) ) ;
#235 = FACE_OUTER_BOUND ( 'NONE', #89, .T. ) ;
#236 = ORIENTED_EDGE ( 'NONE', *, *, #134, .T. ) ;
#237 = ADVANCED_FACE ( 'NONE', ( #3 ), #179, .F. ) ;
#238 = UNCERTAINTY_MEASURE_WITH_UNIT (LENGTH_MEASURE( 1.000000000000000082E-05 ), #71, 'distance_accuracy_value', 'NONE');
#239 = AXIS2_PLACEMENT_3D ( 'NONE', #143, #271, #37 ) ;
#240 = CARTESIAN_POINT ( 'NONE',  ( 0.0000000000000000000, 5.419203158191626457, 0.0000000000000000000 ) ) ;
#241 = ORIENTED_EDGE ( 'NONE', *, *, #322, .F. ) ;
#242 = DIRECTION ( 'NONE',  ( -0.0000000000000000000, 1.000000000000000000, -0.0000000000000000000 ) ) ;
#243 = AXIS2_PLACEMENT_3D ( 'NONE', #149, #219, #119 ) ;
#244 = COORDINATED_UNIVERSAL_TIME_OFFSET ( 9, 0, .AHEAD. ) ;
#245 = CARTESIAN_POINT ( 'NONE',  ( 1.224646799147353454E-15, -4.000000000000000888, -10.00000000000000178 ) ) ;
#246 = CIRCLE ( 'NONE', #96, 5.000000000000002665 ) ;
#247 = DIRECTION ( 'NONE',  ( -0.0000000000000000000, 1.000000000000000000, -0.0000000000000000000 ) ) ;
#248 = DIRECTION ( 'NONE',  ( 0.0000000000000000000, 0.0000000000000000000, 1.000000000000000000 ) ) ;
#249 = CARTESIAN_POINT ( 'NONE',  ( 0.0000000000000000000, 5.419203158191626457, 10.00000000000000178 ) ) ;
#250 = FACE_BOUND ( 'NONE', #288, .T. ) ;
#251 = ORIENTED_EDGE ( 'NONE', *, *, #11, .F. ) ;
#252 = DIRECTION ( 'NONE',  ( 0.0000000000000000000, 0.0000000000000000000, 1.000000000000000000 ) ) ;
#253 = EDGE_CURVE ( 'NONE', #207, #167, #105, .T. ) ;
#254 = DIRECTION ( 'NONE',  ( 0.0000000000000000000, -0.0000000000000000000, -1.000000000000000000 ) ) ;
#255 = APPROVAL_STATUS ( 'not_yet_approved' ) ;
#256 = DATE_TIME_ROLE ( 'creation_date' ) ;
#257 = COORDINATED_UNIVERSAL_TIME_OFFSET ( 9, 0, .AHEAD. ) ;
#258 = FACE_OUTER_BOUND ( 'NONE', #187, .T. ) ;
#259 = CARTESIAN_POINT ( 'NONE',  ( 0.0000000000000000000, 0.0000000000000000000, 10.00000000000000178 ) ) ;
#260 = AXIS2_PLACEMENT_3D ( 'NONE', #269, #113, #86 ) ;
#261 = LINE ( 'NONE', #225, #84 ) ;
#262 = ORIENTED_EDGE ( 'NONE', *, *, #282, .T. ) ;
#263 = APPROVAL_DATE_TIME ( #2, #194 ) ;
#264 = DATE_AND_TIME ( #304, #191 ) ;
#265 = PERSON_AND_ORGANIZATION ( #158, #183 ) ;
#266 = FACE_OUTER_BOUND ( 'NONE', #215, .T. ) ;
#267 = VERTEX_POINT ( 'NONE', #211 ) ;
#268 = CARTESIAN_POINT ( 'NONE',  ( 0.0000000000000000000, -11.50000000000000000, 0.0000000000000000000 ) ) ;
#269 = CARTESIAN_POINT ( 'NONE',  ( 0.0000000000000000000, -4.000000000000000888, 0.0000000000000000000 ) ) ;
#270 = EDGE_LOOP ( 'NONE', ( #217, #23, #121, #164 ) ) ;
#271 = DIRECTION ( 'NONE',  ( 0.0000000000000000000, -1.000000000000000000, 0.0000000000000000000 ) ) ;
#272 = CARTESIAN_POINT ( 'NONE',  ( 0.0000000000000000000, 5.419203158191626457, 0.0000000000000000000 ) ) ;
#273 = PLANE ( 'NONE',  #314 ) ;
#274 = CARTESIAN_POINT ( 'NONE',  ( 0.0000000000000000000, -4.000000000000000888, 10.00000000000000178 ) ) ;
#275 = CYLINDRICAL_SURFACE ( 'NONE', #109, 2.500000000000000000 ) ;
#276 = ORIENTED_EDGE ( 'NONE', *, *, #165, .F. ) ;
#277 = AXIS2_PLACEMENT_3D ( 'NONE', #6, #111, #90 ) ;
#278 =( NAMED_UNIT ( * ) PLANE_ANGLE_UNIT ( ) SI_UNIT ( $, .RADIAN. ) );
#279 = APPLICATION_CONTEXT ( 'configuration controlled 3d designs of mechanical parts and assemblies' ) ;
#280 = VERTEX_POINT ( 'NONE', #259 ) ;
#281 = APPROVAL_STATUS ( 'not_yet_approved' ) ;
#282 = EDGE_CURVE ( 'NONE', #24, #320, #261, .T. ) ;
#283 = ADVANCED_FACE ( 'NONE', ( #132 ), #306, .T. ) ;
#284 = DIRECTION ( 'NONE',  ( 0.0000000000000000000, 0.0000000000000000000, 1.000000000000000000 ) ) ;
#285 = APPROVAL_DATE_TIME ( #226, #224 ) ;
#286 = CIRCLE ( 'NONE', #229, 2.500000000000000000 ) ;
#287 = ORIENTED_EDGE ( 'NONE', *, *, #39, .T. ) ;
#288 = EDGE_LOOP ( 'NONE', ( #276, #82 ) ) ;
#289 = ORIENTED_EDGE ( 'NONE', *, *, #70, .T. ) ;
#290 = CARTESIAN_POINT ( 'NONE',  ( 0.0000000000000000000, -11.50000000000000000, 5.000000000000002665 ) ) ;
#291 = APPROVAL_PERSON_ORGANIZATION ( #53, #224, #50 ) ;
#292 = CC_DESIGN_PERSON_AND_ORGANIZATION_ASSIGNMENT ( #120, #73, ( #48 ) ) ;
#293 = DIRECTION ( 'NONE',  ( -0.0000000000000000000, 1.000000000000000000, -0.0000000000000000000 ) ) ;
#294 = EDGE_LOOP ( 'NONE', ( #299, #15, #152, #72 ) ) ;
#295 = DIRECTION ( 'NONE',  ( -0.0000000000000000000, 1.000000000000000000, -0.0000000000000000000 ) ) ;
#296 = AXIS2_PLACEMENT_3D ( 'NONE', #272, #92, #198 ) ;
#297 = DIRECTION ( 'NONE',  ( -0.0000000000000000000, 1.000000000000000000, -0.0000000000000000000 ) ) ;
#298 = CIRCLE ( 'NONE', #302, 2.500000000000000000 ) ;
#299 = ORIENTED_EDGE ( 'NONE', *, *, #43, .T. ) ;
#300 = PLANE ( 'NONE',  #311 ) ;
#301 = CARTESIAN_POINT ( 'NONE',  ( 0.0000000000000000000, -11.50000000000000000, 0.0000000000000000000 ) ) ;
#302 = AXIS2_PLACEMENT_3D ( 'NONE', #184, #209, #20 ) ;
#303 = CARTESIAN_POINT ( 'NONE',  ( 3.061616997868383141E-16, -31.50000000000000000, -2.500000000000000000 ) ) ;
#304 = CALENDAR_DATE ( 2021, 26, 2 ) ;
#305 = ORIENTED_EDGE ( 'NONE', *, *, #49, .T. ) ;
#306 = PLANE ( 'NONE',  #189 ) ;
#307 = DIRECTION ( 'NONE',  ( -0.0000000000000000000, 1.000000000000000000, -0.0000000000000000000 ) ) ;
#308 = DIRECTION ( 'NONE',  ( 0.0000000000000000000, -1.000000000000000000, 0.0000000000000000000 ) ) ;
#309 = APPROVAL_STATUS ( 'not_yet_approved' ) ;
#310 = ADVANCED_FACE ( 'NONE', ( #107 ), #315, .T. ) ;
#311 = AXIS2_PLACEMENT_3D ( 'NONE', #62, #16, #10 ) ;
#312 = ORIENTED_EDGE ( 'NONE', *, *, #150, .T. ) ;
#313 = AXIS2_PLACEMENT_3D ( 'NONE', #46, #47, #122 ) ;
#314 = AXIS2_PLACEMENT_3D ( 'NONE', #325, #114, #67 ) ;
#315 = CYLINDRICAL_SURFACE ( 'NONE', #27, 2.500000000000000000 ) ;
#316 = EDGE_CURVE ( 'NONE', #218, #214, #298, .T. ) ;
#317 = AXIS2_PLACEMENT_3D ( 'NONE', #144, #172, #248 ) ;
#318 = DIRECTION ( 'NONE',  ( 0.0000000000000000000, -1.000000000000000000, 0.0000000000000000000 ) ) ;
#319 = CYLINDRICAL_SURFACE ( 'NONE', #222, 10.00000000000000178 ) ;
#320 = VERTEX_POINT ( 'NONE', #228 ) ;
#321 = CARTESIAN_POINT ( 'NONE',  ( 0.0000000000000000000, -31.50000000000000000, 2.500000000000000000 ) ) ;
#322 = EDGE_CURVE ( 'NONE', #167, #207, #54, .T. ) ;
#323 = DIRECTION ( 'NONE',  ( 0.0000000000000000000, 0.0000000000000000000, 1.000000000000000000 ) ) ;
#324 = DIRECTION ( 'NONE',  ( 0.0000000000000000000, 0.0000000000000000000, 1.000000000000000000 ) ) ;
#325 = CARTESIAN_POINT ( 'NONE',  ( 5.000000000000002665, -11.50000000000000000, 0.0000000000000000000 ) ) ;
#326 = CIRCLE ( 'NONE', #243, 2.500000000000000000 ) ;
#327 = EDGE_LOOP ( 'NONE', ( #236, #57 ) ) ;
#328 = PERSON_AND_ORGANIZATION_ROLE ( 'creator' ) ;
#329 = APPLICATION_PROTOCOL_DEFINITION ( 'international standard', 'config_control_design', 1994, #279 ) ;
#330 = CYLINDRICAL_SURFACE ( 'NONE', #277, 5.000000000000002665 ) ;
#331 = CARTESIAN_POINT ( 'NONE',  ( 0.0000000000000000000, -31.50000000000000000, 2.500000000000000000 ) ) ;
#332 = PERSON_AND_ORGANIZATION_ROLE ( 'classification_officer' ) ;
#333 = MANIFOLD_SOLID_BREP ( 'ÎÞ½ - µoµ1', #1 ) ;
#334 = APPROVAL_PERSON_ORGANIZATION ( #136, #168, #69 ) ;
#335 = ORIENTED_EDGE ( 'NONE', *, *, #134, .F. ) ;
ENDSEC;
END-ISO-10303-21;
