ISO-10303-21;
HEADER;
FILE_DESCRIPTION (( 'STEP AP203' ),
    '1' );
FILE_NAME ('A-1538-M5-10.STEP',
    '2021-02-01T06:45:57',
    ( '' ),
    ( '' ),
    'SwSTEP 2.0',
    'SolidWorks 2018',
    '' );
FILE_SCHEMA (( 'CONFIG_CONTROL_DESIGN' ));
ENDSEC;

DATA;
#1 = LINE ( 'NONE', #257, #152 ) ;
#2 = CARTESIAN_POINT ( 'NONE',  ( 3.061616997868383141E-16, -21.50000000000000000, -2.500000000000000000 ) ) ;
#3 = ORIENTED_EDGE ( 'NONE', *, *, #149, .T. ) ;
#4 = CARTESIAN_POINT ( 'NONE',  ( 1.224646799147353454E-15, 0.0000000000000000000, -10.00000000000000178 ) ) ;
#5 = DIRECTION ( 'NONE',  ( 0.0000000000000000000, 0.0000000000000000000, 1.000000000000000000 ) ) ;
#6 = CC_DESIGN_PERSON_AND_ORGANIZATION_ASSIGNMENT ( #182, #233, ( #303 ) ) ;
#7 =( NAMED_UNIT ( * ) PLANE_ANGLE_UNIT ( ) SI_UNIT ( $, .RADIAN. ) );
#8 = APPLICATION_PROTOCOL_DEFINITION ( 'international standard', 'config_control_design', 1994, #259 ) ;
#9 = LOCAL_TIME ( 15, 45, 57.00000000000000000, #204 ) ;
#10 = CYLINDRICAL_SURFACE ( 'NONE', #223, 10.00000000000000178 ) ;
#11 = AXIS2_PLACEMENT_3D ( 'NONE', #330, #40, #334 ) ;
#12 = PERSON_AND_ORGANIZATION ( #280, #302 ) ;
#13 = APPROVAL ( #239, 'UNSPECIFIED' ) ;
#14 = AXIS2_PLACEMENT_3D ( 'NONE', #250, #196, #281 ) ;
#15 = EDGE_LOOP ( 'NONE', ( #29, #177 ) ) ;
#16 = ORIENTED_EDGE ( 'NONE', *, *, #198, .F. ) ;
#17 = ADVANCED_FACE ( 'NONE', ( #205 ), #240, .T. ) ;
#18 = CARTESIAN_POINT ( 'NONE',  ( 3.061616997868383141E-16, -21.50000000000000000, -2.500000000000000000 ) ) ;
#19 = CC_DESIGN_DATE_AND_TIME_ASSIGNMENT ( #228, #151, ( #303 ) ) ;
#20 = ORIENTED_EDGE ( 'NONE', *, *, #312, .T. ) ;
#21 = DIRECTION ( 'NONE',  ( -0.0000000000000000000, 1.000000000000000000, -0.0000000000000000000 ) ) ;
#22 = DIRECTION ( 'NONE',  ( -0.0000000000000000000, 1.000000000000000000, 0.0000000000000000000 ) ) ;
#23 = ORIENTED_EDGE ( 'NONE', *, *, #99, .T. ) ;
#24 = LINE ( 'NONE', #117, #130 ) ;
#25 = CARTESIAN_POINT ( 'NONE',  ( 0.0000000000000000000, 5.419203158191626457, 5.000000000000002665 ) ) ;
#26 = AXIS2_PLACEMENT_3D ( 'NONE', #139, #305, #169 ) ;
#27 = CYLINDRICAL_SURFACE ( 'NONE', #87, 2.500000000000000000 ) ;
#28 = APPLICATION_CONTEXT ( 'configuration controlled 3d designs of mechanical parts and assemblies' ) ;
#29 = ORIENTED_EDGE ( 'NONE', *, *, #326, .T. ) ;
#30 = CALENDAR_DATE ( 2021, 1, 2 ) ;
#31 = SECURITY_CLASSIFICATION_LEVEL ( 'unclassified' ) ;
#32 = PERSON_AND_ORGANIZATION ( #280, #302 ) ;
#33 = FACE_OUTER_BOUND ( 'NONE', #115, .T. ) ;
#34 = VERTEX_POINT ( 'NONE', #189 ) ;
#35 = CC_DESIGN_APPROVAL ( #82, ( #64 ) ) ;
#36 = ORIENTED_EDGE ( 'NONE', *, *, #326, .F. ) ;
#37 = CARTESIAN_POINT ( 'NONE',  ( 0.0000000000000000000, 5.419203158191626457, 0.0000000000000000000 ) ) ;
#38 = AXIS2_PLACEMENT_3D ( 'NONE', #95, #74, #44 ) ;
#39 = EDGE_LOOP ( 'NONE', ( #16, #153, #45, #245 ) ) ;
#40 = DIRECTION ( 'NONE',  ( -0.0000000000000000000, 1.000000000000000000, -0.0000000000000000000 ) ) ;
#41 = ADVANCED_FACE ( 'NONE', ( #67 ), #27, .T. ) ;
#42 = EDGE_CURVE ( 'NONE', #311, #144, #83, .T. ) ;
#43 = ORIENTED_EDGE ( 'NONE', *, *, #99, .F. ) ;
#44 = DIRECTION ( 'NONE',  ( 0.0000000000000000000, 0.0000000000000000000, 1.000000000000000000 ) ) ;
#45 = ORIENTED_EDGE ( 'NONE', *, *, #260, .T. ) ;
#46 = AXIS2_PLACEMENT_3D ( 'NONE', #309, #21, #145 ) ;
#47 = APPROVAL_STATUS ( 'not_yet_approved' ) ;
#48 = DIRECTION ( 'NONE',  ( -0.0000000000000000000, 1.000000000000000000, -0.0000000000000000000 ) ) ;
#49 = CIRCLE ( 'NONE', #185, 2.500000000000000000 ) ;
#50 = FACE_OUTER_BOUND ( 'NONE', #146, .T. ) ;
#51 = ORIENTED_EDGE ( 'NONE', *, *, #269, .F. ) ;
#52 = CC_DESIGN_APPROVAL ( #13, ( #53 ) ) ;
#53 = SECURITY_CLASSIFICATION ( '', '', #31 ) ;
#54 = APPROVAL_ROLE ( '' ) ;
#55 = CARTESIAN_POINT ( 'NONE',  ( 0.0000000000000000000, -11.50000000000000000, 0.0000000000000000000 ) ) ;
#56 = CLOSED_SHELL ( 'NONE', ( #41, #165, #195, #323, #274, #73, #251, #69, #17, #300 ) ) ;
#57 = APPROVAL_DATE_TIME ( #154, #13 ) ;
#58 = LINE ( 'NONE', #18, #225 ) ;
#59 = CIRCLE ( 'NONE', #278, 5.000000000000001776 ) ;
#60 = PERSON_AND_ORGANIZATION_ROLE ( 'creator' ) ;
#61 = DESIGN_CONTEXT ( 'detailed design', #28, 'design' ) ;
#62 = DIRECTION ( 'NONE',  ( 0.0000000000000000000, -1.000000000000000000, 0.0000000000000000000 ) ) ;
#63 = FACE_OUTER_BOUND ( 'NONE', #109, .T. ) ;
#64 = PRODUCT_DEFINITION_FORMATION_WITH_SPECIFIED_SOURCE ( 'ANY', '', #249, .NOT_KNOWN. ) ;
#65 = DATE_AND_TIME ( #116, #237 ) ;
#66 = CC_DESIGN_PERSON_AND_ORGANIZATION_ASSIGNMENT ( #32, #60, ( #64 ) ) ;
#67 = FACE_OUTER_BOUND ( 'NONE', #148, .T. ) ;
#68 = LINE ( 'NONE', #308, #253 ) ;
#69 = ADVANCED_FACE ( 'NONE', ( #234, #76 ), #331, .F. ) ;
#70 = CARTESIAN_POINT ( 'NONE',  ( 0.0000000000000000000, -11.50000000000000000, 0.0000000000000000000 ) ) ;
#71 = DIRECTION ( 'NONE',  ( -0.0000000000000000000, 1.000000000000000000, -0.0000000000000000000 ) ) ;
#72 = AXIS2_PLACEMENT_3D ( 'NONE', #132, #275, #193 ) ;
#73 = ADVANCED_FACE ( 'NONE', ( #96, #261 ), #75, .F. ) ;
#74 = DIRECTION ( 'NONE',  ( -0.0000000000000000000, 1.000000000000000000, -0.0000000000000000000 ) ) ;
#75 = PLANE ( 'NONE',  #216 ) ;
#76 = FACE_OUTER_BOUND ( 'NONE', #212, .T. ) ;
#77 = CIRCLE ( 'NONE', #38, 10.00000000000000178 ) ;
#78 = DIRECTION ( 'NONE',  ( -0.0000000000000000000, 1.000000000000000000, -0.0000000000000000000 ) ) ;
#79 = CARTESIAN_POINT ( 'NONE',  ( 3.061616997868383141E-16, -11.50000000000000000, -2.500000000000000000 ) ) ;
#80 = AXIS2_PLACEMENT_3D ( 'NONE', #70, #142, #284 ) ;
#81 = CARTESIAN_POINT ( 'NONE',  ( 0.0000000000000000000, -21.50000000000000000, 0.0000000000000000000 ) ) ;
#82 = APPROVAL ( #47, 'UNSPECIFIED' ) ;
#83 = CIRCLE ( 'NONE', #80, 2.500000000000000000 ) ;
#84 = CC_DESIGN_PERSON_AND_ORGANIZATION_ASSIGNMENT ( #327, #291, ( #53 ) ) ;
#85 = ORIENTED_EDGE ( 'NONE', *, *, #207, .F. ) ;
#86 = EDGE_LOOP ( 'NONE', ( #219, #125 ) ) ;
#87 = AXIS2_PLACEMENT_3D ( 'NONE', #214, #298, #122 ) ;
#88 = APPROVAL_DATE_TIME ( #65, #82 ) ;
#89 = ORIENTED_EDGE ( 'NONE', *, *, #296, .F. ) ;
#90 = AXIS2_PLACEMENT_3D ( 'NONE', #167, #287, #315 ) ;
#91 = ORIENTED_EDGE ( 'NONE', *, *, #312, .F. ) ;
#92 = CARTESIAN_POINT ( 'NONE',  ( 0.0000000000000000000, 5.419203158191626457, 0.0000000000000000000 ) ) ;
#93 = DIRECTION ( 'NONE',  ( 0.0000000000000000000, 0.0000000000000000000, -1.000000000000000000 ) ) ;
#94 = CC_DESIGN_PERSON_AND_ORGANIZATION_ASSIGNMENT ( #322, #317, ( #64 ) ) ;
#95 = CARTESIAN_POINT ( 'NONE',  ( 0.0000000000000000000, 0.0000000000000000000, 0.0000000000000000000 ) ) ;
#96 = FACE_OUTER_BOUND ( 'NONE', #86, .T. ) ;
#97 = CARTESIAN_POINT ( 'NONE',  ( 0.0000000000000000000, -21.50000000000000000, 2.500000000000000000 ) ) ;
#98 = DIRECTION ( 'NONE',  ( -0.0000000000000000000, 1.000000000000000000, 0.0000000000000000000 ) ) ;
#99 = EDGE_CURVE ( 'NONE', #293, #179, #114, .T. ) ;
#100 = APPROVAL_PERSON_ORGANIZATION ( #332, #13, #128 ) ;
#101 =( LENGTH_UNIT ( ) NAMED_UNIT ( * ) SI_UNIT ( .MILLI., .METRE. ) );
#102 = CIRCLE ( 'NONE', #292, 10.00000000000000178 ) ;
#103 = ORIENTED_EDGE ( 'NONE', *, *, #42, .T. ) ;
#104 = DIRECTION ( 'NONE',  ( 0.0000000000000000000, -1.000000000000000000, 0.0000000000000000000 ) ) ;
#105 = ORIENTED_EDGE ( 'NONE', *, *, #235, .F. ) ;
#106 = PLANE ( 'NONE',  #138 ) ;
#107 = ORIENTED_EDGE ( 'NONE', *, *, #286, .F. ) ;
#108 = CIRCLE ( 'NONE', #46, 5.000000000000001776 ) ;
#109 = EDGE_LOOP ( 'NONE', ( #85, #157, #23, #91 ) ) ;
#110 = COORDINATED_UNIVERSAL_TIME_OFFSET ( 9, 0, .AHEAD. ) ;
#111 = ORIENTED_EDGE ( 'NONE', *, *, #198, .T. ) ;
#112 = FACE_OUTER_BOUND ( 'NONE', #39, .T. ) ;
#113 = CARTESIAN_POINT ( 'NONE',  ( 0.0000000000000000000, -21.50000000000000000, 0.0000000000000000000 ) ) ;
#114 = LINE ( 'NONE', #25, #172 ) ;
#115 = EDGE_LOOP ( 'NONE', ( #232, #181, #89, #43 ) ) ;
#116 = CALENDAR_DATE ( 2021, 1, 2 ) ;
#117 = CARTESIAN_POINT ( 'NONE',  ( 0.0000000000000000000, -21.50000000000000000, 2.500000000000000000 ) ) ;
#118 = ADVANCED_BREP_SHAPE_REPRESENTATION ( 'A-1538-M5-10', ( #131, #209 ), #192 ) ;
#119 = DIRECTION ( 'NONE',  ( -0.0000000000000000000, 1.000000000000000000, -0.0000000000000000000 ) ) ;
#120 = CYLINDRICAL_SURFACE ( 'NONE', #124, 10.00000000000000178 ) ;
#121 = DIRECTION ( 'NONE',  ( 0.0000000000000000000, 0.0000000000000000000, 1.000000000000000000 ) ) ;
#122 = DIRECTION ( 'NONE',  ( 0.0000000000000000000, 0.0000000000000000000, 1.000000000000000000 ) ) ;
#123 = CALENDAR_DATE ( 2021, 1, 2 ) ;
#124 = AXIS2_PLACEMENT_3D ( 'NONE', #92, #276, #121 ) ;
#125 = ORIENTED_EDGE ( 'NONE', *, *, #129, .F. ) ;
#126 = CARTESIAN_POINT ( 'NONE',  ( 0.0000000000000000000, 0.0000000000000000000, 0.0000000000000000000 ) ) ;
#127 = APPROVAL_DATE_TIME ( #159, #329 ) ;
#128 = APPROVAL_ROLE ( '' ) ;
#129 = EDGE_CURVE ( 'NONE', #242, #210, #102, .T. ) ;
#130 = VECTOR ( 'NONE', #119, 1000.000000000000000 ) ;
#131 = MANIFOLD_SOLID_BREP ( 'ÎÞ½ - µoµ1', #56 ) ;
#132 = CARTESIAN_POINT ( 'NONE',  ( 0.0000000000000000000, 5.419203158191626457, 0.0000000000000000000 ) ) ;
#133 = CC_DESIGN_SECURITY_CLASSIFICATION ( #53, ( #64 ) ) ;
#134 = CC_DESIGN_PERSON_AND_ORGANIZATION_ASSIGNMENT ( #186, #176, ( #249 ) ) ;
#135 = DIRECTION ( 'NONE',  ( 0.0000000000000000000, 0.0000000000000000000, -1.000000000000000000 ) ) ;
#136 = UNCERTAINTY_MEASURE_WITH_UNIT (LENGTH_MEASURE( 1.000000000000000082E-05 ), #101, 'distance_accuracy_value', 'NONE');
#137 = DIRECTION ( 'NONE',  ( 0.0000000000000000000, 0.0000000000000000000, 1.000000000000000000 ) ) ;
#138 = AXIS2_PLACEMENT_3D ( 'NONE', #231, #171, #197 ) ;
#139 = CARTESIAN_POINT ( 'NONE',  ( 0.0000000000000000000, 0.0000000000000000000, 0.0000000000000000000 ) ) ;
#140 = CARTESIAN_POINT ( 'NONE',  ( 0.0000000000000000000, -11.50000000000000000, 5.000000000000002665 ) ) ;
#141 = CARTESIAN_POINT ( 'NONE',  ( 1.224646799147353454E-15, -4.000000000000000888, -10.00000000000000178 ) ) ;
#142 = DIRECTION ( 'NONE',  ( 0.0000000000000000000, -1.000000000000000000, 0.0000000000000000000 ) ) ;
#143 = DIRECTION ( 'NONE',  ( -0.0000000000000000000, 1.000000000000000000, -0.0000000000000000000 ) ) ;
#144 = VERTEX_POINT ( 'NONE', #79 ) ;
#145 = DIRECTION ( 'NONE',  ( 0.0000000000000000000, 0.0000000000000000000, 1.000000000000000000 ) ) ;
#146 = EDGE_LOOP ( 'NONE', ( #255, #190 ) ) ;
#147 = DIRECTION ( 'NONE',  ( 0.0000000000000000000, 0.0000000000000000000, 1.000000000000000000 ) ) ;
#148 = EDGE_LOOP ( 'NONE', ( #105, #318, #3, #107 ) ) ;
#149 = EDGE_CURVE ( 'NONE', #144, #311, #49, .T. ) ;
#150 = VERTEX_POINT ( 'NONE', #4 ) ;
#151 = DATE_TIME_ROLE ( 'creation_date' ) ;
#152 = VECTOR ( 'NONE', #143, 1000.000000000000000 ) ;
#153 = ORIENTED_EDGE ( 'NONE', *, *, #129, .T. ) ;
#154 = DATE_AND_TIME ( #123, #268 ) ;
#155 = AXIS2_PLACEMENT_3D ( 'NONE', #252, #194, #93 ) ;
#156 = CIRCLE ( 'NONE', #11, 5.000000000000002665 ) ;
#157 = ORIENTED_EDGE ( 'NONE', *, *, #166, .T. ) ;
#158 = EDGE_CURVE ( 'NONE', #210, #242, #319, .T. ) ;
#159 = DATE_AND_TIME ( #30, #224 ) ;
#160 = DIRECTION ( 'NONE',  ( -0.0000000000000000000, 1.000000000000000000, -0.0000000000000000000 ) ) ;
#161 = COORDINATED_UNIVERSAL_TIME_OFFSET ( 9, 0, .AHEAD. ) ;
#162 = CIRCLE ( 'NONE', #26, 10.00000000000000178 ) ;
#163 = CARTESIAN_POINT ( 'NONE',  ( 0.0000000000000000000, -4.000000000000000888, 0.0000000000000000000 ) ) ;
#164 = VERTEX_POINT ( 'NONE', #97 ) ;
#165 = ADVANCED_FACE ( 'NONE', ( #33 ), #325, .T. ) ;
#166 = EDGE_CURVE ( 'NONE', #34, #293, #301, .T. ) ;
#167 = CARTESIAN_POINT ( 'NONE',  ( 0.0000000000000000000, -21.50000000000000000, 0.0000000000000000000 ) ) ;
#168 = DIRECTION ( 'NONE',  ( 0.0000000000000000000, 0.0000000000000000000, 1.000000000000000000 ) ) ;
#169 = DIRECTION ( 'NONE',  ( 0.0000000000000000000, 0.0000000000000000000, 1.000000000000000000 ) ) ;
#170 = DIRECTION ( 'NONE',  ( 0.0000000000000000000, 0.0000000000000000000, 1.000000000000000000 ) ) ;
#171 = DIRECTION ( 'NONE',  ( 0.0000000000000000000, -1.000000000000000000, 0.0000000000000000000 ) ) ;
#172 = VECTOR ( 'NONE', #48, 1000.000000000000000 ) ;
#173 = CARTESIAN_POINT ( 'NONE',  ( 0.0000000000000000000, -4.000000000000000888, 0.0000000000000000000 ) ) ;
#174 = AXIS2_PLACEMENT_3D ( 'NONE', #81, #104, #263 ) ;
#175 = ORIENTED_EDGE ( 'NONE', *, *, #42, .F. ) ;
#176 = PERSON_AND_ORGANIZATION_ROLE ( 'design_owner' ) ;
#177 = ORIENTED_EDGE ( 'NONE', *, *, #235, .T. ) ;
#178 =( NAMED_UNIT ( * ) SI_UNIT ( $, .STERADIAN. ) SOLID_ANGLE_UNIT ( ) );
#179 = VERTEX_POINT ( 'NONE', #236 ) ;
#180 = CIRCLE ( 'NONE', #155, 2.500000000000000000 ) ;
#181 = ORIENTED_EDGE ( 'NONE', *, *, #207, .T. ) ;
#182 = PERSON_AND_ORGANIZATION ( #280, #302 ) ;
#183 = FACE_OUTER_BOUND ( 'NONE', #316, .T. ) ;
#184 = COORDINATED_UNIVERSAL_TIME_OFFSET ( 9, 0, .AHEAD. ) ;
#185 = AXIS2_PLACEMENT_3D ( 'NONE', #55, #62, #135 ) ;
#186 = PERSON_AND_ORGANIZATION ( #280, #302 ) ;
#187 = CALENDAR_DATE ( 2021, 1, 2 ) ;
#188 = EDGE_CURVE ( 'NONE', #321, #144, #58, .T. ) ;
#189 = CARTESIAN_POINT ( 'NONE',  ( 6.123233995736770227E-16, -11.50000000000000000, -5.000000000000002665 ) ) ;
#190 = ORIENTED_EDGE ( 'NONE', *, *, #271, .T. ) ;
#191 = DIRECTION ( 'NONE',  ( -0.0000000000000000000, 1.000000000000000000, -0.0000000000000000000 ) ) ;
#192 =( GEOMETRIC_REPRESENTATION_CONTEXT ( 3 ) GLOBAL_UNCERTAINTY_ASSIGNED_CONTEXT ( ( #136 ) ) GLOBAL_UNIT_ASSIGNED_CONTEXT ( ( #101, #7, #178 ) ) REPRESENTATION_CONTEXT ( 'NONE', 'WORKASPACE' ) );
#193 = DIRECTION ( 'NONE',  ( 0.0000000000000000000, 0.0000000000000000000, 1.000000000000000000 ) ) ;
#194 = DIRECTION ( 'NONE',  ( 0.0000000000000000000, -1.000000000000000000, 0.0000000000000000000 ) ) ;
#195 = ADVANCED_FACE ( 'NONE', ( #183 ), #10, .T. ) ;
#196 = DIRECTION ( 'NONE',  ( -0.0000000000000000000, 1.000000000000000000, -0.0000000000000000000 ) ) ;
#197 = DIRECTION ( 'NONE',  ( 0.0000000000000000000, -0.0000000000000000000, -1.000000000000000000 ) ) ;
#198 = EDGE_CURVE ( 'NONE', #242, #150, #68, .T. ) ;
#199 = DIRECTION ( 'NONE',  ( 0.0000000000000000000, 0.0000000000000000000, 1.000000000000000000 ) ) ;
#200 = APPROVAL_STATUS ( 'not_yet_approved' ) ;
#201 = ORIENTED_EDGE ( 'NONE', *, *, #211, .F. ) ;
#202 = APPLICATION_PROTOCOL_DEFINITION ( 'international standard', 'config_control_design', 1994, #28 ) ;
#203 = AXIS2_PLACEMENT_3D ( 'NONE', #163, #191, #218 ) ;
#204 = COORDINATED_UNIVERSAL_TIME_OFFSET ( 9, 0, .AHEAD. ) ;
#205 = FACE_OUTER_BOUND ( 'NONE', #241, .T. ) ;
#206 = VECTOR ( 'NONE', #248, 1000.000000000000000 ) ;
#207 = EDGE_CURVE ( 'NONE', #34, #247, #1, .T. ) ;
#208 = ORIENTED_EDGE ( 'NONE', *, *, #260, .F. ) ;
#209 = AXIS2_PLACEMENT_3D ( 'NONE', #126, #199, #288 ) ;
#210 = VERTEX_POINT ( 'NONE', #279 ) ;
#211 = EDGE_CURVE ( 'NONE', #293, #34, #156, .T. ) ;
#212 = EDGE_LOOP ( 'NONE', ( #201, #222 ) ) ;
#213 = FACE_OUTER_BOUND ( 'NONE', #15, .T. ) ;
#214 = CARTESIAN_POINT ( 'NONE',  ( 0.0000000000000000000, -21.50000000000000000, 0.0000000000000000000 ) ) ;
#215 = ORIENTED_EDGE ( 'NONE', *, *, #188, .F. ) ;
#216 = AXIS2_PLACEMENT_3D ( 'NONE', #258, #98, #282 ) ;
#217 = ORIENTED_EDGE ( 'NONE', *, *, #296, .T. ) ;
#218 = DIRECTION ( 'NONE',  ( 0.0000000000000000000, 0.0000000000000000000, 1.000000000000000000 ) ) ;
#219 = ORIENTED_EDGE ( 'NONE', *, *, #158, .F. ) ;
#220 = ORIENTED_EDGE ( 'NONE', *, *, #158, .T. ) ;
#221 = CARTESIAN_POINT ( 'NONE',  ( 0.0000000000000000000, 5.419203158191626457, 10.00000000000000178 ) ) ;
#222 = ORIENTED_EDGE ( 'NONE', *, *, #166, .F. ) ;
#223 = AXIS2_PLACEMENT_3D ( 'NONE', #37, #71, #272 ) ;
#224 = LOCAL_TIME ( 15, 45, 57.00000000000000000, #161 ) ;
#225 = VECTOR ( 'NONE', #160, 1000.000000000000000 ) ;
#226 = DIRECTION ( 'NONE',  ( -0.0000000000000000000, 1.000000000000000000, -0.0000000000000000000 ) ) ;
#227 = APPROVAL_ROLE ( '' ) ;
#228 = DATE_AND_TIME ( #187, #295 ) ;
#229 = MECHANICAL_CONTEXT ( 'NONE', #259, 'mechanical' ) ;
#230 = PRODUCT_DEFINITION_SHAPE ( 'NONE', 'NONE',  #303 ) ;
#231 = CARTESIAN_POINT ( 'NONE',  ( 0.0000000000000000000, 0.0000000000000000000, 0.0000000000000000000 ) ) ;
#232 = ORIENTED_EDGE ( 'NONE', *, *, #211, .T. ) ;
#233 = PERSON_AND_ORGANIZATION_ROLE ( 'creator' ) ;
#234 = FACE_BOUND ( 'NONE', #304, .T. ) ;
#235 = EDGE_CURVE ( 'NONE', #321, #164, #180, .T. ) ;
#236 = CARTESIAN_POINT ( 'NONE',  ( 0.0000000000000000000, -4.000000000000000888, 5.000000000000001776 ) ) ;
#237 = LOCAL_TIME ( 15, 45, 57.00000000000000000, #110 ) ;
#238 = AXIS2_PLACEMENT_3D ( 'NONE', #244, #299, #137 ) ;
#239 = APPROVAL_STATUS ( 'not_yet_approved' ) ;
#240 = CYLINDRICAL_SURFACE ( 'NONE', #265, 2.500000000000000000 ) ;
#241 = EDGE_LOOP ( 'NONE', ( #215, #36, #306, #103 ) ) ;
#242 = VERTEX_POINT ( 'NONE', #141 ) ;
#243 = COORDINATED_UNIVERSAL_TIME_OFFSET ( 9, 0, .AHEAD. ) ;
#244 = CARTESIAN_POINT ( 'NONE',  ( 0.0000000000000000000, -11.50000000000000000, 0.0000000000000000000 ) ) ;
#245 = ORIENTED_EDGE ( 'NONE', *, *, #271, .F. ) ;
#246 = AXIS2_PLACEMENT_3D ( 'NONE', #310, #22, #168 ) ;
#247 = VERTEX_POINT ( 'NONE', #333 ) ;
#248 = DIRECTION ( 'NONE',  ( -0.0000000000000000000, 1.000000000000000000, -0.0000000000000000000 ) ) ;
#249 = PRODUCT ( 'A-1538-M5-10', 'A-1538-M5-10', '', ( #229 ) ) ;
#250 = CARTESIAN_POINT ( 'NONE',  ( 0.0000000000000000000, 5.419203158191626457, 0.0000000000000000000 ) ) ;
#251 = ADVANCED_FACE ( 'NONE', ( #63 ), #283, .T. ) ;
#252 = CARTESIAN_POINT ( 'NONE',  ( 0.0000000000000000000, -21.50000000000000000, 0.0000000000000000000 ) ) ;
#253 = VECTOR ( 'NONE', #226, 1000.000000000000000 ) ;
#254 = PLANE ( 'NONE',  #90 ) ;
#255 = ORIENTED_EDGE ( 'NONE', *, *, #269, .T. ) ;
#256 = SHAPE_DEFINITION_REPRESENTATION ( #230, #118 ) ;
#257 = CARTESIAN_POINT ( 'NONE',  ( 6.123233995736770227E-16, 5.419203158191626457, -5.000000000000002665 ) ) ;
#258 = CARTESIAN_POINT ( 'NONE',  ( 10.00000000000000178, -4.000000000000000888, 0.0000000000000000000 ) ) ;
#259 = APPLICATION_CONTEXT ( 'configuration controlled 3d designs of mechanical parts and assemblies' ) ;
#260 = EDGE_CURVE ( 'NONE', #210, #328, #262, .T. ) ;
#261 = FACE_BOUND ( 'NONE', #314, .T. ) ;
#262 = LINE ( 'NONE', #221, #206 ) ;
#263 = DIRECTION ( 'NONE',  ( 0.0000000000000000000, 0.0000000000000000000, -1.000000000000000000 ) ) ;
#264 = CARTESIAN_POINT ( 'NONE',  ( 0.0000000000000000000, -4.000000000000000888, 0.0000000000000000000 ) ) ;
#265 = AXIS2_PLACEMENT_3D ( 'NONE', #113, #335, #170 ) ;
#266 = CIRCLE ( 'NONE', #174, 2.500000000000000000 ) ;
#267 = DATE_TIME_ROLE ( 'classification_date' ) ;
#268 = LOCAL_TIME ( 15, 45, 57.00000000000000000, #184 ) ;
#269 = EDGE_CURVE ( 'NONE', #328, #150, #162, .T. ) ;
#270 = DATE_AND_TIME ( #289, #9 ) ;
#271 = EDGE_CURVE ( 'NONE', #150, #328, #77, .T. ) ;
#272 = DIRECTION ( 'NONE',  ( 0.0000000000000000000, 0.0000000000000000000, 1.000000000000000000 ) ) ;
#273 = ORIENTED_EDGE ( 'NONE', *, *, #149, .F. ) ;
#274 = ADVANCED_FACE ( 'NONE', ( #112 ), #120, .T. ) ;
#275 = DIRECTION ( 'NONE',  ( -0.0000000000000000000, 1.000000000000000000, -0.0000000000000000000 ) ) ;
#276 = DIRECTION ( 'NONE',  ( -0.0000000000000000000, 1.000000000000000000, -0.0000000000000000000 ) ) ;
#277 = CARTESIAN_POINT ( 'NONE',  ( 0.0000000000000000000, -11.50000000000000000, 2.500000000000000000 ) ) ;
#278 = AXIS2_PLACEMENT_3D ( 'NONE', #173, #78, #5 ) ;
#279 = CARTESIAN_POINT ( 'NONE',  ( 0.0000000000000000000, -4.000000000000000888, 10.00000000000000178 ) ) ;
#280 = PERSON ( 'UNSPECIFIED', 'UNSPECIFIED', 'UNSPECIFIED', ('UNSPECIFIED'), ('UNSPECIFIED'), ('UNSPECIFIED') ) ;
#281 = DIRECTION ( 'NONE',  ( 0.0000000000000000000, 0.0000000000000000000, 1.000000000000000000 ) ) ;
#282 = DIRECTION ( 'NONE',  ( 0.0000000000000000000, 0.0000000000000000000, 1.000000000000000000 ) ) ;
#283 = CYLINDRICAL_SURFACE ( 'NONE', #14, 5.000000000000002665 ) ;
#284 = DIRECTION ( 'NONE',  ( 0.0000000000000000000, 0.0000000000000000000, -1.000000000000000000 ) ) ;
#285 = CARTESIAN_POINT ( 'NONE',  ( 0.0000000000000000000, 0.0000000000000000000, 10.00000000000000178 ) ) ;
#286 = EDGE_CURVE ( 'NONE', #164, #311, #24, .T. ) ;
#287 = DIRECTION ( 'NONE',  ( 0.0000000000000000000, -1.000000000000000000, 0.0000000000000000000 ) ) ;
#288 = DIRECTION ( 'NONE',  ( 1.000000000000000000, 0.0000000000000000000, 0.0000000000000000000 ) ) ;
#289 = CALENDAR_DATE ( 2021, 1, 2 ) ;
#290 = DIRECTION ( 'NONE',  ( -0.0000000000000000000, 1.000000000000000000, -0.0000000000000000000 ) ) ;
#291 = PERSON_AND_ORGANIZATION_ROLE ( 'classification_officer' ) ;
#292 = AXIS2_PLACEMENT_3D ( 'NONE', #264, #290, #147 ) ;
#293 = VERTEX_POINT ( 'NONE', #140 ) ;
#294 = PRODUCT_RELATED_PRODUCT_CATEGORY ( 'detail', '', ( #249 ) ) ;
#295 = LOCAL_TIME ( 15, 45, 57.00000000000000000, #243 ) ;
#296 = EDGE_CURVE ( 'NONE', #179, #247, #108, .T. ) ;
#297 = PERSON_AND_ORGANIZATION ( #280, #302 ) ;
#298 = DIRECTION ( 'NONE',  ( -0.0000000000000000000, 1.000000000000000000, -0.0000000000000000000 ) ) ;
#299 = DIRECTION ( 'NONE',  ( -0.0000000000000000000, 1.000000000000000000, -0.0000000000000000000 ) ) ;
#300 = ADVANCED_FACE ( 'NONE', ( #213 ), #254, .T. ) ;
#301 = CIRCLE ( 'NONE', #238, 5.000000000000002665 ) ;
#302 = ORGANIZATION ( 'UNSPECIFIED', 'UNSPECIFIED', '' ) ;
#303 = PRODUCT_DEFINITION ( 'UNKNOWN', '', #64, #61 ) ;
#304 = EDGE_LOOP ( 'NONE', ( #175, #273 ) ) ;
#305 = DIRECTION ( 'NONE',  ( -0.0000000000000000000, 1.000000000000000000, -0.0000000000000000000 ) ) ;
#306 = ORIENTED_EDGE ( 'NONE', *, *, #286, .T. ) ;
#307 = APPROVAL_PERSON_ORGANIZATION ( #12, #82, #227 ) ;
#308 = CARTESIAN_POINT ( 'NONE',  ( 1.224646799147353454E-15, 5.419203158191626457, -10.00000000000000178 ) ) ;
#309 = CARTESIAN_POINT ( 'NONE',  ( 0.0000000000000000000, -4.000000000000000888, 0.0000000000000000000 ) ) ;
#310 = CARTESIAN_POINT ( 'NONE',  ( 5.000000000000002665, -11.50000000000000000, 0.0000000000000000000 ) ) ;
#311 = VERTEX_POINT ( 'NONE', #277 ) ;
#312 = EDGE_CURVE ( 'NONE', #247, #179, #59, .T. ) ;
#313 = APPROVAL_PERSON_ORGANIZATION ( #297, #329, #54 ) ;
#314 = EDGE_LOOP ( 'NONE', ( #217, #20 ) ) ;
#315 = DIRECTION ( 'NONE',  ( 0.0000000000000000000, -0.0000000000000000000, -1.000000000000000000 ) ) ;
#316 = EDGE_LOOP ( 'NONE', ( #220, #111, #51, #208 ) ) ;
#317 = PERSON_AND_ORGANIZATION_ROLE ( 'design_supplier' ) ;
#318 = ORIENTED_EDGE ( 'NONE', *, *, #188, .T. ) ;
#319 = CIRCLE ( 'NONE', #203, 10.00000000000000178 ) ;
#320 = CC_DESIGN_APPROVAL ( #329, ( #303 ) ) ;
#321 = VERTEX_POINT ( 'NONE', #2 ) ;
#322 = PERSON_AND_ORGANIZATION ( #280, #302 ) ;
#323 = ADVANCED_FACE ( 'NONE', ( #50 ), #106, .F. ) ;
#324 = CC_DESIGN_DATE_AND_TIME_ASSIGNMENT ( #270, #267, ( #53 ) ) ;
#325 = CYLINDRICAL_SURFACE ( 'NONE', #72, 5.000000000000002665 ) ;
#326 = EDGE_CURVE ( 'NONE', #164, #321, #266, .T. ) ;
#327 = PERSON_AND_ORGANIZATION ( #280, #302 ) ;
#328 = VERTEX_POINT ( 'NONE', #285 ) ;
#329 = APPROVAL ( #200, 'UNSPECIFIED' ) ;
#330 = CARTESIAN_POINT ( 'NONE',  ( 0.0000000000000000000, -11.50000000000000000, 0.0000000000000000000 ) ) ;
#331 = PLANE ( 'NONE',  #246 ) ;
#332 = PERSON_AND_ORGANIZATION ( #280, #302 ) ;
#333 = CARTESIAN_POINT ( 'NONE',  ( 6.123233995736769241E-16, -4.000000000000000888, -5.000000000000001776 ) ) ;
#334 = DIRECTION ( 'NONE',  ( 0.0000000000000000000, 0.0000000000000000000, 1.000000000000000000 ) ) ;
#335 = DIRECTION ( 'NONE',  ( -0.0000000000000000000, 1.000000000000000000, -0.0000000000000000000 ) ) ;
ENDSEC;
END-ISO-10303-21;
