ISO-10303-21;
HEADER;
FILE_DESCRIPTION (( 'STEP AP203' ),
    '1' );
FILE_NAME ('A-1538-M4F.STEP',
    '2021-02-01T06:32:35',
    ( '' ),
    ( '' ),
    'SwSTEP 2.0',
    'SolidWorks 2018',
    '' );
FILE_SCHEMA (( 'CONFIG_CONTROL_DESIGN' ));
ENDSEC;

DATA;
#1 = EDGE_CURVE ( 'NONE', #192, #46, #202, .T. ) ;
#2 = ADVANCED_FACE ( 'NONE', ( #70 ), #85, .T. ) ;
#3 = CIRCLE ( 'NONE', #292, 1.649999999999997469 ) ;
#4 = ADVANCED_FACE ( 'NONE', ( #227 ), #127, .F. ) ;
#5 = CARTESIAN_POINT ( 'NONE',  ( 0.0000000000000000000, 0.0000000000000000000, 8.000000000000001776 ) ) ;
#6 = CARTESIAN_POINT ( 'NONE',  ( 4.898587196589417759E-16, -9.499999999999998224, -4.000000000000003553 ) ) ;
#7 = APPROVAL ( #182, 'UNSPECIFIED' ) ;
#8 = APPROVAL_PERSON_ORGANIZATION ( #230, #240, #24 ) ;
#9 = FACE_OUTER_BOUND ( 'NONE', #226, .T. ) ;
#10 = AXIS2_PLACEMENT_3D ( 'NONE', #60, #108, #53 ) ;
#11 = CIRCLE ( 'NONE', #36, 8.000000000000001776 ) ;
#12 = LINE ( 'NONE', #221, #189 ) ;
#13 = CARTESIAN_POINT ( 'NONE',  ( 4.898587196589416773E-16, -3.500000000000000444, -4.000000000000002665 ) ) ;
#14 = CARTESIAN_POINT ( 'NONE',  ( 2.020667218593124127E-16, 0.0000000000000000000, -1.649999999999992806 ) ) ;
#15 = EDGE_LOOP ( 'NONE', ( #271, #67 ) ) ;
#16 = DIRECTION ( 'NONE',  ( 0.0000000000000000000, 0.0000000000000000000, 1.000000000000000000 ) ) ;
#17 = COORDINATED_UNIVERSAL_TIME_OFFSET ( 9, 0, .AHEAD. ) ;
#18 = DIRECTION ( 'NONE',  ( -0.0000000000000000000, 1.000000000000000000, 0.0000000000000000000 ) ) ;
#19 = DESIGN_CONTEXT ( 'detailed design', #280, 'design' ) ;
#20 = EDGE_CURVE ( 'NONE', #97, #168, #204, .T. ) ;
#21 = CLOSED_SHELL ( 'NONE', ( #77, #314, #109, #248, #224, #76, #2, #210, #4 ) ) ;
#22 = CIRCLE ( 'NONE', #133, 1.649999999999988365 ) ;
#23 = APPROVAL_ROLE ( '' ) ;
#24 = APPROVAL_ROLE ( '' ) ;
#25 = ORIENTED_EDGE ( 'NONE', *, *, #296, .F. ) ;
#26 = DIRECTION ( 'NONE',  ( 0.0000000000000000000, 0.0000000000000000000, 1.000000000000000000 ) ) ;
#27 = DATE_AND_TIME ( #95, #285 ) ;
#28 = CALENDAR_DATE ( 2021, 1, 2 ) ;
#29 = EDGE_CURVE ( 'NONE', #54, #185, #11, .T. ) ;
#30 = CARTESIAN_POINT ( 'NONE',  ( 0.0000000000000000000, 1.353234713057822322E-15, 0.0000000000000000000 ) ) ;
#31 = CC_DESIGN_SECURITY_CLASSIFICATION ( #142, ( #33 ) ) ;
#32 = AXIS2_PLACEMENT_3D ( 'NONE', #101, #98, #41 ) ;
#33 = PRODUCT_DEFINITION_FORMATION_WITH_SPECIFIED_SOURCE ( 'ANY', '', #232, .NOT_KNOWN. ) ;
#34 = DATE_AND_TIME ( #308, #72 ) ;
#35 = ORIENTED_EDGE ( 'NONE', *, *, #300, .T. ) ;
#36 = AXIS2_PLACEMENT_3D ( 'NONE', #115, #146, #255 ) ;
#37 = CARTESIAN_POINT ( 'NONE',  ( 0.0000000000000000000, 0.0000000000000000000, 0.0000000000000000000 ) ) ;
#38 = CC_DESIGN_APPROVAL ( #178, ( #33 ) ) ;
#39 = ORIENTED_EDGE ( 'NONE', *, *, #300, .F. ) ;
#40 = ORIENTED_EDGE ( 'NONE', *, *, #239, .F. ) ;
#41 = DIRECTION ( 'NONE',  ( 1.000000000000000000, 0.0000000000000000000, 0.0000000000000000000 ) ) ;
#42 = DATE_AND_TIME ( #195, #249 ) ;
#43 = COORDINATED_UNIVERSAL_TIME_OFFSET ( 9, 0, .AHEAD. ) ;
#44 = MECHANICAL_CONTEXT ( 'NONE', #208, 'mechanical' ) ;
#45 = EDGE_CURVE ( 'NONE', #310, #183, #157, .T. ) ;
#46 = VERTEX_POINT ( 'NONE', #228 ) ;
#47 = DATE_AND_TIME ( #28, #96 ) ;
#48 = ORIENTED_EDGE ( 'NONE', *, *, #20, .T. ) ;
#49 = APPROVAL_STATUS ( 'not_yet_approved' ) ;
#50 = FACE_OUTER_BOUND ( 'NONE', #15, .T. ) ;
#51 = CC_DESIGN_PERSON_AND_ORGANIZATION_ASSIGNMENT ( #263, #243, ( #33 ) ) ;
#52 = DATE_TIME_ROLE ( 'creation_date' ) ;
#53 = DIRECTION ( 'NONE',  ( 0.0000000000000000000, 0.0000000000000000000, 1.000000000000000000 ) ) ;
#54 = VERTEX_POINT ( 'NONE', #257 ) ;
#55 = FACE_OUTER_BOUND ( 'NONE', #165, .T. ) ;
#56 = DIRECTION ( 'NONE',  ( 0.0000000000000000000, 0.0000000000000000000, 1.000000000000000000 ) ) ;
#57 = PERSON_AND_ORGANIZATION ( #298, #272 ) ;
#58 = CARTESIAN_POINT ( 'NONE',  ( 2.020667218593129304E-16, -9.499999999999998224, -1.649999999999997247 ) ) ;
#59 = AXIS2_PLACEMENT_3D ( 'NONE', #287, #288, #92 ) ;
#60 = CARTESIAN_POINT ( 'NONE',  ( 0.0000000000000000000, 5.419203158191626457, 0.0000000000000000000 ) ) ;
#61 = CC_DESIGN_PERSON_AND_ORGANIZATION_ASSIGNMENT ( #290, #130, ( #142 ) ) ;
#62 = AXIS2_PLACEMENT_3D ( 'NONE', #152, #138, #110 ) ;
#63 = ORIENTED_EDGE ( 'NONE', *, *, #45, .T. ) ;
#64 = ORIENTED_EDGE ( 'NONE', *, *, #141, .F. ) ;
#65 = AXIS2_PLACEMENT_3D ( 'NONE', #277, #18, #233 ) ;
#66 = CARTESIAN_POINT ( 'NONE',  ( 9.797174393178827630E-16, 5.419203158191626457, -8.000000000000001776 ) ) ;
#67 = ORIENTED_EDGE ( 'NONE', *, *, #239, .T. ) ;
#68 = CARTESIAN_POINT ( 'NONE',  ( 0.0000000000000000000, 0.0000000000000000000, 1.649999999999992806 ) ) ;
#69 = FACE_OUTER_BOUND ( 'NONE', #179, .T. ) ;
#70 = FACE_OUTER_BOUND ( 'NONE', #316, .T. ) ;
#71 = PERSON_AND_ORGANIZATION_ROLE ( 'design_owner' ) ;
#72 = LOCAL_TIME ( 15, 32, 35.00000000000000000, #43 ) ;
#73 = PRODUCT_RELATED_PRODUCT_CATEGORY ( 'detail', '', ( #232 ) ) ;
#74 = LINE ( 'NONE', #313, #279 ) ;
#75 = APPROVAL_ROLE ( '' ) ;
#76 = ADVANCED_FACE ( 'NONE', ( #55, #209 ), #169, .F. ) ;
#77 = ADVANCED_FACE ( 'NONE', ( #143 ), #261, .F. ) ;
#78 = EDGE_LOOP ( 'NONE', ( #181, #25 ) ) ;
#79 = CARTESIAN_POINT ( 'NONE',  ( 4.000000000000003553, -9.500000000000000000, 0.0000000000000000000 ) ) ;
#80 = DIRECTION ( 'NONE',  ( -0.0000000000000000000, 1.000000000000000000, -0.0000000000000000000 ) ) ;
#81 = DIRECTION ( 'NONE',  ( -0.0000000000000000000, 1.000000000000000000, -0.0000000000000000000 ) ) ;
#82 = CIRCLE ( 'NONE', #88, 1.649999999999988365 ) ;
#83 = ORIENTED_EDGE ( 'NONE', *, *, #283, .F. ) ;
#84 = EDGE_CURVE ( 'NONE', #192, #97, #320, .T. ) ;
#85 = CYLINDRICAL_SURFACE ( 'NONE', #216, 4.000000000000003553 ) ;
#86 = PERSON_AND_ORGANIZATION ( #298, #272 ) ;
#87 = COORDINATED_UNIVERSAL_TIME_OFFSET ( 9, 0, .AHEAD. ) ;
#88 = AXIS2_PLACEMENT_3D ( 'NONE', #30, #134, #191 ) ;
#89 = DIRECTION ( 'NONE',  ( -0.0000000000000000000, 1.000000000000000000, -0.0000000000000000000 ) ) ;
#90 = DIRECTION ( 'NONE',  ( 0.0000000000000000000, 0.0000000000000000000, 1.000000000000000000 ) ) ;
#91 = CIRCLE ( 'NONE', #59, 8.000000000000001776 ) ;
#92 = DIRECTION ( 'NONE',  ( 0.0000000000000000000, 0.0000000000000000000, 1.000000000000000000 ) ) ;
#93 = ORIENTED_EDGE ( 'NONE', *, *, #84, .F. ) ;
#94 = AXIS2_PLACEMENT_3D ( 'NONE', #267, #145, #171 ) ;
#95 = CALENDAR_DATE ( 2021, 1, 2 ) ;
#96 = LOCAL_TIME ( 15, 32, 35.00000000000000000, #87 ) ;
#97 = VERTEX_POINT ( 'NONE', #122 ) ;
#98 = DIRECTION ( 'NONE',  ( 0.0000000000000000000, 0.0000000000000000000, 1.000000000000000000 ) ) ;
#99 = ORIENTED_EDGE ( 'NONE', *, *, #283, .T. ) ;
#100 = ORIENTED_EDGE ( 'NONE', *, *, #328, .T. ) ;
#101 = CARTESIAN_POINT ( 'NONE',  ( 0.0000000000000000000, 0.0000000000000000000, 0.0000000000000000000 ) ) ;
#102 = COORDINATED_UNIVERSAL_TIME_OFFSET ( 9, 0, .AHEAD. ) ;
#103 = DIRECTION ( 'NONE',  ( -0.0000000000000000000, 1.000000000000000000, -0.0000000000000000000 ) ) ;
#104 = DIRECTION ( 'NONE',  ( 0.0000000000000000000, 0.0000000000000000000, 1.000000000000000000 ) ) ;
#105 = AXIS2_PLACEMENT_3D ( 'NONE', #161, #311, #56 ) ;
#106 = ORIENTED_EDGE ( 'NONE', *, *, #180, .F. ) ;
#107 = EDGE_LOOP ( 'NONE', ( #217, #35, #116, #64 ) ) ;
#108 = DIRECTION ( 'NONE',  ( -0.0000000000000000000, 1.000000000000000000, -0.0000000000000000000 ) ) ;
#109 = ADVANCED_FACE ( 'NONE', ( #203 ), #269, .T. ) ;
#110 = DIRECTION ( 'NONE',  ( 0.0000000000000000000, 0.0000000000000000000, 1.000000000000000000 ) ) ;
#111 =( GEOMETRIC_REPRESENTATION_CONTEXT ( 3 ) GLOBAL_UNCERTAINTY_ASSIGNED_CONTEXT ( ( #213 ) ) GLOBAL_UNIT_ASSIGNED_CONTEXT ( ( #327, #177, #190 ) ) REPRESENTATION_CONTEXT ( 'NONE', 'WORKASPACE' ) );
#112 = ORIENTED_EDGE ( 'NONE', *, *, #184, .F. ) ;
#113 = APPROVAL_PERSON_ORGANIZATION ( #291, #7, #23 ) ;
#114 = ORIENTED_EDGE ( 'NONE', *, *, #184, .T. ) ;
#115 = CARTESIAN_POINT ( 'NONE',  ( 0.0000000000000000000, -3.500000000000000444, 0.0000000000000000000 ) ) ;
#116 = ORIENTED_EDGE ( 'NONE', *, *, #309, .F. ) ;
#117 = ORIENTED_EDGE ( 'NONE', *, *, #205, .F. ) ;
#118 = AXIS2_PLACEMENT_3D ( 'NONE', #139, #315, #160 ) ;
#119 = CARTESIAN_POINT ( 'NONE',  ( 0.0000000000000000000, 5.419203158191626457, 0.0000000000000000000 ) ) ;
#120 = APPROVAL_DATE_TIME ( #131, #240 ) ;
#121 = EDGE_CURVE ( 'NONE', #168, #46, #82, .T. ) ;
#122 = CARTESIAN_POINT ( 'NONE',  ( 0.0000000000000000000, -9.499999999999998224, 1.649999999999997469 ) ) ;
#123 = DIRECTION ( 'NONE',  ( -0.0000000000000000000, 1.000000000000000000, -0.0000000000000000000 ) ) ;
#124 = CARTESIAN_POINT ( 'NONE',  ( 0.0000000000000000000, 5.419203158191626457, 0.0000000000000000000 ) ) ;
#125 = ORIENTED_EDGE ( 'NONE', *, *, #175, .F. ) ;
#126 = DIRECTION ( 'NONE',  ( 0.0000000000000000000, 0.0000000000000000000, 1.000000000000000000 ) ) ;
#127 = CYLINDRICAL_SURFACE ( 'NONE', #304, 1.649999999999992806 ) ;
#128 = AXIS2_PLACEMENT_3D ( 'NONE', #246, #103, #264 ) ;
#129 = ORIENTED_EDGE ( 'NONE', *, *, #175, .T. ) ;
#130 = PERSON_AND_ORGANIZATION_ROLE ( 'classification_officer' ) ;
#131 = DATE_AND_TIME ( #274, #244 ) ;
#132 = DIRECTION ( 'NONE',  ( 0.0000000000000000000, 0.0000000000000000000, 1.000000000000000000 ) ) ;
#133 = AXIS2_PLACEMENT_3D ( 'NONE', #256, #123, #132 ) ;
#134 = DIRECTION ( 'NONE',  ( -0.0000000000000000000, 1.000000000000000000, -0.0000000000000000000 ) ) ;
#135 = ORIENTED_EDGE ( 'NONE', *, *, #20, .F. ) ;
#136 = DIRECTION ( 'NONE',  ( 0.0000000000000000000, 0.0000000000000000000, 1.000000000000000000 ) ) ;
#137 = CYLINDRICAL_SURFACE ( 'NONE', #307, 4.000000000000003553 ) ;
#138 = DIRECTION ( 'NONE',  ( -0.0000000000000000000, 1.000000000000000000, -0.0000000000000000000 ) ) ;
#139 = CARTESIAN_POINT ( 'NONE',  ( 0.0000000000000000000, -3.500000000000000444, 0.0000000000000000000 ) ) ;
#140 = AXIS2_PLACEMENT_3D ( 'NONE', #79, #268, #250 ) ;
#141 = EDGE_CURVE ( 'NONE', #185, #197, #74, .T. ) ;
#142 = SECURITY_CLASSIFICATION ( '', '', #187 ) ;
#143 = FACE_OUTER_BOUND ( 'NONE', #251, .T. ) ;
#144 = CIRCLE ( 'NONE', #118, 8.000000000000001776 ) ;
#145 = DIRECTION ( 'NONE',  ( 0.0000000000000000000, -1.000000000000000000, 0.0000000000000000000 ) ) ;
#146 = DIRECTION ( 'NONE',  ( -0.0000000000000000000, 1.000000000000000000, -0.0000000000000000000 ) ) ;
#147 = CIRCLE ( 'NONE', #105, 4.000000000000002665 ) ;
#148 = DIRECTION ( 'NONE',  ( -0.0000000000000000000, 1.000000000000000000, -0.0000000000000000000 ) ) ;
#149 = CC_DESIGN_PERSON_AND_ORGANIZATION_ASSIGNMENT ( #318, #71, ( #232 ) ) ;
#150 = DIRECTION ( 'NONE',  ( -0.0000000000000000000, 1.000000000000000000, -0.0000000000000000000 ) ) ;
#151 = DIRECTION ( 'NONE',  ( 0.0000000000000000000, 0.0000000000000000000, 1.000000000000000000 ) ) ;
#152 = CARTESIAN_POINT ( 'NONE',  ( 0.0000000000000000000, -9.499999999999998224, 0.0000000000000000000 ) ) ;
#153 = CIRCLE ( 'NONE', #278, 4.000000000000003553 ) ;
#154 = CC_DESIGN_APPROVAL ( #7, ( #325 ) ) ;
#155 = CARTESIAN_POINT ( 'NONE',  ( 0.0000000000000000000, -9.499999999999998224, 0.0000000000000000000 ) ) ;
#156 = APPROVAL_STATUS ( 'not_yet_approved' ) ;
#157 = CIRCLE ( 'NONE', #200, 4.000000000000002665 ) ;
#158 = APPROVAL_DATE_TIME ( #27, #178 ) ;
#159 = LINE ( 'NONE', #284, #199 ) ;
#160 = DIRECTION ( 'NONE',  ( 0.0000000000000000000, 0.0000000000000000000, 1.000000000000000000 ) ) ;
#161 = CARTESIAN_POINT ( 'NONE',  ( 0.0000000000000000000, -3.500000000000000444, 0.0000000000000000000 ) ) ;
#162 = CARTESIAN_POINT ( 'NONE',  ( 0.0000000000000000000, -3.500000000000000444, 8.000000000000001776 ) ) ;
#163 = CC_DESIGN_DATE_AND_TIME_ASSIGNMENT ( #42, #282, ( #142 ) ) ;
#164 = VERTEX_POINT ( 'NONE', #6 ) ;
#165 = EDGE_LOOP ( 'NONE', ( #106, #295 ) ) ;
#166 = PERSON_AND_ORGANIZATION ( #298, #272 ) ;
#167 = EDGE_CURVE ( 'NONE', #231, #164, #153, .T. ) ;
#168 = VERTEX_POINT ( 'NONE', #289 ) ;
#169 = PLANE ( 'NONE',  #65 ) ;
#170 = CC_DESIGN_PERSON_AND_ORGANIZATION_ASSIGNMENT ( #166, #306, ( #325 ) ) ;
#171 = DIRECTION ( 'NONE',  ( 0.0000000000000000000, -0.0000000000000000000, -1.000000000000000000 ) ) ;
#172 = ORIENTED_EDGE ( 'NONE', *, *, #296, .T. ) ;
#173 = DIRECTION ( 'NONE',  ( 0.0000000000000000000, 0.0000000000000000000, 1.000000000000000000 ) ) ;
#174 = DIRECTION ( 'NONE',  ( -0.0000000000000000000, 1.000000000000000000, -0.0000000000000000000 ) ) ;
#175 = EDGE_CURVE ( 'NONE', #231, #183, #12, .T. ) ;
#176 = CARTESIAN_POINT ( 'NONE',  ( 0.0000000000000000000, -3.500000000000000444, 0.0000000000000000000 ) ) ;
#177 =( NAMED_UNIT ( * ) PLANE_ANGLE_UNIT ( ) SI_UNIT ( $, .RADIAN. ) );
#178 = APPROVAL ( #49, 'UNSPECIFIED' ) ;
#179 = EDGE_LOOP ( 'NONE', ( #324, #99, #112, #125 ) ) ;
#180 = EDGE_CURVE ( 'NONE', #185, #54, #144, .T. ) ;
#181 = ORIENTED_EDGE ( 'NONE', *, *, #121, .F. ) ;
#182 = APPROVAL_STATUS ( 'not_yet_approved' ) ;
#183 = VERTEX_POINT ( 'NONE', #196 ) ;
#184 = EDGE_CURVE ( 'NONE', #183, #310, #147, .T. ) ;
#185 = VERTEX_POINT ( 'NONE', #162 ) ;
#186 = MANIFOLD_SOLID_BREP ( 'M4x0.7 ‚Ë‚¶ŒŠ1', #21 ) ;
#187 = SECURITY_CLASSIFICATION_LEVEL ( 'unclassified' ) ;
#188 = SHAPE_DEFINITION_REPRESENTATION ( #212, #294 ) ;
#189 = VECTOR ( 'NONE', #80, 1000.000000000000000 ) ;
#190 =( NAMED_UNIT ( * ) SI_UNIT ( $, .STERADIAN. ) SOLID_ANGLE_UNIT ( ) );
#191 = DIRECTION ( 'NONE',  ( 0.0000000000000000000, 0.0000000000000000000, 1.000000000000000000 ) ) ;
#192 = VERTEX_POINT ( 'NONE', #58 ) ;
#193 = DIRECTION ( 'NONE',  ( -0.0000000000000000000, 1.000000000000000000, -0.0000000000000000000 ) ) ;
#194 = CARTESIAN_POINT ( 'NONE',  ( 0.0000000000000000000, -9.499999999999998224, 0.0000000000000000000 ) ) ;
#195 = CALENDAR_DATE ( 2021, 1, 2 ) ;
#196 = CARTESIAN_POINT ( 'NONE',  ( 0.0000000000000000000, -3.500000000000000444, 4.000000000000002665 ) ) ;
#197 = VERTEX_POINT ( 'NONE', #5 ) ;
#198 = EDGE_LOOP ( 'NONE', ( #100, #222 ) ) ;
#199 = VECTOR ( 'NONE', #81, 1000.000000000000000 ) ;
#200 = AXIS2_PLACEMENT_3D ( 'NONE', #176, #206, #259 ) ;
#201 = VERTEX_POINT ( 'NONE', #270 ) ;
#202 = LINE ( 'NONE', #14, #293 ) ;
#203 = FACE_OUTER_BOUND ( 'NONE', #107, .T. ) ;
#204 = LINE ( 'NONE', #68, #234 ) ;
#205 = EDGE_CURVE ( 'NONE', #164, #231, #258, .T. ) ;
#206 = DIRECTION ( 'NONE',  ( -0.0000000000000000000, 1.000000000000000000, -0.0000000000000000000 ) ) ;
#207 = APPLICATION_PROTOCOL_DEFINITION ( 'international standard', 'config_control_design', 1994, #280 ) ;
#208 = APPLICATION_CONTEXT ( 'configuration controlled 3d designs of mechanical parts and assemblies' ) ;
#209 = FACE_BOUND ( 'NONE', #260, .T. ) ;
#210 = ADVANCED_FACE ( 'NONE', ( #237, #219 ), #223, .F. ) ;
#211 = CC_DESIGN_APPROVAL ( #240, ( #142 ) ) ;
#212 = PRODUCT_DEFINITION_SHAPE ( 'NONE', 'NONE',  #325 ) ;
#213 = UNCERTAINTY_MEASURE_WITH_UNIT (LENGTH_MEASURE( 1.000000000000000082E-05 ), #327, 'distance_accuracy_value', 'NONE');
#214 = CIRCLE ( 'NONE', #236, 8.000000000000001776 ) ;
#215 = PLANE ( 'NONE',  #94 ) ;
#216 = AXIS2_PLACEMENT_3D ( 'NONE', #119, #297, #90 ) ;
#217 = ORIENTED_EDGE ( 'NONE', *, *, #180, .T. ) ;
#218 = CARTESIAN_POINT ( 'NONE',  ( 0.0000000000000000000, -9.499999999999998224, 4.000000000000003553 ) ) ;
#219 = FACE_OUTER_BOUND ( 'NONE', #281, .T. ) ;
#220 = CC_DESIGN_DATE_AND_TIME_ASSIGNMENT ( #47, #52, ( #325 ) ) ;
#221 = CARTESIAN_POINT ( 'NONE',  ( 0.0000000000000000000, 5.419203158191626457, 4.000000000000003553 ) ) ;
#222 = ORIENTED_EDGE ( 'NONE', *, *, #84, .T. ) ;
#223 = PLANE ( 'NONE',  #140 ) ;
#224 = ADVANCED_FACE ( 'NONE', ( #9 ), #225, .T. ) ;
#225 = CYLINDRICAL_SURFACE ( 'NONE', #10, 8.000000000000001776 ) ;
#226 = EDGE_LOOP ( 'NONE', ( #39, #312, #265, #40 ) ) ;
#227 = FACE_OUTER_BOUND ( 'NONE', #266, .T. ) ;
#228 = CARTESIAN_POINT ( 'NONE',  ( 2.020667218593121415E-16, 1.353234713057822322E-15, -1.649999999999988365 ) ) ;
#229 = DIRECTION ( 'NONE',  ( -0.0000000000000000000, 1.000000000000000000, -0.0000000000000000000 ) ) ;
#230 = PERSON_AND_ORGANIZATION ( #298, #272 ) ;
#231 = VERTEX_POINT ( 'NONE', #218 ) ;
#232 = PRODUCT ( 'A-1538-M4F', 'A-1538-M4F', '', ( #44 ) ) ;
#233 = DIRECTION ( 'NONE',  ( 0.0000000000000000000, 0.0000000000000000000, 1.000000000000000000 ) ) ;
#234 = VECTOR ( 'NONE', #273, 1000.000000000000000 ) ;
#235 = APPROVAL_PERSON_ORGANIZATION ( #57, #178, #75 ) ;
#236 = AXIS2_PLACEMENT_3D ( 'NONE', #242, #174, #126 ) ;
#237 = FACE_BOUND ( 'NONE', #198, .T. ) ;
#238 = APPLICATION_PROTOCOL_DEFINITION ( 'international standard', 'config_control_design', 1994, #208 ) ;
#239 = EDGE_CURVE ( 'NONE', #201, #197, #91, .T. ) ;
#240 = APPROVAL ( #156, 'UNSPECIFIED' ) ;
#241 = ORIENTED_EDGE ( 'NONE', *, *, #121, .T. ) ;
#242 = CARTESIAN_POINT ( 'NONE',  ( 0.0000000000000000000, 0.0000000000000000000, 0.0000000000000000000 ) ) ;
#243 = PERSON_AND_ORGANIZATION_ROLE ( 'design_supplier' ) ;
#244 = LOCAL_TIME ( 15, 32, 35.00000000000000000, #102 ) ;
#245 = APPROVAL_DATE_TIME ( #34, #7 ) ;
#246 = CARTESIAN_POINT ( 'NONE',  ( 0.0000000000000000000, -9.499999999999998224, 0.0000000000000000000 ) ) ;
#247 = DIRECTION ( 'NONE',  ( -0.0000000000000000000, 1.000000000000000000, -0.0000000000000000000 ) ) ;
#248 = ADVANCED_FACE ( 'NONE', ( #275, #50 ), #215, .F. ) ;
#249 = LOCAL_TIME ( 15, 32, 35.00000000000000000, #254 ) ;
#250 = DIRECTION ( 'NONE',  ( 0.0000000000000000000, 0.0000000000000000000, 1.000000000000000000 ) ) ;
#251 = EDGE_LOOP ( 'NONE', ( #93, #252, #172, #135 ) ) ;
#252 = ORIENTED_EDGE ( 'NONE', *, *, #1, .T. ) ;
#253 = AXIS2_PLACEMENT_3D ( 'NONE', #323, #150, #16 ) ;
#254 = COORDINATED_UNIVERSAL_TIME_OFFSET ( 9, 0, .AHEAD. ) ;
#255 = DIRECTION ( 'NONE',  ( 0.0000000000000000000, 0.0000000000000000000, 1.000000000000000000 ) ) ;
#256 = CARTESIAN_POINT ( 'NONE',  ( 0.0000000000000000000, 1.353234713057822322E-15, 0.0000000000000000000 ) ) ;
#257 = CARTESIAN_POINT ( 'NONE',  ( 9.797174393178827630E-16, -3.500000000000000444, -8.000000000000001776 ) ) ;
#258 = CIRCLE ( 'NONE', #128, 4.000000000000003553 ) ;
#259 = DIRECTION ( 'NONE',  ( 0.0000000000000000000, 0.0000000000000000000, 1.000000000000000000 ) ) ;
#260 = EDGE_LOOP ( 'NONE', ( #114, #63 ) ) ;
#261 = CYLINDRICAL_SURFACE ( 'NONE', #253, 1.649999999999992806 ) ;
#262 = PERSON_AND_ORGANIZATION_ROLE ( 'creator' ) ;
#263 = PERSON_AND_ORGANIZATION ( #298, #272 ) ;
#264 = DIRECTION ( 'NONE',  ( 0.0000000000000000000, 0.0000000000000000000, 1.000000000000000000 ) ) ;
#265 = ORIENTED_EDGE ( 'NONE', *, *, #141, .T. ) ;
#266 = EDGE_LOOP ( 'NONE', ( #305, #303, #48, #241 ) ) ;
#267 = CARTESIAN_POINT ( 'NONE',  ( 0.0000000000000000000, 0.0000000000000000000, 0.0000000000000000000 ) ) ;
#268 = DIRECTION ( 'NONE',  ( -0.0000000000000000000, 1.000000000000000000, 0.0000000000000000000 ) ) ;
#269 = CYLINDRICAL_SURFACE ( 'NONE', #322, 8.000000000000001776 ) ;
#270 = CARTESIAN_POINT ( 'NONE',  ( 9.797174393178827630E-16, 0.0000000000000000000, -8.000000000000001776 ) ) ;
#271 = ORIENTED_EDGE ( 'NONE', *, *, #309, .T. ) ;
#272 = ORGANIZATION ( 'UNSPECIFIED', 'UNSPECIFIED', '' ) ;
#273 = DIRECTION ( 'NONE',  ( -0.0000000000000000000, 1.000000000000000000, -0.0000000000000000000 ) ) ;
#274 = CALENDAR_DATE ( 2021, 1, 2 ) ;
#275 = FACE_BOUND ( 'NONE', #78, .T. ) ;
#276 = CARTESIAN_POINT ( 'NONE',  ( 0.0000000000000000000, 5.419203158191626457, 0.0000000000000000000 ) ) ;
#277 = CARTESIAN_POINT ( 'NONE',  ( 8.000000000000001776, -3.500000000000000444, 0.0000000000000000000 ) ) ;
#278 = AXIS2_PLACEMENT_3D ( 'NONE', #194, #193, #136 ) ;
#279 = VECTOR ( 'NONE', #247, 1000.000000000000000 ) ;
#280 = APPLICATION_CONTEXT ( 'configuration controlled 3d designs of mechanical parts and assemblies' ) ;
#281 = EDGE_LOOP ( 'NONE', ( #317, #117 ) ) ;
#282 = DATE_TIME_ROLE ( 'classification_date' ) ;
#283 = EDGE_CURVE ( 'NONE', #164, #310, #159, .T. ) ;
#284 = CARTESIAN_POINT ( 'NONE',  ( 4.898587196589417759E-16, 5.419203158191626457, -4.000000000000003553 ) ) ;
#285 = LOCAL_TIME ( 15, 32, 35.00000000000000000, #17 ) ;
#286 = LINE ( 'NONE', #66, #321 ) ;
#287 = CARTESIAN_POINT ( 'NONE',  ( 0.0000000000000000000, 0.0000000000000000000, 0.0000000000000000000 ) ) ;
#288 = DIRECTION ( 'NONE',  ( -0.0000000000000000000, 1.000000000000000000, -0.0000000000000000000 ) ) ;
#289 = CARTESIAN_POINT ( 'NONE',  ( 0.0000000000000000000, 1.353234713057822322E-15, 1.649999999999988365 ) ) ;
#290 = PERSON_AND_ORGANIZATION ( #298, #272 ) ;
#291 = PERSON_AND_ORGANIZATION ( #298, #272 ) ;
#292 = AXIS2_PLACEMENT_3D ( 'NONE', #155, #302, #26 ) ;
#293 = VECTOR ( 'NONE', #148, 1000.000000000000000 ) ;
#294 = ADVANCED_BREP_SHAPE_REPRESENTATION ( 'A-1538-M4F', ( #186, #32 ), #111 ) ;
#295 = ORIENTED_EDGE ( 'NONE', *, *, #29, .F. ) ;
#296 = EDGE_CURVE ( 'NONE', #46, #168, #22, .T. ) ;
#297 = DIRECTION ( 'NONE',  ( -0.0000000000000000000, 1.000000000000000000, -0.0000000000000000000 ) ) ;
#298 = PERSON ( 'UNSPECIFIED', 'UNSPECIFIED', 'UNSPECIFIED', ('UNSPECIFIED'), ('UNSPECIFIED'), ('UNSPECIFIED') ) ;
#299 = DIRECTION ( 'NONE',  ( -0.0000000000000000000, 1.000000000000000000, -0.0000000000000000000 ) ) ;
#300 = EDGE_CURVE ( 'NONE', #54, #201, #286, .T. ) ;
#301 = DIRECTION ( 'NONE',  ( -0.0000000000000000000, 1.000000000000000000, -0.0000000000000000000 ) ) ;
#302 = DIRECTION ( 'NONE',  ( -0.0000000000000000000, 1.000000000000000000, -0.0000000000000000000 ) ) ;
#303 = ORIENTED_EDGE ( 'NONE', *, *, #328, .F. ) ;
#304 = AXIS2_PLACEMENT_3D ( 'NONE', #37, #89, #173 ) ;
#305 = ORIENTED_EDGE ( 'NONE', *, *, #1, .F. ) ;
#306 = PERSON_AND_ORGANIZATION_ROLE ( 'creator' ) ;
#307 = AXIS2_PLACEMENT_3D ( 'NONE', #276, #299, #151 ) ;
#308 = CALENDAR_DATE ( 2021, 1, 2 ) ;
#309 = EDGE_CURVE ( 'NONE', #197, #201, #214, .T. ) ;
#310 = VERTEX_POINT ( 'NONE', #13 ) ;
#311 = DIRECTION ( 'NONE',  ( -0.0000000000000000000, 1.000000000000000000, -0.0000000000000000000 ) ) ;
#312 = ORIENTED_EDGE ( 'NONE', *, *, #29, .T. ) ;
#313 = CARTESIAN_POINT ( 'NONE',  ( 0.0000000000000000000, 5.419203158191626457, 8.000000000000001776 ) ) ;
#314 = ADVANCED_FACE ( 'NONE', ( #69 ), #137, .T. ) ;
#315 = DIRECTION ( 'NONE',  ( -0.0000000000000000000, 1.000000000000000000, -0.0000000000000000000 ) ) ;
#316 = EDGE_LOOP ( 'NONE', ( #83, #326, #129, #319 ) ) ;
#317 = ORIENTED_EDGE ( 'NONE', *, *, #167, .F. ) ;
#318 = PERSON_AND_ORGANIZATION ( #298, #272 ) ;
#319 = ORIENTED_EDGE ( 'NONE', *, *, #45, .F. ) ;
#320 = CIRCLE ( 'NONE', #62, 1.649999999999997469 ) ;
#321 = VECTOR ( 'NONE', #229, 1000.000000000000000 ) ;
#322 = AXIS2_PLACEMENT_3D ( 'NONE', #124, #301, #104 ) ;
#323 = CARTESIAN_POINT ( 'NONE',  ( 0.0000000000000000000, 0.0000000000000000000, 0.0000000000000000000 ) ) ;
#324 = ORIENTED_EDGE ( 'NONE', *, *, #167, .T. ) ;
#325 = PRODUCT_DEFINITION ( 'UNKNOWN', '', #33, #19 ) ;
#326 = ORIENTED_EDGE ( 'NONE', *, *, #205, .T. ) ;
#327 =( LENGTH_UNIT ( ) NAMED_UNIT ( * ) SI_UNIT ( .MILLI., .METRE. ) );
#328 = EDGE_CURVE ( 'NONE', #97, #192, #3, .T. ) ;
#329 = CC_DESIGN_PERSON_AND_ORGANIZATION_ASSIGNMENT ( #86, #262, ( #33 ) ) ;
ENDSEC;
END-ISO-10303-21;
