ISO-10303-21;
HEADER;
FILE_DESCRIPTION (( 'STEP AP203' ),
    '1' );
FILE_NAME ('A-1538-M4-10.STEP',
    '2021-02-01T06:31:11',
    ( '' ),
    ( '' ),
    'SwSTEP 2.0',
    'SolidWorks 2018',
    '' );
FILE_SCHEMA (( 'CONFIG_CONTROL_DESIGN' ));
ENDSEC;

DATA;
#1 = DIRECTION ( 'NONE',  ( 0.0000000000000000000, 0.0000000000000000000, 1.000000000000000000 ) ) ;
#2 = LOCAL_TIME ( 15, 31, 11.00000000000000000, #300 ) ;
#3 = VECTOR ( 'NONE', #149, 1000.000000000000000 ) ;
#4 = CARTESIAN_POINT ( 'NONE',  ( 0.0000000000000000000, -9.500000000000000000, 2.000000000000000000 ) ) ;
#5 = APPLICATION_CONTEXT ( 'configuration controlled 3d designs of mechanical parts and assemblies' ) ;
#6 = EDGE_LOOP ( 'NONE', ( #186, #291 ) ) ;
#7 = ORIENTED_EDGE ( 'NONE', *, *, #86, .T. ) ;
#8 = PLANE ( 'NONE',  #229 ) ;
#9 = PRODUCT_DEFINITION_FORMATION_WITH_SPECIFIED_SOURCE ( 'ANY', '', #44, .NOT_KNOWN. ) ;
#10 = DIRECTION ( 'NONE',  ( -0.0000000000000000000, 1.000000000000000000, -0.0000000000000000000 ) ) ;
#11 = DATE_AND_TIME ( #81, #137 ) ;
#12 = PERSON_AND_ORGANIZATION ( #73, #64 ) ;
#13 = ORIENTED_EDGE ( 'NONE', *, *, #325, .F. ) ;
#14 = VERTEX_POINT ( 'NONE', #273 ) ;
#15 = AXIS2_PLACEMENT_3D ( 'NONE', #242, #327, #118 ) ;
#16 = APPROVAL_DATE_TIME ( #165, #250 ) ;
#17 = APPROVAL_STATUS ( 'not_yet_approved' ) ;
#18 = CARTESIAN_POINT ( 'NONE',  ( 0.0000000000000000000, 0.0000000000000000000, 0.0000000000000000000 ) ) ;
#19 = ORIENTED_EDGE ( 'NONE', *, *, #264, .T. ) ;
#20 = APPROVAL ( #232, 'UNSPECIFIED' ) ;
#21 = SECURITY_CLASSIFICATION_LEVEL ( 'unclassified' ) ;
#22 = DIRECTION ( 'NONE',  ( -0.0000000000000000000, 1.000000000000000000, 0.0000000000000000000 ) ) ;
#23 = ADVANCED_FACE ( 'NONE', ( #47 ), #294, .F. ) ;
#24 = CARTESIAN_POINT ( 'NONE',  ( 0.0000000000000000000, -3.500000000000000444, 8.000000000000001776 ) ) ;
#25 = LINE ( 'NONE', #171, #280 ) ;
#26 = CARTESIAN_POINT ( 'NONE',  ( 4.898587196589416773E-16, -3.500000000000000444, -4.000000000000002665 ) ) ;
#27 = CC_DESIGN_PERSON_AND_ORGANIZATION_ASSIGNMENT ( #115, #98, ( #287 ) ) ;
#28 = CARTESIAN_POINT ( 'NONE',  ( 9.797174393178827630E-16, -3.500000000000000444, -8.000000000000001776 ) ) ;
#29 = CARTESIAN_POINT ( 'NONE',  ( 0.0000000000000000000, -19.50000000000000000, 0.0000000000000000000 ) ) ;
#30 = ADVANCED_FACE ( 'NONE', ( #134 ), #192, .T. ) ;
#31 = CIRCLE ( 'NONE', #139, 2.000000000000000000 ) ;
#32 = DIRECTION ( 'NONE',  ( -0.0000000000000000000, 1.000000000000000000, 0.0000000000000000000 ) ) ;
#33 = AXIS2_PLACEMENT_3D ( 'NONE', #145, #143, #194 ) ;
#34 = ORIENTED_EDGE ( 'NONE', *, *, #133, .T. ) ;
#35 = LINE ( 'NONE', #105, #41 ) ;
#36 = ORIENTED_EDGE ( 'NONE', *, *, #222, .F. ) ;
#37 = APPROVAL_PERSON_ORGANIZATION ( #318, #261, #335 ) ;
#38 = ORIENTED_EDGE ( 'NONE', *, *, #100, .T. ) ;
#39 = CC_DESIGN_PERSON_AND_ORGANIZATION_ASSIGNMENT ( #127, #301, ( #9 ) ) ;
#40 = DIRECTION ( 'NONE',  ( 0.0000000000000000000, -0.0000000000000000000, -1.000000000000000000 ) ) ;
#41 = VECTOR ( 'NONE', #303, 1000.000000000000000 ) ;
#42 = CC_DESIGN_APPROVAL ( #261, ( #287 ) ) ;
#43 = ORIENTED_EDGE ( 'NONE', *, *, #325, .T. ) ;
#44 = PRODUCT ( 'A-1538-M4-10', 'A-1538-M4-10', '', ( #158 ) ) ;
#45 = CARTESIAN_POINT ( 'NONE',  ( 0.0000000000000000000, -9.500000000000000000, 0.0000000000000000000 ) ) ;
#46 = PERSON_AND_ORGANIZATION ( #73, #64 ) ;
#47 = FACE_OUTER_BOUND ( 'NONE', #330, .T. ) ;
#48 = DIRECTION ( 'NONE',  ( -0.0000000000000000000, 1.000000000000000000, -0.0000000000000000000 ) ) ;
#49 = EDGE_LOOP ( 'NONE', ( #324, #254 ) ) ;
#50 = ADVANCED_FACE ( 'NONE', ( #263 ), #234, .T. ) ;
#51 = EDGE_CURVE ( 'NONE', #140, #177, #314, .T. ) ;
#52 = CARTESIAN_POINT ( 'NONE',  ( 0.0000000000000000000, -9.499999999999998224, 0.0000000000000000000 ) ) ;
#53 = CARTESIAN_POINT ( 'NONE',  ( 2.449293598294706414E-16, -9.500000000000000000, -2.000000000000000000 ) ) ;
#54 = ORIENTED_EDGE ( 'NONE', *, *, #179, .F. ) ;
#55 = DIRECTION ( 'NONE',  ( -0.0000000000000000000, 1.000000000000000000, -0.0000000000000000000 ) ) ;
#56 = CARTESIAN_POINT ( 'NONE',  ( 8.000000000000001776, -3.500000000000000444, 0.0000000000000000000 ) ) ;
#57 = DIRECTION ( 'NONE',  ( -0.0000000000000000000, 1.000000000000000000, -0.0000000000000000000 ) ) ;
#58 = LOCAL_TIME ( 15, 31, 11.00000000000000000, #267 ) ;
#59 = APPLICATION_PROTOCOL_DEFINITION ( 'international standard', 'config_control_design', 1994, #178 ) ;
#60 = ORIENTED_EDGE ( 'NONE', *, *, #284, .F. ) ;
#61 = DIRECTION ( 'NONE',  ( 0.0000000000000000000, -1.000000000000000000, 0.0000000000000000000 ) ) ;
#62 = CARTESIAN_POINT ( 'NONE',  ( 0.0000000000000000000, 0.0000000000000000000, 0.0000000000000000000 ) ) ;
#63 = CC_DESIGN_DATE_AND_TIME_ASSIGNMENT ( #259, #122, ( #287 ) ) ;
#64 = ORGANIZATION ( 'UNSPECIFIED', 'UNSPECIFIED', '' ) ;
#65 = ORIENTED_EDGE ( 'NONE', *, *, #188, .F. ) ;
#66 = AXIS2_PLACEMENT_3D ( 'NONE', #197, #169, #121 ) ;
#67 = CIRCLE ( 'NONE', #93, 8.000000000000001776 ) ;
#68 = ORIENTED_EDGE ( 'NONE', *, *, #210, .F. ) ;
#69 = EDGE_LOOP ( 'NONE', ( #207, #123 ) ) ;
#70 = AXIS2_PLACEMENT_3D ( 'NONE', #45, #79, #246 ) ;
#71 = EDGE_CURVE ( 'NONE', #184, #89, #110, .T. ) ;
#72 = DIRECTION ( 'NONE',  ( 0.0000000000000000000, -1.000000000000000000, 0.0000000000000000000 ) ) ;
#73 = PERSON ( 'UNSPECIFIED', 'UNSPECIFIED', 'UNSPECIFIED', ('UNSPECIFIED'), ('UNSPECIFIED'), ('UNSPECIFIED') ) ;
#74 = DIRECTION ( 'NONE',  ( -0.0000000000000000000, 1.000000000000000000, -0.0000000000000000000 ) ) ;
#75 = CARTESIAN_POINT ( 'NONE',  ( 4.000000000000003553, -9.500000000000000000, 0.0000000000000000000 ) ) ;
#76 = LINE ( 'NONE', #173, #223 ) ;
#77 = EDGE_LOOP ( 'NONE', ( #65, #187, #315, #282 ) ) ;
#78 = APPROVAL_ROLE ( '' ) ;
#79 = DIRECTION ( 'NONE',  ( 0.0000000000000000000, -1.000000000000000000, 0.0000000000000000000 ) ) ;
#80 = APPROVAL_DATE_TIME ( #228, #261 ) ;
#81 = CALENDAR_DATE ( 2021, 1, 2 ) ;
#82 = AXIS2_PLACEMENT_3D ( 'NONE', #310, #48, #249 ) ;
#83 = ADVANCED_FACE ( 'NONE', ( #328, #170 ), #270, .F. ) ;
#84 = CC_DESIGN_SECURITY_CLASSIFICATION ( #287, ( #9 ) ) ;
#85 = DIRECTION ( 'NONE',  ( 0.0000000000000000000, 0.0000000000000000000, -1.000000000000000000 ) ) ;
#86 = EDGE_CURVE ( 'NONE', #238, #150, #319, .T. ) ;
#87 = ADVANCED_FACE ( 'NONE', ( #162 ), #308, .T. ) ;
#88 = LINE ( 'NONE', #285, #112 ) ;
#89 = VERTEX_POINT ( 'NONE', #28 ) ;
#90 = DIRECTION ( 'NONE',  ( -0.0000000000000000000, 1.000000000000000000, -0.0000000000000000000 ) ) ;
#91 = FACE_OUTER_BOUND ( 'NONE', #265, .T. ) ;
#92 = ORIENTED_EDGE ( 'NONE', *, *, #179, .T. ) ;
#93 = AXIS2_PLACEMENT_3D ( 'NONE', #152, #275, #1 ) ;
#94 = COORDINATED_UNIVERSAL_TIME_OFFSET ( 9, 0, .AHEAD. ) ;
#95 = CIRCLE ( 'NONE', #312, 2.000000000000000000 ) ;
#96 = ORIENTED_EDGE ( 'NONE', *, *, #264, .F. ) ;
#97 = DIRECTION ( 'NONE',  ( -0.0000000000000000000, 1.000000000000000000, -0.0000000000000000000 ) ) ;
#98 = PERSON_AND_ORGANIZATION_ROLE ( 'classification_officer' ) ;
#99 = ORIENTED_EDGE ( 'NONE', *, *, #222, .T. ) ;
#100 = EDGE_CURVE ( 'NONE', #14, #272, #205, .T. ) ;
#101 = APPROVAL_STATUS ( 'not_yet_approved' ) ;
#102 = PERSON_AND_ORGANIZATION_ROLE ( 'creator' ) ;
#103 = ORIENTED_EDGE ( 'NONE', *, *, #316, .F. ) ;
#104 = DIRECTION ( 'NONE',  ( 0.0000000000000000000, 0.0000000000000000000, 1.000000000000000000 ) ) ;
#105 = CARTESIAN_POINT ( 'NONE',  ( 0.0000000000000000000, 5.419203158191626457, 4.000000000000003553 ) ) ;
#106 = EDGE_LOOP ( 'NONE', ( #257, #241 ) ) ;
#107 = CARTESIAN_POINT ( 'NONE',  ( 0.0000000000000000000, -9.499999999999998224, 0.0000000000000000000 ) ) ;
#108 = DIRECTION ( 'NONE',  ( -0.0000000000000000000, 1.000000000000000000, -0.0000000000000000000 ) ) ;
#109 = AXIS2_PLACEMENT_3D ( 'NONE', #18, #72, #40 ) ;
#110 = CIRCLE ( 'NONE', #214, 8.000000000000001776 ) ;
#111 = CC_DESIGN_APPROVAL ( #20, ( #292 ) ) ;
#112 = VECTOR ( 'NONE', #90, 1000.000000000000000 ) ;
#113 = EDGE_LOOP ( 'NONE', ( #146, #320, #220, #96 ) ) ;
#114 = EDGE_CURVE ( 'NONE', #14, #177, #76, .T. ) ;
#115 = PERSON_AND_ORGANIZATION ( #73, #64 ) ;
#116 = ORIENTED_EDGE ( 'NONE', *, *, #289, .T. ) ;
#117 = AXIS2_PLACEMENT_3D ( 'NONE', #107, #108, #256 ) ;
#118 = DIRECTION ( 'NONE',  ( 0.0000000000000000000, -0.0000000000000000000, -1.000000000000000000 ) ) ;
#119 = CIRCLE ( 'NONE', #167, 8.000000000000001776 ) ;
#120 = VERTEX_POINT ( 'NONE', #279 ) ;
#121 = DIRECTION ( 'NONE',  ( 0.0000000000000000000, 0.0000000000000000000, 1.000000000000000000 ) ) ;
#122 = DATE_TIME_ROLE ( 'classification_date' ) ;
#123 = ORIENTED_EDGE ( 'NONE', *, *, #298, .F. ) ;
#124 = DATE_TIME_ROLE ( 'creation_date' ) ;
#125 = DIRECTION ( 'NONE',  ( 0.0000000000000000000, 0.0000000000000000000, 1.000000000000000000 ) ) ;
#126 = DIRECTION ( 'NONE',  ( -0.0000000000000000000, 1.000000000000000000, -0.0000000000000000000 ) ) ;
#127 = PERSON_AND_ORGANIZATION ( #73, #64 ) ;
#128 = CC_DESIGN_DATE_AND_TIME_ASSIGNMENT ( #288, #124, ( #292 ) ) ;
#129 = FACE_OUTER_BOUND ( 'NONE', #113, .T. ) ;
#130 = EDGE_LOOP ( 'NONE', ( #68, #103, #191, #7 ) ) ;
#131 = DIRECTION ( 'NONE',  ( 0.0000000000000000000, -1.000000000000000000, 0.0000000000000000000 ) ) ;
#132 =( LENGTH_UNIT ( ) NAMED_UNIT ( * ) SI_UNIT ( .MILLI., .METRE. ) );
#133 = EDGE_CURVE ( 'NONE', #89, #184, #67, .T. ) ;
#134 = FACE_OUTER_BOUND ( 'NONE', #6, .T. ) ;
#135 = DIRECTION ( 'NONE',  ( -0.0000000000000000000, 1.000000000000000000, -0.0000000000000000000 ) ) ;
#136 = PERSON_AND_ORGANIZATION ( #73, #64 ) ;
#137 = LOCAL_TIME ( 15, 31, 11.00000000000000000, #212 ) ;
#138 = ORIENTED_EDGE ( 'NONE', *, *, #284, .T. ) ;
#139 = AXIS2_PLACEMENT_3D ( 'NONE', #231, #61, #85 ) ;
#140 = VERTEX_POINT ( 'NONE', #307 ) ;
#141 = CALENDAR_DATE ( 2021, 1, 2 ) ;
#142 = FACE_BOUND ( 'NONE', #196, .T. ) ;
#143 = DIRECTION ( 'NONE',  ( -0.0000000000000000000, 1.000000000000000000, -0.0000000000000000000 ) ) ;
#144 = AXIS2_PLACEMENT_3D ( 'NONE', #224, #225, #125 ) ;
#145 = CARTESIAN_POINT ( 'NONE',  ( 0.0000000000000000000, -19.50000000000000000, 0.0000000000000000000 ) ) ;
#146 = ORIENTED_EDGE ( 'NONE', *, *, #334, .T. ) ;
#147 = AXIS2_PLACEMENT_3D ( 'NONE', #226, #203, #253 ) ;
#148 = LINE ( 'NONE', #176, #290 ) ;
#149 = DIRECTION ( 'NONE',  ( -0.0000000000000000000, 1.000000000000000000, -0.0000000000000000000 ) ) ;
#150 = VERTEX_POINT ( 'NONE', #53 ) ;
#151 = DIRECTION ( 'NONE',  ( -0.0000000000000000000, 1.000000000000000000, -0.0000000000000000000 ) ) ;
#152 = CARTESIAN_POINT ( 'NONE',  ( 0.0000000000000000000, -3.500000000000000444, 0.0000000000000000000 ) ) ;
#153 = ORIENTED_EDGE ( 'NONE', *, *, #289, .F. ) ;
#154 = DIRECTION ( 'NONE',  ( 0.0000000000000000000, 0.0000000000000000000, 1.000000000000000000 ) ) ;
#155 = APPLICATION_PROTOCOL_DEFINITION ( 'international standard', 'config_control_design', 1994, #5 ) ;
#156 = DIRECTION ( 'NONE',  ( 0.0000000000000000000, 0.0000000000000000000, -1.000000000000000000 ) ) ;
#157 = CYLINDRICAL_SURFACE ( 'NONE', #144, 2.000000000000000000 ) ;
#158 = MECHANICAL_CONTEXT ( 'NONE', #5, 'mechanical' ) ;
#159 = CALENDAR_DATE ( 2021, 1, 2 ) ;
#160 = VERTEX_POINT ( 'NONE', #199 ) ;
#161 = CALENDAR_DATE ( 2021, 1, 2 ) ;
#162 = FACE_OUTER_BOUND ( 'NONE', #248, .T. ) ;
#163 = ORIENTED_EDGE ( 'NONE', *, *, #114, .F. ) ;
#164 = DESIGN_CONTEXT ( 'detailed design', #178, 'design' ) ;
#165 = DATE_AND_TIME ( #141, #2 ) ;
#166 = CIRCLE ( 'NONE', #117, 4.000000000000003553 ) ;
#167 = AXIS2_PLACEMENT_3D ( 'NONE', #62, #135, #311 ) ;
#168 = PERSON_AND_ORGANIZATION_ROLE ( 'creator' ) ;
#169 = DIRECTION ( 'NONE',  ( -0.0000000000000000000, 1.000000000000000000, -0.0000000000000000000 ) ) ;
#170 = FACE_OUTER_BOUND ( 'NONE', #106, .T. ) ;
#171 = CARTESIAN_POINT ( 'NONE',  ( 2.449293598294706414E-16, -19.50000000000000000, -2.000000000000000000 ) ) ;
#172 = ADVANCED_FACE ( 'NONE', ( #217 ), #157, .T. ) ;
#173 = CARTESIAN_POINT ( 'NONE',  ( 4.898587196589417759E-16, 5.419203158191626457, -4.000000000000003553 ) ) ;
#174 = ADVANCED_FACE ( 'NONE', ( #260 ), #190, .T. ) ;
#175 = CYLINDRICAL_SURFACE ( 'NONE', #147, 8.000000000000001776 ) ;
#176 = CARTESIAN_POINT ( 'NONE',  ( 9.797174393178827630E-16, 5.419203158191626457, -8.000000000000001776 ) ) ;
#177 = VERTEX_POINT ( 'NONE', #26 ) ;
#178 = APPLICATION_CONTEXT ( 'configuration controlled 3d designs of mechanical parts and assemblies' ) ;
#179 = EDGE_CURVE ( 'NONE', #177, #140, #237, .T. ) ;
#180 = DIRECTION ( 'NONE',  ( 0.0000000000000000000, 0.0000000000000000000, 1.000000000000000000 ) ) ;
#181 = PERSON_AND_ORGANIZATION_ROLE ( 'design_owner' ) ;
#182 = AXIS2_PLACEMENT_3D ( 'NONE', #317, #154, #313 ) ;
#183 = DIRECTION ( 'NONE',  ( 0.0000000000000000000, 0.0000000000000000000, 1.000000000000000000 ) ) ;
#184 = VERTEX_POINT ( 'NONE', #24 ) ;
#185 =( GEOMETRIC_REPRESENTATION_CONTEXT ( 3 ) GLOBAL_UNCERTAINTY_ASSIGNED_CONTEXT ( ( #235 ) ) GLOBAL_UNIT_ASSIGNED_CONTEXT ( ( #132, #233, #283 ) ) REPRESENTATION_CONTEXT ( 'NONE', 'WORKASPACE' ) );
#186 = ORIENTED_EDGE ( 'NONE', *, *, #316, .T. ) ;
#187 = ORIENTED_EDGE ( 'NONE', *, *, #210, .T. ) ;
#188 = EDGE_CURVE ( 'NONE', #160, #309, #95, .T. ) ;
#189 = APPROVAL_PERSON_ORGANIZATION ( #46, #250, #78 ) ;
#190 = CYLINDRICAL_SURFACE ( 'NONE', #208, 8.000000000000001776 ) ;
#191 = ORIENTED_EDGE ( 'NONE', *, *, #321, .T. ) ;
#192 = PLANE ( 'NONE',  #15 ) ;
#193 = DIRECTION ( 'NONE',  ( 0.0000000000000000000, 0.0000000000000000000, 1.000000000000000000 ) ) ;
#194 = DIRECTION ( 'NONE',  ( 0.0000000000000000000, 0.0000000000000000000, 1.000000000000000000 ) ) ;
#195 = SHAPE_DEFINITION_REPRESENTATION ( #236, #239 ) ;
#196 = EDGE_LOOP ( 'NONE', ( #269, #92 ) ) ;
#197 = CARTESIAN_POINT ( 'NONE',  ( 0.0000000000000000000, 5.419203158191626457, 0.0000000000000000000 ) ) ;
#198 = ADVANCED_FACE ( 'NONE', ( #91 ), #175, .T. ) ;
#199 = CARTESIAN_POINT ( 'NONE',  ( 2.449293598294706414E-16, -19.50000000000000000, -2.000000000000000000 ) ) ;
#200 = DIRECTION ( 'NONE',  ( 0.0000000000000000000, 0.0000000000000000000, 1.000000000000000000 ) ) ;
#201 = LOCAL_TIME ( 15, 31, 11.00000000000000000, #286 ) ;
#202 = CARTESIAN_POINT ( 'NONE',  ( 0.0000000000000000000, 5.419203158191626457, 0.0000000000000000000 ) ) ;
#203 = DIRECTION ( 'NONE',  ( -0.0000000000000000000, 1.000000000000000000, -0.0000000000000000000 ) ) ;
#204 = CARTESIAN_POINT ( 'NONE',  ( 0.0000000000000000000, 0.0000000000000000000, 0.0000000000000000000 ) ) ;
#205 = CIRCLE ( 'NONE', #304, 4.000000000000003553 ) ;
#206 = CARTESIAN_POINT ( 'NONE',  ( 0.0000000000000000000, -19.50000000000000000, 2.000000000000000000 ) ) ;
#207 = ORIENTED_EDGE ( 'NONE', *, *, #86, .F. ) ;
#208 = AXIS2_PLACEMENT_3D ( 'NONE', #202, #126, #200 ) ;
#209 = DIRECTION ( 'NONE',  ( 0.0000000000000000000, 0.0000000000000000000, 1.000000000000000000 ) ) ;
#210 = EDGE_CURVE ( 'NONE', #160, #150, #25, .T. ) ;
#211 = CARTESIAN_POINT ( 'NONE',  ( 0.0000000000000000000, -19.50000000000000000, 0.0000000000000000000 ) ) ;
#212 = COORDINATED_UNIVERSAL_TIME_OFFSET ( 9, 0, .AHEAD. ) ;
#213 = MANIFOLD_SOLID_BREP ( 'ÎÞ½ - µoµ1', #296 ) ;
#214 = AXIS2_PLACEMENT_3D ( 'NONE', #326, #97, #193 ) ;
#215 = FACE_OUTER_BOUND ( 'NONE', #49, .T. ) ;
#216 = CC_DESIGN_PERSON_AND_ORGANIZATION_ASSIGNMENT ( #136, #102, ( #292 ) ) ;
#217 = FACE_OUTER_BOUND ( 'NONE', #77, .T. ) ;
#218 = CARTESIAN_POINT ( 'NONE',  ( 0.0000000000000000000, -3.500000000000000444, 0.0000000000000000000 ) ) ;
#219 = EDGE_LOOP ( 'NONE', ( #295, #99, #60, #153 ) ) ;
#220 = ORIENTED_EDGE ( 'NONE', *, *, #51, .F. ) ;
#221 = AXIS2_PLACEMENT_3D ( 'NONE', #218, #74, #297 ) ;
#222 = EDGE_CURVE ( 'NONE', #89, #244, #148, .T. ) ;
#223 = VECTOR ( 'NONE', #333, 1000.000000000000000 ) ;
#224 = CARTESIAN_POINT ( 'NONE',  ( 0.0000000000000000000, -19.50000000000000000, 0.0000000000000000000 ) ) ;
#225 = DIRECTION ( 'NONE',  ( -0.0000000000000000000, 1.000000000000000000, -0.0000000000000000000 ) ) ;
#226 = CARTESIAN_POINT ( 'NONE',  ( 0.0000000000000000000, 5.419203158191626457, 0.0000000000000000000 ) ) ;
#227 = DIRECTION ( 'NONE',  ( -0.0000000000000000000, 1.000000000000000000, -0.0000000000000000000 ) ) ;
#228 = DATE_AND_TIME ( #159, #201 ) ;
#229 = AXIS2_PLACEMENT_3D ( 'NONE', #56, #32, #183 ) ;
#230 = CARTESIAN_POINT ( 'NONE',  ( 0.0000000000000000000, 5.419203158191626457, 0.0000000000000000000 ) ) ;
#231 = CARTESIAN_POINT ( 'NONE',  ( 0.0000000000000000000, -9.500000000000000000, 0.0000000000000000000 ) ) ;
#232 = APPROVAL_STATUS ( 'not_yet_approved' ) ;
#233 =( NAMED_UNIT ( * ) PLANE_ANGLE_UNIT ( ) SI_UNIT ( $, .RADIAN. ) );
#234 = CYLINDRICAL_SURFACE ( 'NONE', #33, 2.000000000000000000 ) ;
#235 = UNCERTAINTY_MEASURE_WITH_UNIT (LENGTH_MEASURE( 1.000000000000000082E-05 ), #132, 'distance_accuracy_value', 'NONE');
#236 = PRODUCT_DEFINITION_SHAPE ( 'NONE', 'NONE',  #292 ) ;
#237 = CIRCLE ( 'NONE', #82, 4.000000000000002665 ) ;
#238 = VERTEX_POINT ( 'NONE', #4 ) ;
#239 = ADVANCED_BREP_SHAPE_REPRESENTATION ( 'A-1538-M4-10', ( #213, #182 ), #185 ) ;
#240 = CC_DESIGN_PERSON_AND_ORGANIZATION_ASSIGNMENT ( #252, #181, ( #44 ) ) ;
#241 = ORIENTED_EDGE ( 'NONE', *, *, #100, .F. ) ;
#242 = CARTESIAN_POINT ( 'NONE',  ( 0.0000000000000000000, -19.50000000000000000, 0.0000000000000000000 ) ) ;
#243 = LOCAL_TIME ( 15, 31, 11.00000000000000000, #94 ) ;
#244 = VERTEX_POINT ( 'NONE', #276 ) ;
#245 = CC_DESIGN_APPROVAL ( #250, ( #9 ) ) ;
#246 = DIRECTION ( 'NONE',  ( 0.0000000000000000000, 0.0000000000000000000, -1.000000000000000000 ) ) ;
#247 = CALENDAR_DATE ( 2021, 1, 2 ) ;
#248 = EDGE_LOOP ( 'NONE', ( #163, #38, #19, #54 ) ) ;
#249 = DIRECTION ( 'NONE',  ( 0.0000000000000000000, 0.0000000000000000000, 1.000000000000000000 ) ) ;
#250 = APPROVAL ( #101, 'UNSPECIFIED' ) ;
#251 = DIRECTION ( 'NONE',  ( 0.0000000000000000000, 0.0000000000000000000, -1.000000000000000000 ) ) ;
#252 = PERSON_AND_ORGANIZATION ( #73, #64 ) ;
#253 = DIRECTION ( 'NONE',  ( 0.0000000000000000000, 0.0000000000000000000, 1.000000000000000000 ) ) ;
#254 = ORIENTED_EDGE ( 'NONE', *, *, #133, .F. ) ;
#255 = DIRECTION ( 'NONE',  ( 0.0000000000000000000, -1.000000000000000000, 0.0000000000000000000 ) ) ;
#256 = DIRECTION ( 'NONE',  ( 0.0000000000000000000, 0.0000000000000000000, 1.000000000000000000 ) ) ;
#257 = ORIENTED_EDGE ( 'NONE', *, *, #334, .F. ) ;
#258 = AXIS2_PLACEMENT_3D ( 'NONE', #204, #57, #209 ) ;
#259 = DATE_AND_TIME ( #247, #243 ) ;
#260 = FACE_OUTER_BOUND ( 'NONE', #219, .T. ) ;
#261 = APPROVAL ( #17, 'UNSPECIFIED' ) ;
#262 = CIRCLE ( 'NONE', #258, 8.000000000000001776 ) ;
#263 = FACE_OUTER_BOUND ( 'NONE', #130, .T. ) ;
#264 = EDGE_CURVE ( 'NONE', #272, #140, #35, .T. ) ;
#265 = EDGE_LOOP ( 'NONE', ( #36, #34, #116, #13 ) ) ;
#266 = CC_DESIGN_PERSON_AND_ORGANIZATION_ASSIGNMENT ( #277, #168, ( #9 ) ) ;
#267 = COORDINATED_UNIVERSAL_TIME_OFFSET ( 9, 0, .AHEAD. ) ;
#268 = APPROVAL_DATE_TIME ( #11, #20 ) ;
#269 = ORIENTED_EDGE ( 'NONE', *, *, #51, .T. ) ;
#270 = PLANE ( 'NONE',  #322 ) ;
#271 = APPROVAL_PERSON_ORGANIZATION ( #12, #20, #329 ) ;
#272 = VERTEX_POINT ( 'NONE', #306 ) ;
#273 = CARTESIAN_POINT ( 'NONE',  ( 4.898587196589417759E-16, -9.499999999999998224, -4.000000000000003553 ) ) ;
#274 = AXIS2_PLACEMENT_3D ( 'NONE', #211, #255, #156 ) ;
#275 = DIRECTION ( 'NONE',  ( -0.0000000000000000000, 1.000000000000000000, -0.0000000000000000000 ) ) ;
#276 = CARTESIAN_POINT ( 'NONE',  ( 9.797174393178827630E-16, 0.0000000000000000000, -8.000000000000001776 ) ) ;
#277 = PERSON_AND_ORGANIZATION ( #73, #64 ) ;
#278 = CIRCLE ( 'NONE', #274, 2.000000000000000000 ) ;
#279 = CARTESIAN_POINT ( 'NONE',  ( 0.0000000000000000000, 0.0000000000000000000, 8.000000000000001776 ) ) ;
#280 = VECTOR ( 'NONE', #55, 1000.000000000000000 ) ;
#281 = PRODUCT_RELATED_PRODUCT_CATEGORY ( 'detail', '', ( #44 ) ) ;
#282 = ORIENTED_EDGE ( 'NONE', *, *, #321, .F. ) ;
#283 =( NAMED_UNIT ( * ) SI_UNIT ( $, .STERADIAN. ) SOLID_ANGLE_UNIT ( ) );
#284 = EDGE_CURVE ( 'NONE', #120, #244, #262, .T. ) ;
#285 = CARTESIAN_POINT ( 'NONE',  ( 0.0000000000000000000, -19.50000000000000000, 2.000000000000000000 ) ) ;
#286 = COORDINATED_UNIVERSAL_TIME_OFFSET ( 9, 0, .AHEAD. ) ;
#287 = SECURITY_CLASSIFICATION ( '', '', #21 ) ;
#288 = DATE_AND_TIME ( #161, #58 ) ;
#289 = EDGE_CURVE ( 'NONE', #184, #120, #293, .T. ) ;
#290 = VECTOR ( 'NONE', #227, 1000.000000000000000 ) ;
#291 = ORIENTED_EDGE ( 'NONE', *, *, #188, .T. ) ;
#292 = PRODUCT_DEFINITION ( 'UNKNOWN', '', #9, #164 ) ;
#293 = LINE ( 'NONE', #302, #3 ) ;
#294 = PLANE ( 'NONE',  #109 ) ;
#295 = ORIENTED_EDGE ( 'NONE', *, *, #71, .T. ) ;
#296 = CLOSED_SHELL ( 'NONE', ( #172, #305, #174, #23, #198, #299, #87, #83, #50, #30 ) ) ;
#297 = DIRECTION ( 'NONE',  ( 0.0000000000000000000, 0.0000000000000000000, 1.000000000000000000 ) ) ;
#298 = EDGE_CURVE ( 'NONE', #150, #238, #31, .T. ) ;
#299 = ADVANCED_FACE ( 'NONE', ( #215, #142 ), #8, .F. ) ;
#300 = COORDINATED_UNIVERSAL_TIME_OFFSET ( 9, 0, .AHEAD. ) ;
#301 = PERSON_AND_ORGANIZATION_ROLE ( 'design_supplier' ) ;
#302 = CARTESIAN_POINT ( 'NONE',  ( 0.0000000000000000000, 5.419203158191626457, 8.000000000000001776 ) ) ;
#303 = DIRECTION ( 'NONE',  ( -0.0000000000000000000, 1.000000000000000000, -0.0000000000000000000 ) ) ;
#304 = AXIS2_PLACEMENT_3D ( 'NONE', #52, #151, #104 ) ;
#305 = ADVANCED_FACE ( 'NONE', ( #129 ), #323, .T. ) ;
#306 = CARTESIAN_POINT ( 'NONE',  ( 0.0000000000000000000, -9.499999999999998224, 4.000000000000003553 ) ) ;
#307 = CARTESIAN_POINT ( 'NONE',  ( 0.0000000000000000000, -3.500000000000000444, 4.000000000000002665 ) ) ;
#308 = CYLINDRICAL_SURFACE ( 'NONE', #66, 4.000000000000003553 ) ;
#309 = VERTEX_POINT ( 'NONE', #206 ) ;
#310 = CARTESIAN_POINT ( 'NONE',  ( 0.0000000000000000000, -3.500000000000000444, 0.0000000000000000000 ) ) ;
#311 = DIRECTION ( 'NONE',  ( 0.0000000000000000000, 0.0000000000000000000, 1.000000000000000000 ) ) ;
#312 = AXIS2_PLACEMENT_3D ( 'NONE', #29, #131, #251 ) ;
#313 = DIRECTION ( 'NONE',  ( 1.000000000000000000, 0.0000000000000000000, 0.0000000000000000000 ) ) ;
#314 = CIRCLE ( 'NONE', #221, 4.000000000000002665 ) ;
#315 = ORIENTED_EDGE ( 'NONE', *, *, #298, .T. ) ;
#316 = EDGE_CURVE ( 'NONE', #309, #160, #278, .T. ) ;
#317 = CARTESIAN_POINT ( 'NONE',  ( 0.0000000000000000000, 0.0000000000000000000, 0.0000000000000000000 ) ) ;
#318 = PERSON_AND_ORGANIZATION ( #73, #64 ) ;
#319 = CIRCLE ( 'NONE', #70, 2.000000000000000000 ) ;
#320 = ORIENTED_EDGE ( 'NONE', *, *, #114, .T. ) ;
#321 = EDGE_CURVE ( 'NONE', #309, #238, #88, .T. ) ;
#322 = AXIS2_PLACEMENT_3D ( 'NONE', #75, #22, #331 ) ;
#323 = CYLINDRICAL_SURFACE ( 'NONE', #332, 4.000000000000003553 ) ;
#324 = ORIENTED_EDGE ( 'NONE', *, *, #71, .F. ) ;
#325 = EDGE_CURVE ( 'NONE', #244, #120, #119, .T. ) ;
#326 = CARTESIAN_POINT ( 'NONE',  ( 0.0000000000000000000, -3.500000000000000444, 0.0000000000000000000 ) ) ;
#327 = DIRECTION ( 'NONE',  ( 0.0000000000000000000, -1.000000000000000000, 0.0000000000000000000 ) ) ;
#328 = FACE_BOUND ( 'NONE', #69, .T. ) ;
#329 = APPROVAL_ROLE ( '' ) ;
#330 = EDGE_LOOP ( 'NONE', ( #138, #43 ) ) ;
#331 = DIRECTION ( 'NONE',  ( 0.0000000000000000000, 0.0000000000000000000, 1.000000000000000000 ) ) ;
#332 = AXIS2_PLACEMENT_3D ( 'NONE', #230, #10, #180 ) ;
#333 = DIRECTION ( 'NONE',  ( -0.0000000000000000000, 1.000000000000000000, -0.0000000000000000000 ) ) ;
#334 = EDGE_CURVE ( 'NONE', #272, #14, #166, .T. ) ;
#335 = APPROVAL_ROLE ( '' ) ;
ENDSEC;
END-ISO-10303-21;
