ISO-10303-21;
HEADER;
FILE_DESCRIPTION (( 'STEP AP203' ),
    '1' );
FILE_NAME ('sone3D.STEP',
    '2014-01-14T04:36:08',
    ( '' ),
    ( '' ),
    'SwSTEP 2.0',
    'SolidWorks 2012',
    '' );
FILE_SCHEMA (( 'CONFIG_CONTROL_DESIGN' ));
ENDSEC;

DATA;
#1 = FACE_OUTER_BOUND ( 'NONE', #40, .T. ) ;
#2 = AXIS2_PLACEMENT_3D ( 'NONE', #75, #76, #77 ) ;
#3 = CLOSED_SHELL ( 'NONE', ( #29, #139, #30, #28, #27, #17 ) ) ;
#4 = FACE_OUTER_BOUND ( 'NONE', #24, .T. ) ;
#5 = CYLINDRICAL_SURFACE ( 'NONE', #2, 3.249999999999999600 ) ;
#6 = FACE_OUTER_BOUND ( 'NONE', #26, .T. ) ;
#7 = AXIS2_PLACEMENT_3D ( 'NONE', #79, #80, #81 ) ;
#8 = CYLINDRICAL_SURFACE ( 'NONE', #7, 20.00000000000000000 ) ;
#9 = CYLINDRICAL_SURFACE ( 'NONE', #12, 3.249999999999999600 ) ;
#10 = FACE_OUTER_BOUND ( 'NONE', #20, .T. ) ;
#11 = FACE_BOUND ( 'NONE', #25, .T. ) ;
#12 = AXIS2_PLACEMENT_3D ( 'NONE', #245, #246, #247 ) ;
#13 = AXIS2_PLACEMENT_3D ( 'NONE', #242, #243, #244 ) ;
#14 = LOCAL_TIME ( 13, 36, 8.000000000000000000, #99 ) ;
#15 = PRODUCT_RELATED_PRODUCT_CATEGORY ( 'detail', '', ( #18 ) ) ;
#16 = PRODUCT_DEFINITION ( 'UNKNOWN', '', #90, #122 ) ;
#17 = ADVANCED_FACE ( 'NONE', ( #1 ), #5, .F. ) ;
#18 = PRODUCT ( 'sone3D', 'sone3D', '', ( #158 ) ) ;
#19 = VERTEX_POINT ( 'NONE', #78 ) ;
#20 = EDGE_LOOP ( 'NONE', ( #202, #198, #43, #46 ) ) ;
#21 = EDGE_LOOP ( 'NONE', ( #200, #209, #41, #42 ) ) ;
#22 = EDGE_LOOP ( 'NONE', ( #204, #47 ) ) ;
#23 = EDGE_LOOP ( 'NONE', ( #201, #197 ) ) ;
#24 = EDGE_LOOP ( 'NONE', ( #212, #205 ) ) ;
#25 = EDGE_LOOP ( 'NONE', ( #219, #199 ) ) ;
#26 = EDGE_LOOP ( 'NONE', ( #206, #207, #203, #208 ) ) ;
#27 = ADVANCED_FACE ( 'NONE', ( #6 ), #8, .T. ) ;
#28 = ADVANCED_FACE ( 'NONE', ( #4, #11 ), #82, .F. ) ;
#29 = ADVANCED_FACE ( 'NONE', ( #10 ), #9, .F. ) ;
#30 = ADVANCED_FACE ( 'NONE', ( #51, #53 ), #248, .T. ) ;
#31 = EDGE_CURVE ( 'NONE', #19, #222, #142, .T. ) ;
#32 = EDGE_CURVE ( 'NONE', #19, #221, #66, .T. ) ;
#33 = EDGE_CURVE ( 'NONE', #224, #226, #149, .T. ) ;
#34 = EDGE_CURVE ( 'NONE', #223, #225, #152, .T. ) ;
#35 = EDGE_CURVE ( 'NONE', #224, #223, #67, .T. ) ;
#36 = EDGE_CURVE ( 'NONE', #221, #19, #68, .T. ) ;
#37 = EDGE_CURVE ( 'NONE', #226, #225, #69, .T. ) ;
#38 = EDGE_CURVE ( 'NONE', #223, #224, #70, .T. ) ;
#39 = EDGE_CURVE ( 'NONE', #220, #222, #71, .T. ) ;
#40 = EDGE_LOOP ( 'NONE', ( #210, #211, #45, #44 ) ) ;
#41 = ORIENTED_EDGE ( 'NONE', *, *, #63, .T. ) ;
#42 = ORIENTED_EDGE ( 'NONE', *, *, #33, .F. ) ;
#43 = ORIENTED_EDGE ( 'NONE', *, *, #65, .F. ) ;
#44 = ORIENTED_EDGE ( 'NONE', *, *, #39, .F. ) ;
#45 = ORIENTED_EDGE ( 'NONE', *, *, #31, .T. ) ;
#46 = ORIENTED_EDGE ( 'NONE', *, *, #31, .F. ) ;
#47 = ORIENTED_EDGE ( 'NONE', *, *, #38, .T. ) ;
#48 = ADVANCED_BREP_SHAPE_REPRESENTATION ( 'sone3D', ( #120, #179 ), #138 ) ;
#49 = PERSON ( 'UNSPECIFIED', 'UNSPECIFIED', 'UNSPECIFIED', ('UNSPECIFIED'), ('UNSPECIFIED'), ('UNSPECIFIED') ) ;
#50 = UNCERTAINTY_MEASURE_WITH_UNIT (LENGTH_MEASURE( 1.000000000000000100E-005 ), #241, 'distance_accuracy_value', 'NONE');
#51 = FACE_OUTER_BOUND ( 'NONE', #22, .T. ) ;
#52 = AXIS2_PLACEMENT_3D ( 'NONE', #186, #187, #188 ) ;
#53 = FACE_BOUND ( 'NONE', #23, .T. ) ;
#54 = AXIS2_PLACEMENT_3D ( 'NONE', #145, #146, #147 ) ;
#55 = AXIS2_PLACEMENT_3D ( 'NONE', #249, #140, #141 ) ;
#56 = AXIS2_PLACEMENT_3D ( 'NONE', #189, #190, #191 ) ;
#57 = VECTOR ( 'NONE', #144, 1000.000000000000000 ) ;
#58 = AXIS2_PLACEMENT_3D ( 'NONE', #183, #184, #185 ) ;
#59 = VECTOR ( 'NONE', #151, 1000.000000000000000 ) ;
#60 = AXIS2_PLACEMENT_3D ( 'NONE', #148, #155, #156 ) ;
#61 = VECTOR ( 'NONE', #154, 1000.000000000000000 ) ;
#62 = AXIS2_PLACEMENT_3D ( 'NONE', #180, #181, #182 ) ;
#63 = EDGE_CURVE ( 'NONE', #225, #226, #73, .T. ) ;
#64 = EDGE_CURVE ( 'NONE', #221, #220, #196, .T. ) ;
#65 = EDGE_CURVE ( 'NONE', #222, #220, #72, .T. ) ;
#66 = CIRCLE ( 'NONE', #54, 3.249999999999999600 ) ;
#67 = CIRCLE ( 'NONE', #60, 20.00000000000000000 ) ;
#68 = CIRCLE ( 'NONE', #62, 3.249999999999999600 ) ;
#69 = CIRCLE ( 'NONE', #58, 20.00000000000000000 ) ;
#70 = CIRCLE ( 'NONE', #52, 20.00000000000000000 ) ;
#71 = CIRCLE ( 'NONE', #56, 3.249999999999999600 ) ;
#72 = CIRCLE ( 'NONE', #173, 3.249999999999999600 ) ;
#73 = CIRCLE ( 'NONE', #174, 20.00000000000000000 ) ;
#74 = CC_DESIGN_PERSON_AND_ORGANIZATION_ASSIGNMENT ( #159, #160, ( #18 ) ) ;
#75 = CARTESIAN_POINT ( 'NONE',  ( 0.0000000000000000000, 1.500000000000000000, 0.0000000000000000000 ) ) ;
#76 = DIRECTION ( 'NONE',  ( -0.0000000000000000000, -1.000000000000000000, -0.0000000000000000000 ) ) ;
#77 = DIRECTION ( 'NONE',  ( 0.0000000000000000000, 0.0000000000000000000, -1.000000000000000000 ) ) ;
#78 = CARTESIAN_POINT ( 'NONE',  ( 0.0000000000000000000, 1.500000000000000000, -3.249999999999999600 ) ) ;
#79 = CARTESIAN_POINT ( 'NONE',  ( 0.0000000000000000000, 1.500000000000000000, 0.0000000000000000000 ) ) ;
#80 = DIRECTION ( 'NONE',  ( -0.0000000000000000000, -1.000000000000000000, -0.0000000000000000000 ) ) ;
#81 = DIRECTION ( 'NONE',  ( 0.0000000000000000000, 0.0000000000000000000, -1.000000000000000000 ) ) ;
#82 = PLANE ( 'NONE',  #13 ) ;
#83 = ORGANIZATION ( 'UNSPECIFIED', 'UNSPECIFIED', '' ) ;
#84 = APPROVAL_PERSON_ORGANIZATION ( #162, #123, #164 ) ;
#85 = COORDINATED_UNIVERSAL_TIME_OFFSET ( 9, 0, .AHEAD. ) ;
#86 = CALENDAR_DATE ( 2014, 14, 1 ) ;
#87 = CC_DESIGN_APPROVAL ( #123, ( #16 ) ) ;
#88 = COORDINATED_UNIVERSAL_TIME_OFFSET ( 9, 0, .AHEAD. ) ;
#89 = CALENDAR_DATE ( 2014, 14, 1 ) ;
#90 = PRODUCT_DEFINITION_FORMATION_WITH_SPECIFIED_SOURCE ( 'ANY', '', #18, .NOT_KNOWN. ) ;
#91 = APPROVAL_PERSON_ORGANIZATION ( #171, #128, #103 ) ;
#92 = COORDINATED_UNIVERSAL_TIME_OFFSET ( 9, 0, .AHEAD. ) ;
#93 = CALENDAR_DATE ( 2014, 14, 1 ) ;
#94 = CC_DESIGN_APPROVAL ( #128, ( #90 ) ) ;
#95 = SECURITY_CLASSIFICATION ( '', '', #110 ) ;
#96 = COORDINATED_UNIVERSAL_TIME_OFFSET ( 9, 0, .AHEAD. ) ;
#97 = CALENDAR_DATE ( 2014, 14, 1 ) ;
#98 = APPROVAL_PERSON_ORGANIZATION ( #115, #135, #117 ) ;
#99 = COORDINATED_UNIVERSAL_TIME_OFFSET ( 9, 0, .AHEAD. ) ;
#100 = CALENDAR_DATE ( 2014, 14, 1 ) ;
#101 = CC_DESIGN_APPROVAL ( #135, ( #95 ) ) ;
#102 = CC_DESIGN_SECURITY_CLASSIFICATION ( #95, ( #90 ) ) ;
#103 = APPROVAL_ROLE ( '' ) ;
#104 = DATE_AND_TIME ( #93, #129 ) ;
#105 = APPROVAL_DATE_TIME ( #104, #128 ) ;
#106 = PERSON_AND_ORGANIZATION ( #49, #83 ) ;
#107 = PERSON_AND_ORGANIZATION_ROLE ( 'creator' ) ;
#108 = PERSON_AND_ORGANIZATION ( #49, #83 ) ;
#109 = PERSON_AND_ORGANIZATION_ROLE ( 'design_supplier' ) ;
#110 = SECURITY_CLASSIFICATION_LEVEL ( 'unclassified' ) ;
#111 = PERSON_AND_ORGANIZATION ( #49, #83 ) ;
#112 = PERSON_AND_ORGANIZATION_ROLE ( 'classification_officer' ) ;
#113 = DATE_AND_TIME ( #97, #133 ) ;
#114 = DATE_TIME_ROLE ( 'classification_date' ) ;
#115 = PERSON_AND_ORGANIZATION ( #49, #83 ) ;
#116 = APPROVAL_STATUS ( 'not_yet_approved' ) ;
#117 = APPROVAL_ROLE ( '' ) ;
#118 = DATE_AND_TIME ( #100, #14 ) ;
#119 = APPROVAL_DATE_TIME ( #118, #135 ) ;
#120 = MANIFOLD_SOLID_BREP ( 'ÎÞ½ - µoµ1', #3 ) ;
#121 = PRODUCT_DEFINITION_SHAPE ( 'NONE', 'NONE',  #16 ) ;
#122 = DESIGN_CONTEXT ( 'detailed design', #137, 'design' ) ;
#123 = APPROVAL ( #163, 'UNSPECIFIED' ) ;
#124 = LOCAL_TIME ( 13, 36, 8.000000000000000000, #85 ) ;
#125 = CC_DESIGN_PERSON_AND_ORGANIZATION_ASSIGNMENT ( #167, #168, ( #16 ) ) ;
#126 = LOCAL_TIME ( 13, 36, 8.000000000000000000, #88 ) ;
#127 = CC_DESIGN_DATE_AND_TIME_ASSIGNMENT ( #169, #170, ( #16 ) ) ;
#128 = APPROVAL ( #172, 'UNSPECIFIED' ) ;
#129 = LOCAL_TIME ( 13, 36, 8.000000000000000000, #92 ) ;
#130 = CC_DESIGN_PERSON_AND_ORGANIZATION_ASSIGNMENT ( #106, #107, ( #90 ) ) ;
#131 = CC_DESIGN_PERSON_AND_ORGANIZATION_ASSIGNMENT ( #108, #109, ( #90 ) ) ;
#132 = CC_DESIGN_PERSON_AND_ORGANIZATION_ASSIGNMENT ( #111, #112, ( #95 ) ) ;
#133 = LOCAL_TIME ( 13, 36, 8.000000000000000000, #96 ) ;
#134 = CC_DESIGN_DATE_AND_TIME_ASSIGNMENT ( #113, #114, ( #95 ) ) ;
#135 = APPROVAL ( #116, 'UNSPECIFIED' ) ;
#136 = APPLICATION_CONTEXT ( 'configuration controlled 3d designs of mechanical parts and assemblies' ) ;
#137 = APPLICATION_CONTEXT ( 'configuration controlled 3d designs of mechanical parts and assemblies' ) ;
#138 =( GEOMETRIC_REPRESENTATION_CONTEXT ( 3 ) GLOBAL_UNCERTAINTY_ASSIGNED_CONTEXT ( ( #50 ) ) GLOBAL_UNIT_ASSIGNED_CONTEXT ( ( #241, #213, #214 ) ) REPRESENTATION_CONTEXT ( 'NONE', 'WORKASPACE' ) );
#139 = ADVANCED_FACE ( 'NONE', ( #175 ), #178, .T. ) ;
#140 = DIRECTION ( 'NONE',  ( 0.0000000000000000000, 1.000000000000000000, 0.0000000000000000000 ) ) ;
#141 = DIRECTION ( 'NONE',  ( 0.0000000000000000000, -0.0000000000000000000, 1.000000000000000000 ) ) ;
#142 = LINE ( 'NONE', #143, #57 ) ;
#143 = CARTESIAN_POINT ( 'NONE',  ( 0.0000000000000000000, 1.500000000000000000, -3.249999999999999600 ) ) ;
#144 = DIRECTION ( 'NONE',  ( -0.0000000000000000000, -1.000000000000000000, -0.0000000000000000000 ) ) ;
#145 = CARTESIAN_POINT ( 'NONE',  ( 0.0000000000000000000, 1.500000000000000000, 0.0000000000000000000 ) ) ;
#146 = DIRECTION ( 'NONE',  ( 0.0000000000000000000, 1.000000000000000000, 0.0000000000000000000 ) ) ;
#147 = DIRECTION ( 'NONE',  ( 0.0000000000000000000, 0.0000000000000000000, 1.000000000000000000 ) ) ;
#148 = CARTESIAN_POINT ( 'NONE',  ( 0.0000000000000000000, 1.500000000000000000, 0.0000000000000000000 ) ) ;
#149 = LINE ( 'NONE', #150, #59 ) ;
#150 = CARTESIAN_POINT ( 'NONE',  ( 0.0000000000000000000, 1.500000000000000000, -20.00000000000000000 ) ) ;
#151 = DIRECTION ( 'NONE',  ( -0.0000000000000000000, -1.000000000000000000, -0.0000000000000000000 ) ) ;
#152 = LINE ( 'NONE', #153, #61 ) ;
#153 = CARTESIAN_POINT ( 'NONE',  ( 2.449293598294706500E-015, 1.500000000000000000, 20.00000000000000000 ) ) ;
#154 = DIRECTION ( 'NONE',  ( -0.0000000000000000000, -1.000000000000000000, -0.0000000000000000000 ) ) ;
#155 = DIRECTION ( 'NONE',  ( 0.0000000000000000000, 1.000000000000000000, 0.0000000000000000000 ) ) ;
#156 = DIRECTION ( 'NONE',  ( 0.0000000000000000000, 0.0000000000000000000, 1.000000000000000000 ) ) ;
#157 = APPLICATION_PROTOCOL_DEFINITION ( 'international standard', 'config_control_design', 1994, #136 ) ;
#158 = MECHANICAL_CONTEXT ( 'NONE', #136, 'mechanical' ) ;
#159 = PERSON_AND_ORGANIZATION ( #49, #83 ) ;
#160 = PERSON_AND_ORGANIZATION_ROLE ( 'design_owner' ) ;
#161 = APPLICATION_PROTOCOL_DEFINITION ( 'international standard', 'config_control_design', 1994, #137 ) ;
#162 = PERSON_AND_ORGANIZATION ( #49, #83 ) ;
#163 = APPROVAL_STATUS ( 'not_yet_approved' ) ;
#164 = APPROVAL_ROLE ( '' ) ;
#165 = DATE_AND_TIME ( #86, #124 ) ;
#166 = APPROVAL_DATE_TIME ( #165, #123 ) ;
#167 = PERSON_AND_ORGANIZATION ( #49, #83 ) ;
#168 = PERSON_AND_ORGANIZATION_ROLE ( 'creator' ) ;
#169 = DATE_AND_TIME ( #89, #126 ) ;
#170 = DATE_TIME_ROLE ( 'creation_date' ) ;
#171 = PERSON_AND_ORGANIZATION ( #49, #83 ) ;
#172 = APPROVAL_STATUS ( 'not_yet_approved' ) ;
#173 = AXIS2_PLACEMENT_3D ( 'NONE', #195, #229, #230 ) ;
#174 = AXIS2_PLACEMENT_3D ( 'NONE', #192, #193, #194 ) ;
#175 = FACE_OUTER_BOUND ( 'NONE', #21, .T. ) ;
#176 = VECTOR ( 'NONE', #228, 1000.000000000000000 ) ;
#177 = AXIS2_PLACEMENT_3D ( 'NONE', #231, #232, #233 ) ;
#178 = CYLINDRICAL_SURFACE ( 'NONE', #177, 20.00000000000000000 ) ;
#179 = AXIS2_PLACEMENT_3D ( 'NONE', #216, #217, #218 ) ;
#180 = CARTESIAN_POINT ( 'NONE',  ( 0.0000000000000000000, 1.500000000000000000, 0.0000000000000000000 ) ) ;
#181 = DIRECTION ( 'NONE',  ( 0.0000000000000000000, 1.000000000000000000, 0.0000000000000000000 ) ) ;
#182 = DIRECTION ( 'NONE',  ( 0.0000000000000000000, 0.0000000000000000000, 1.000000000000000000 ) ) ;
#183 = CARTESIAN_POINT ( 'NONE',  ( 0.0000000000000000000, 0.0000000000000000000, 0.0000000000000000000 ) ) ;
#184 = DIRECTION ( 'NONE',  ( 0.0000000000000000000, 1.000000000000000000, 0.0000000000000000000 ) ) ;
#185 = DIRECTION ( 'NONE',  ( 0.0000000000000000000, 0.0000000000000000000, 1.000000000000000000 ) ) ;
#186 = CARTESIAN_POINT ( 'NONE',  ( 0.0000000000000000000, 1.500000000000000000, 0.0000000000000000000 ) ) ;
#187 = DIRECTION ( 'NONE',  ( 0.0000000000000000000, 1.000000000000000000, 0.0000000000000000000 ) ) ;
#188 = DIRECTION ( 'NONE',  ( 0.0000000000000000000, 0.0000000000000000000, 1.000000000000000000 ) ) ;
#189 = CARTESIAN_POINT ( 'NONE',  ( 0.0000000000000000000, 0.0000000000000000000, 0.0000000000000000000 ) ) ;
#190 = DIRECTION ( 'NONE',  ( 0.0000000000000000000, 1.000000000000000000, 0.0000000000000000000 ) ) ;
#191 = DIRECTION ( 'NONE',  ( 0.0000000000000000000, 0.0000000000000000000, 1.000000000000000000 ) ) ;
#192 = CARTESIAN_POINT ( 'NONE',  ( 0.0000000000000000000, 0.0000000000000000000, 0.0000000000000000000 ) ) ;
#193 = DIRECTION ( 'NONE',  ( 0.0000000000000000000, 1.000000000000000000, 0.0000000000000000000 ) ) ;
#194 = DIRECTION ( 'NONE',  ( 0.0000000000000000000, 0.0000000000000000000, 1.000000000000000000 ) ) ;
#195 = CARTESIAN_POINT ( 'NONE',  ( 0.0000000000000000000, 0.0000000000000000000, 0.0000000000000000000 ) ) ;
#196 = LINE ( 'NONE', #227, #176 ) ;
#197 = ORIENTED_EDGE ( 'NONE', *, *, #36, .F. ) ;
#198 = ORIENTED_EDGE ( 'NONE', *, *, #64, .T. ) ;
#199 = ORIENTED_EDGE ( 'NONE', *, *, #39, .T. ) ;
#200 = ORIENTED_EDGE ( 'NONE', *, *, #38, .F. ) ;
#201 = ORIENTED_EDGE ( 'NONE', *, *, #32, .F. ) ;
#202 = ORIENTED_EDGE ( 'NONE', *, *, #32, .T. ) ;
#203 = ORIENTED_EDGE ( 'NONE', *, *, #33, .T. ) ;
#204 = ORIENTED_EDGE ( 'NONE', *, *, #35, .T. ) ;
#205 = ORIENTED_EDGE ( 'NONE', *, *, #63, .F. ) ;
#206 = ORIENTED_EDGE ( 'NONE', *, *, #34, .F. ) ;
#207 = ORIENTED_EDGE ( 'NONE', *, *, #35, .F. ) ;
#208 = ORIENTED_EDGE ( 'NONE', *, *, #37, .T. ) ;
#209 = ORIENTED_EDGE ( 'NONE', *, *, #34, .T. ) ;
#210 = ORIENTED_EDGE ( 'NONE', *, *, #64, .F. ) ;
#211 = ORIENTED_EDGE ( 'NONE', *, *, #36, .T. ) ;
#212 = ORIENTED_EDGE ( 'NONE', *, *, #37, .F. ) ;
#213 =( NAMED_UNIT ( * ) PLANE_ANGLE_UNIT ( ) SI_UNIT ( $, .RADIAN. ) );
#214 =( NAMED_UNIT ( * ) SI_UNIT ( $, .STERADIAN. ) SOLID_ANGLE_UNIT ( ) );
#215 = SHAPE_DEFINITION_REPRESENTATION ( #121, #48 ) ;
#216 = CARTESIAN_POINT ( 'NONE',  ( 0.0000000000000000000, 0.0000000000000000000, 0.0000000000000000000 ) ) ;
#217 = DIRECTION ( 'NONE',  ( 0.0000000000000000000, 0.0000000000000000000, 1.000000000000000000 ) ) ;
#218 = DIRECTION ( 'NONE',  ( 1.000000000000000000, 0.0000000000000000000, 0.0000000000000000000 ) ) ;
#219 = ORIENTED_EDGE ( 'NONE', *, *, #65, .T. ) ;
#220 = VERTEX_POINT ( 'NONE', #234 ) ;
#221 = VERTEX_POINT ( 'NONE', #235 ) ;
#222 = VERTEX_POINT ( 'NONE', #236 ) ;
#223 = VERTEX_POINT ( 'NONE', #237 ) ;
#224 = VERTEX_POINT ( 'NONE', #238 ) ;
#225 = VERTEX_POINT ( 'NONE', #239 ) ;
#226 = VERTEX_POINT ( 'NONE', #240 ) ;
#227 = CARTESIAN_POINT ( 'NONE',  ( 3.980102097228897200E-016, 1.500000000000000000, 3.249999999999999600 ) ) ;
#228 = DIRECTION ( 'NONE',  ( -0.0000000000000000000, -1.000000000000000000, -0.0000000000000000000 ) ) ;
#229 = DIRECTION ( 'NONE',  ( 0.0000000000000000000, 1.000000000000000000, 0.0000000000000000000 ) ) ;
#230 = DIRECTION ( 'NONE',  ( 0.0000000000000000000, 0.0000000000000000000, 1.000000000000000000 ) ) ;
#231 = CARTESIAN_POINT ( 'NONE',  ( 0.0000000000000000000, 1.500000000000000000, 0.0000000000000000000 ) ) ;
#232 = DIRECTION ( 'NONE',  ( -0.0000000000000000000, -1.000000000000000000, -0.0000000000000000000 ) ) ;
#233 = DIRECTION ( 'NONE',  ( 0.0000000000000000000, 0.0000000000000000000, -1.000000000000000000 ) ) ;
#234 = CARTESIAN_POINT ( 'NONE',  ( 3.980102097228897200E-016, 0.0000000000000000000, 3.249999999999999600 ) ) ;
#235 = CARTESIAN_POINT ( 'NONE',  ( 3.980102097228897200E-016, 1.500000000000000000, 3.249999999999999600 ) ) ;
#236 = CARTESIAN_POINT ( 'NONE',  ( 0.0000000000000000000, 0.0000000000000000000, -3.249999999999999600 ) ) ;
#237 = CARTESIAN_POINT ( 'NONE',  ( 2.449293598294706500E-015, 1.500000000000000000, 20.00000000000000000 ) ) ;
#238 = CARTESIAN_POINT ( 'NONE',  ( 0.0000000000000000000, 1.500000000000000000, -20.00000000000000000 ) ) ;
#239 = CARTESIAN_POINT ( 'NONE',  ( 2.449293598294706500E-015, 0.0000000000000000000, 20.00000000000000000 ) ) ;
#240 = CARTESIAN_POINT ( 'NONE',  ( 0.0000000000000000000, 0.0000000000000000000, -20.00000000000000000 ) ) ;
#241 =( LENGTH_UNIT ( ) NAMED_UNIT ( * ) SI_UNIT ( .MILLI., .METRE. ) );
#242 = CARTESIAN_POINT ( 'NONE',  ( 0.0000000000000000000, 0.0000000000000000000, 0.0000000000000000000 ) ) ;
#243 = DIRECTION ( 'NONE',  ( 0.0000000000000000000, 1.000000000000000000, 0.0000000000000000000 ) ) ;
#244 = DIRECTION ( 'NONE',  ( 0.0000000000000000000, -0.0000000000000000000, 1.000000000000000000 ) ) ;
#245 = CARTESIAN_POINT ( 'NONE',  ( 0.0000000000000000000, 1.500000000000000000, 0.0000000000000000000 ) ) ;
#246 = DIRECTION ( 'NONE',  ( -0.0000000000000000000, -1.000000000000000000, -0.0000000000000000000 ) ) ;
#247 = DIRECTION ( 'NONE',  ( 0.0000000000000000000, 0.0000000000000000000, -1.000000000000000000 ) ) ;
#248 = PLANE ( 'NONE',  #55 ) ;
#249 = CARTESIAN_POINT ( 'NONE',  ( 0.0000000000000000000, 1.500000000000000000, 0.0000000000000000000 ) ) ;
ENDSEC;
END-ISO-10303-21;
