ISO-10303-21;
HEADER;
FILE_DESCRIPTION (( 'STEP AP203' ),
    '1' );
FILE_NAME ('sone3D.STEP',
    '2014-01-14T04:40:25',
    ( '' ),
    ( '' ),
    'SwSTEP 2.0',
    'SolidWorks 2012',
    '' );
FILE_SCHEMA (( 'CONFIG_CONTROL_DESIGN' ));
ENDSEC;

DATA;
#1 = ORIENTED_EDGE ( 'NONE', *, *, #205, .F. ) ;
#2 = ORIENTED_EDGE ( 'NONE', *, *, #150, .F. ) ;
#3 = ORIENTED_EDGE ( 'NONE', *, *, #50, .F. ) ;
#4 = LOCAL_TIME ( 13, 40, 25.00000000000000000, #35 ) ;
#5 = CC_DESIGN_DATE_AND_TIME_ASSIGNMENT ( #246, #247, ( #223 ) ) ;
#6 = APPROVAL ( #249, 'UNSPECIFIED' ) ;
#7 = LOCAL_TIME ( 13, 40, 25.00000000000000000, #211 ) ;
#8 = CC_DESIGN_PERSON_AND_ORGANIZATION_ASSIGNMENT ( #19, #20, ( #34 ) ) ;
#9 = CC_DESIGN_PERSON_AND_ORGANIZATION_ASSIGNMENT ( #21, #22, ( #34 ) ) ;
#10 = CC_DESIGN_PERSON_AND_ORGANIZATION_ASSIGNMENT ( #24, #25, ( #212 ) ) ;
#11 = LOCAL_TIME ( 13, 40, 25.00000000000000000, #182 ) ;
#12 = CC_DESIGN_DATE_AND_TIME_ASSIGNMENT ( #26, #27, ( #212 ) ) ;
#13 = APPROVAL ( #29, 'UNSPECIFIED' ) ;
#14 = LOCAL_TIME ( 13, 40, 25.00000000000000000, #183 ) ;
#15 = PRODUCT_RELATED_PRODUCT_CATEGORY ( 'detail', '', ( #33 ) ) ;
#16 = APPROVAL_ROLE ( '' ) ;
#17 = DATE_AND_TIME ( #208, #7 ) ;
#18 = APPROVAL_DATE_TIME ( #17, #6 ) ;
#19 = PERSON_AND_ORGANIZATION ( #189, #43 ) ;
#20 = PERSON_AND_ORGANIZATION_ROLE ( 'creator' ) ;
#21 = PERSON_AND_ORGANIZATION ( #189, #43 ) ;
#22 = PERSON_AND_ORGANIZATION_ROLE ( 'design_supplier' ) ;
#23 = SECURITY_CLASSIFICATION_LEVEL ( 'unclassified' ) ;
#24 = PERSON_AND_ORGANIZATION ( #189, #43 ) ;
#25 = PERSON_AND_ORGANIZATION_ROLE ( 'classification_officer' ) ;
#26 = DATE_AND_TIME ( #184, #11 ) ;
#27 = DATE_TIME_ROLE ( 'classification_date' ) ;
#28 = PERSON_AND_ORGANIZATION ( #189, #43 ) ;
#29 = APPROVAL_STATUS ( 'not_yet_approved' ) ;
#30 = APPROVAL_ROLE ( '' ) ;
#31 = DATE_AND_TIME ( #186, #14 ) ;
#32 = APPROVAL_DATE_TIME ( #31, #13 ) ;
#33 = PRODUCT ( 'sone3D', 'sone3D', '', ( #235 ) ) ;
#34 = PRODUCT_DEFINITION_FORMATION_WITH_SPECIFIED_SOURCE ( 'ANY', '', #33, .NOT_KNOWN. ) ;
#35 = COORDINATED_UNIVERSAL_TIME_OFFSET ( 9, 0, .AHEAD. ) ;
#36 = COORDINATED_UNIVERSAL_TIME_OFFSET ( 9, 0, .AHEAD. ) ;
#37 = CALENDAR_DATE ( 2014, 14, 1 ) ;
#38 = APPROVAL_PERSON_ORGANIZATION ( #239, #224, #241 ) ;
#39 = CC_DESIGN_APPROVAL ( #224, ( #223 ) ) ;
#40 = CALENDAR_DATE ( 2014, 14, 1 ) ;
#41 = ADVANCED_FACE ( 'NONE', ( #195 ), #194, .T. ) ;
#42 = CIRCLE ( 'NONE', #181, 2.750000000000000000 ) ;
#43 = ORGANIZATION ( 'UNSPECIFIED', 'UNSPECIFIED', '' ) ;
#44 = AXIS2_PLACEMENT_3D ( 'NONE', #231, #232, #233 ) ;
#45 = CIRCLE ( 'NONE', #173, 2.750000000000000000 ) ;
#46 = ADVANCED_FACE ( 'NONE', ( #192, #191 ), #74, .F. ) ;
#47 = EDGE_CURVE ( 'NONE', #101, #103, #78, .T. ) ;
#48 = ADVANCED_FACE ( 'NONE', ( #178 ), #179, .F. ) ;
#49 = EDGE_CURVE ( 'NONE', #101, #62, #45, .T. ) ;
#50 = EDGE_CURVE ( 'NONE', #105, #102, #213, .T. ) ;
#51 = ADVANCED_FACE ( 'NONE', ( #169 ), #171, .T. ) ;
#52 = ADVANCED_FACE ( 'NONE', ( #177, #174 ), #93, .T. ) ;
#53 = ORIENTED_EDGE ( 'NONE', *, *, #47, .T. ) ;
#54 = ORIENTED_EDGE ( 'NONE', *, *, #206, .T. ) ;
#55 = ORIENTED_EDGE ( 'NONE', *, *, #204, .T. ) ;
#56 = VERTEX_POINT ( 'NONE', #97 ) ;
#57 = ORIENTED_EDGE ( 'NONE', *, *, #152, .T. ) ;
#58 = VERTEX_POINT ( 'NONE', #98 ) ;
#59 = ORIENTED_EDGE ( 'NONE', *, *, #49, .T. ) ;
#60 = ORIENTED_EDGE ( 'NONE', *, *, #202, .T. ) ;
#61 = ORIENTED_EDGE ( 'NONE', *, *, #152, .F. ) ;
#62 = VERTEX_POINT ( 'NONE', #99 ) ;
#63 = ORIENTED_EDGE ( 'NONE', *, *, #151, .F. ) ;
#64 = ORIENTED_EDGE ( 'NONE', *, *, #203, .T. ) ;
#65 = ORIENTED_EDGE ( 'NONE', *, *, #205, .T. ) ;
#66 = ORIENTED_EDGE ( 'NONE', *, *, #151, .T. ) ;
#67 = ORIENTED_EDGE ( 'NONE', *, *, #203, .F. ) ;
#68 = ORIENTED_EDGE ( 'NONE', *, *, #50, .T. ) ;
#69 = ORIENTED_EDGE ( 'NONE', *, *, #207, .F. ) ;
#70 = ORIENTED_EDGE ( 'NONE', *, *, #202, .F. ) ;
#71 = CARTESIAN_POINT ( 'NONE',  ( 0.0000000000000000000, 1.500000000000000000, 0.0000000000000000000 ) ) ;
#72 = DIRECTION ( 'NONE',  ( -0.0000000000000000000, -1.000000000000000000, -0.0000000000000000000 ) ) ;
#73 = DIRECTION ( 'NONE',  ( 0.0000000000000000000, 0.0000000000000000000, -1.000000000000000000 ) ) ;
#74 = PLANE ( 'NONE',  #175 ) ;
#75 = CARTESIAN_POINT ( 'NONE',  ( 0.0000000000000000000, 0.0000000000000000000, 0.0000000000000000000 ) ) ;
#76 = DIRECTION ( 'NONE',  ( 0.0000000000000000000, 1.000000000000000000, 0.0000000000000000000 ) ) ;
#77 = DIRECTION ( 'NONE',  ( 0.0000000000000000000, -0.0000000000000000000, 1.000000000000000000 ) ) ;
#78 = LINE ( 'NONE', #79, #165 ) ;
#79 = CARTESIAN_POINT ( 'NONE',  ( 3.367778697655221000E-016, 1.500000000000000000, 2.750000000000000000 ) ) ;
#80 = DIRECTION ( 'NONE',  ( -0.0000000000000000000, -1.000000000000000000, -0.0000000000000000000 ) ) ;
#81 = CARTESIAN_POINT ( 'NONE',  ( 0.0000000000000000000, 1.500000000000000000, 0.0000000000000000000 ) ) ;
#82 = DIRECTION ( 'NONE',  ( -0.0000000000000000000, -1.000000000000000000, -0.0000000000000000000 ) ) ;
#83 = DIRECTION ( 'NONE',  ( 0.0000000000000000000, 0.0000000000000000000, -1.000000000000000000 ) ) ;
#84 = CARTESIAN_POINT ( 'NONE',  ( 0.0000000000000000000, 1.500000000000000000, 0.0000000000000000000 ) ) ;
#85 = DIRECTION ( 'NONE',  ( 0.0000000000000000000, 1.000000000000000000, 0.0000000000000000000 ) ) ;
#86 = DIRECTION ( 'NONE',  ( 0.0000000000000000000, 0.0000000000000000000, 1.000000000000000000 ) ) ;
#87 = CARTESIAN_POINT ( 'NONE',  ( 0.0000000000000000000, 1.500000000000000000, 0.0000000000000000000 ) ) ;
#88 = DIRECTION ( 'NONE',  ( 0.0000000000000000000, 1.000000000000000000, 0.0000000000000000000 ) ) ;
#89 = DIRECTION ( 'NONE',  ( 0.0000000000000000000, 0.0000000000000000000, 1.000000000000000000 ) ) ;
#90 = CARTESIAN_POINT ( 'NONE',  ( 0.0000000000000000000, 1.500000000000000000, 0.0000000000000000000 ) ) ;
#91 = DIRECTION ( 'NONE',  ( -0.0000000000000000000, -1.000000000000000000, -0.0000000000000000000 ) ) ;
#92 = DIRECTION ( 'NONE',  ( 0.0000000000000000000, 0.0000000000000000000, -1.000000000000000000 ) ) ;
#93 = PLANE ( 'NONE',  #180 ) ;
#94 = CARTESIAN_POINT ( 'NONE',  ( 0.0000000000000000000, 1.500000000000000000, 0.0000000000000000000 ) ) ;
#95 = DIRECTION ( 'NONE',  ( 0.0000000000000000000, 1.000000000000000000, 0.0000000000000000000 ) ) ;
#96 = DIRECTION ( 'NONE',  ( 0.0000000000000000000, -0.0000000000000000000, 1.000000000000000000 ) ) ;
#97 = CARTESIAN_POINT ( 'NONE',  ( 1.836970198721029600E-015, 0.0000000000000000000, 15.00000000000000000 ) ) ;
#98 = CARTESIAN_POINT ( 'NONE',  ( 0.0000000000000000000, 0.0000000000000000000, -15.00000000000000000 ) ) ;
#99 = CARTESIAN_POINT ( 'NONE',  ( 0.0000000000000000000, 1.500000000000000000, -2.750000000000000000 ) ) ;
#100 = CARTESIAN_POINT ( 'NONE',  ( 3.367778697655221000E-016, 1.500000000000000000, 2.750000000000000000 ) ) ;
#101 = VERTEX_POINT ( 'NONE', #100 ) ;
#102 = VERTEX_POINT ( 'NONE', #114 ) ;
#103 = VERTEX_POINT ( 'NONE', #115 ) ;
#104 = VERTEX_POINT ( 'NONE', #116 ) ;
#105 = VERTEX_POINT ( 'NONE', #117 ) ;
#106 = EDGE_LOOP ( 'NONE', ( #198, #59, #60, #2 ) ) ;
#107 = EDGE_LOOP ( 'NONE', ( #67, #3, #66, #65 ) ) ;
#108 = EDGE_LOOP ( 'NONE', ( #199, #200 ) ) ;
#109 = EDGE_LOOP ( 'NONE', ( #1, #61 ) ) ;
#110 = EDGE_LOOP ( 'NONE', ( #197, #215 ) ) ;
#111 = EDGE_LOOP ( 'NONE', ( #214, #64, #57, #63 ) ) ;
#112 = EDGE_LOOP ( 'NONE', ( #54, #53, #69, #70 ) ) ;
#113 = EDGE_LOOP ( 'NONE', ( #68, #55 ) ) ;
#114 = CARTESIAN_POINT ( 'NONE',  ( 1.836970198721029600E-015, 1.500000000000000000, 15.00000000000000000 ) ) ;
#115 = CARTESIAN_POINT ( 'NONE',  ( 3.367778697655221000E-016, 0.0000000000000000000, 2.750000000000000000 ) ) ;
#116 = CARTESIAN_POINT ( 'NONE',  ( 0.0000000000000000000, 0.0000000000000000000, -2.750000000000000000 ) ) ;
#117 = CARTESIAN_POINT ( 'NONE',  ( 0.0000000000000000000, 1.500000000000000000, -15.00000000000000000 ) ) ;
#118 = CARTESIAN_POINT ( 'NONE',  ( 0.0000000000000000000, 0.0000000000000000000, 0.0000000000000000000 ) ) ;
#119 = DIRECTION ( 'NONE',  ( 0.0000000000000000000, 1.000000000000000000, 0.0000000000000000000 ) ) ;
#120 = DIRECTION ( 'NONE',  ( 0.0000000000000000000, 0.0000000000000000000, 1.000000000000000000 ) ) ;
#121 = CARTESIAN_POINT ( 'NONE',  ( 0.0000000000000000000, 0.0000000000000000000, 0.0000000000000000000 ) ) ;
#122 = LINE ( 'NONE', #123, #159 ) ;
#123 = CARTESIAN_POINT ( 'NONE',  ( 0.0000000000000000000, 1.500000000000000000, -15.00000000000000000 ) ) ;
#124 = DIRECTION ( 'NONE',  ( -0.0000000000000000000, -1.000000000000000000, -0.0000000000000000000 ) ) ;
#125 = DIRECTION ( 'NONE',  ( 0.0000000000000000000, 1.000000000000000000, 0.0000000000000000000 ) ) ;
#126 = DIRECTION ( 'NONE',  ( 0.0000000000000000000, 0.0000000000000000000, 1.000000000000000000 ) ) ;
#127 = CARTESIAN_POINT ( 'NONE',  ( 0.0000000000000000000, 1.500000000000000000, 0.0000000000000000000 ) ) ;
#128 = DIRECTION ( 'NONE',  ( -0.0000000000000000000, -1.000000000000000000, -0.0000000000000000000 ) ) ;
#129 = DIRECTION ( 'NONE',  ( 0.0000000000000000000, 0.0000000000000000000, -1.000000000000000000 ) ) ;
#130 = LINE ( 'NONE', #131, #160 ) ;
#131 = CARTESIAN_POINT ( 'NONE',  ( 0.0000000000000000000, 1.500000000000000000, -2.750000000000000000 ) ) ;
#132 = DIRECTION ( 'NONE',  ( -0.0000000000000000000, -1.000000000000000000, -0.0000000000000000000 ) ) ;
#133 = CARTESIAN_POINT ( 'NONE',  ( 0.0000000000000000000, 1.500000000000000000, 0.0000000000000000000 ) ) ;
#134 = LINE ( 'NONE', #135, #161 ) ;
#135 = CARTESIAN_POINT ( 'NONE',  ( 1.836970198721029600E-015, 1.500000000000000000, 15.00000000000000000 ) ) ;
#136 = DIRECTION ( 'NONE',  ( -0.0000000000000000000, -1.000000000000000000, -0.0000000000000000000 ) ) ;
#137 = DIRECTION ( 'NONE',  ( 0.0000000000000000000, 1.000000000000000000, 0.0000000000000000000 ) ) ;
#138 = DIRECTION ( 'NONE',  ( 0.0000000000000000000, 0.0000000000000000000, 1.000000000000000000 ) ) ;
#139 = CARTESIAN_POINT ( 'NONE',  ( 0.0000000000000000000, 0.0000000000000000000, 0.0000000000000000000 ) ) ;
#140 = DIRECTION ( 'NONE',  ( 0.0000000000000000000, 1.000000000000000000, 0.0000000000000000000 ) ) ;
#141 = DIRECTION ( 'NONE',  ( 0.0000000000000000000, 0.0000000000000000000, 1.000000000000000000 ) ) ;
#142 = CARTESIAN_POINT ( 'NONE',  ( 0.0000000000000000000, 1.500000000000000000, 0.0000000000000000000 ) ) ;
#143 = DIRECTION ( 'NONE',  ( 0.0000000000000000000, 1.000000000000000000, 0.0000000000000000000 ) ) ;
#144 = DIRECTION ( 'NONE',  ( 0.0000000000000000000, 0.0000000000000000000, 1.000000000000000000 ) ) ;
#145 = CARTESIAN_POINT ( 'NONE',  ( 0.0000000000000000000, 0.0000000000000000000, 0.0000000000000000000 ) ) ;
#146 = DIRECTION ( 'NONE',  ( 0.0000000000000000000, 1.000000000000000000, 0.0000000000000000000 ) ) ;
#147 = DIRECTION ( 'NONE',  ( 0.0000000000000000000, 0.0000000000000000000, 1.000000000000000000 ) ) ;
#148 = CC_DESIGN_APPROVAL ( #13, ( #212 ) ) ;
#149 = CC_DESIGN_SECURITY_CLASSIFICATION ( #212, ( #34 ) ) ;
#150 = EDGE_CURVE ( 'NONE', #103, #104, #42, .T. ) ;
#151 = EDGE_CURVE ( 'NONE', #105, #58, #122, .T. ) ;
#152 = EDGE_CURVE ( 'NONE', #56, #58, #217, .T. ) ;
#153 = APPLICATION_CONTEXT ( 'configuration controlled 3d designs of mechanical parts and assemblies' ) ;
#154 = DESIGN_CONTEXT ( 'detailed design', #216, 'design' ) ;
#155 = MANIFOLD_SOLID_BREP ( 'ÎÞ½ - µoµ1', #190 ) ;
#156 = PRODUCT_DEFINITION_SHAPE ( 'NONE', 'NONE',  #223 ) ;
#157 = AXIS2_PLACEMENT_3D ( 'NONE', #142, #143, #144 ) ;
#158 = AXIS2_PLACEMENT_3D ( 'NONE', #121, #125, #126 ) ;
#159 = VECTOR ( 'NONE', #124, 1000.000000000000000 ) ;
#160 = VECTOR ( 'NONE', #132, 1000.000000000000000 ) ;
#161 = VECTOR ( 'NONE', #136, 1000.000000000000000 ) ;
#162 = AXIS2_PLACEMENT_3D ( 'NONE', #145, #146, #147 ) ;
#163 = AXIS2_PLACEMENT_3D ( 'NONE', #139, #140, #141 ) ;
#164 = AXIS2_PLACEMENT_3D ( 'NONE', #133, #137, #138 ) ;
#165 = VECTOR ( 'NONE', #80, 1000.000000000000000 ) ;
#166 = FACE_OUTER_BOUND ( 'NONE', #112, .T. ) ;
#167 = CYLINDRICAL_SURFACE ( 'NONE', #168, 2.750000000000000000 ) ;
#168 = AXIS2_PLACEMENT_3D ( 'NONE', #127, #128, #129 ) ;
#169 = FACE_OUTER_BOUND ( 'NONE', #111, .T. ) ;
#170 = AXIS2_PLACEMENT_3D ( 'NONE', #90, #91, #92 ) ;
#171 = CYLINDRICAL_SURFACE ( 'NONE', #170, 15.00000000000000000 ) ;
#172 = AXIS2_PLACEMENT_3D ( 'NONE', #87, #88, #89 ) ;
#173 = AXIS2_PLACEMENT_3D ( 'NONE', #84, #85, #86 ) ;
#174 = FACE_BOUND ( 'NONE', #110, .T. ) ;
#175 = AXIS2_PLACEMENT_3D ( 'NONE', #75, #76, #77 ) ;
#176 = AXIS2_PLACEMENT_3D ( 'NONE', #81, #82, #83 ) ;
#177 = FACE_OUTER_BOUND ( 'NONE', #113, .T. ) ;
#178 = FACE_OUTER_BOUND ( 'NONE', #106, .T. ) ;
#179 = CYLINDRICAL_SURFACE ( 'NONE', #176, 2.750000000000000000 ) ;
#180 = AXIS2_PLACEMENT_3D ( 'NONE', #94, #95, #96 ) ;
#181 = AXIS2_PLACEMENT_3D ( 'NONE', #118, #119, #120 ) ;
#182 = COORDINATED_UNIVERSAL_TIME_OFFSET ( 9, 0, .AHEAD. ) ;
#183 = COORDINATED_UNIVERSAL_TIME_OFFSET ( 9, 0, .AHEAD. ) ;
#184 = CALENDAR_DATE ( 2014, 14, 1 ) ;
#185 = APPROVAL_PERSON_ORGANIZATION ( #28, #13, #30 ) ;
#186 = CALENDAR_DATE ( 2014, 14, 1 ) ;
#187 = UNCERTAINTY_MEASURE_WITH_UNIT (LENGTH_MEASURE( 1.000000000000000100E-005 ), #227, 'distance_accuracy_value', 'NONE');
#188 = ADVANCED_BREP_SHAPE_REPRESENTATION ( 'sone3D', ( #155, #44 ), #201 ) ;
#189 = PERSON ( 'UNSPECIFIED', 'UNSPECIFIED', 'UNSPECIFIED', ('UNSPECIFIED'), ('UNSPECIFIED'), ('UNSPECIFIED') ) ;
#190 = CLOSED_SHELL ( 'NONE', ( #196, #51, #52, #46, #41, #48 ) ) ;
#191 = FACE_BOUND ( 'NONE', #108, .T. ) ;
#192 = FACE_OUTER_BOUND ( 'NONE', #109, .T. ) ;
#193 = AXIS2_PLACEMENT_3D ( 'NONE', #71, #72, #73 ) ;
#194 = CYLINDRICAL_SURFACE ( 'NONE', #193, 15.00000000000000000 ) ;
#195 = FACE_OUTER_BOUND ( 'NONE', #107, .T. ) ;
#196 = ADVANCED_FACE ( 'NONE', ( #166 ), #167, .F. ) ;
#197 = ORIENTED_EDGE ( 'NONE', *, *, #206, .F. ) ;
#198 = ORIENTED_EDGE ( 'NONE', *, *, #47, .F. ) ;
#199 = ORIENTED_EDGE ( 'NONE', *, *, #207, .T. ) ;
#200 = ORIENTED_EDGE ( 'NONE', *, *, #150, .T. ) ;
#201 =( GEOMETRIC_REPRESENTATION_CONTEXT ( 3 ) GLOBAL_UNCERTAINTY_ASSIGNED_CONTEXT ( ( #187 ) ) GLOBAL_UNIT_ASSIGNED_CONTEXT ( ( #227, #228, #229 ) ) REPRESENTATION_CONTEXT ( 'NONE', 'WORKASPACE' ) );
#202 = EDGE_CURVE ( 'NONE', #62, #104, #130, .T. ) ;
#203 = EDGE_CURVE ( 'NONE', #102, #56, #134, .T. ) ;
#204 = EDGE_CURVE ( 'NONE', #102, #105, #221, .T. ) ;
#205 = EDGE_CURVE ( 'NONE', #58, #56, #220, .T. ) ;
#206 = EDGE_CURVE ( 'NONE', #62, #101, #218, .T. ) ;
#207 = EDGE_CURVE ( 'NONE', #104, #103, #219, .T. ) ;
#208 = CALENDAR_DATE ( 2014, 14, 1 ) ;
#209 = APPROVAL_PERSON_ORGANIZATION ( #248, #6, #16 ) ;
#210 = CC_DESIGN_APPROVAL ( #6, ( #34 ) ) ;
#211 = COORDINATED_UNIVERSAL_TIME_OFFSET ( 9, 0, .AHEAD. ) ;
#212 = SECURITY_CLASSIFICATION ( '', '', #23 ) ;
#213 = CIRCLE ( 'NONE', #172, 15.00000000000000000 ) ;
#214 = ORIENTED_EDGE ( 'NONE', *, *, #204, .F. ) ;
#215 = ORIENTED_EDGE ( 'NONE', *, *, #49, .F. ) ;
#216 = APPLICATION_CONTEXT ( 'configuration controlled 3d designs of mechanical parts and assemblies' ) ;
#217 = CIRCLE ( 'NONE', #158, 15.00000000000000000 ) ;
#218 = CIRCLE ( 'NONE', #157, 2.750000000000000000 ) ;
#219 = CIRCLE ( 'NONE', #162, 2.750000000000000000 ) ;
#220 = CIRCLE ( 'NONE', #163, 15.00000000000000000 ) ;
#221 = CIRCLE ( 'NONE', #164, 15.00000000000000000 ) ;
#222 = CC_DESIGN_PERSON_AND_ORGANIZATION_ASSIGNMENT ( #236, #237, ( #33 ) ) ;
#223 = PRODUCT_DEFINITION ( 'UNKNOWN', '', #34, #154 ) ;
#224 = APPROVAL ( #240, 'UNSPECIFIED' ) ;
#225 = LOCAL_TIME ( 13, 40, 25.00000000000000000, #36 ) ;
#226 = CC_DESIGN_PERSON_AND_ORGANIZATION_ASSIGNMENT ( #244, #245, ( #223 ) ) ;
#227 =( LENGTH_UNIT ( ) NAMED_UNIT ( * ) SI_UNIT ( .MILLI., .METRE. ) );
#228 =( NAMED_UNIT ( * ) PLANE_ANGLE_UNIT ( ) SI_UNIT ( $, .RADIAN. ) );
#229 =( NAMED_UNIT ( * ) SI_UNIT ( $, .STERADIAN. ) SOLID_ANGLE_UNIT ( ) );
#230 = APPLICATION_PROTOCOL_DEFINITION ( 'international standard', 'config_control_design', 1994, #153 ) ;
#231 = CARTESIAN_POINT ( 'NONE',  ( 0.0000000000000000000, 0.0000000000000000000, 0.0000000000000000000 ) ) ;
#232 = DIRECTION ( 'NONE',  ( 0.0000000000000000000, 0.0000000000000000000, 1.000000000000000000 ) ) ;
#233 = DIRECTION ( 'NONE',  ( 1.000000000000000000, 0.0000000000000000000, 0.0000000000000000000 ) ) ;
#234 = SHAPE_DEFINITION_REPRESENTATION ( #156, #188 ) ;
#235 = MECHANICAL_CONTEXT ( 'NONE', #153, 'mechanical' ) ;
#236 = PERSON_AND_ORGANIZATION ( #189, #43 ) ;
#237 = PERSON_AND_ORGANIZATION_ROLE ( 'design_owner' ) ;
#238 = APPLICATION_PROTOCOL_DEFINITION ( 'international standard', 'config_control_design', 1994, #216 ) ;
#239 = PERSON_AND_ORGANIZATION ( #189, #43 ) ;
#240 = APPROVAL_STATUS ( 'not_yet_approved' ) ;
#241 = APPROVAL_ROLE ( '' ) ;
#242 = DATE_AND_TIME ( #37, #225 ) ;
#243 = APPROVAL_DATE_TIME ( #242, #224 ) ;
#244 = PERSON_AND_ORGANIZATION ( #189, #43 ) ;
#245 = PERSON_AND_ORGANIZATION_ROLE ( 'creator' ) ;
#246 = DATE_AND_TIME ( #40, #4 ) ;
#247 = DATE_TIME_ROLE ( 'creation_date' ) ;
#248 = PERSON_AND_ORGANIZATION ( #189, #43 ) ;
#249 = APPROVAL_STATUS ( 'not_yet_approved' ) ;
ENDSEC;
END-ISO-10303-21;
